  0
SECTION
  2
HEADER
  9
$ACADVER
  1
AC1015
  9
$ACADMAINTVER
 70
     6
  9
$DWGCODEPAGE
  3
ANSI_1252
  9
$INSBASE
 10
0.0
 20
0.0
 30
0.0
  9
$EXTMIN
 10
0.0
 20
0.0
 30
0.0
  9
$EXTMAX
 10
210.0
 20
297.0
 30
0.0
  9
$LIMMIN
 10
0.0
 20
0.0
  9
$LIMMAX
 10
210.0
 20
297.0
  9
$ORTHOMODE
 70
     0
  9
$REGENMODE
 70
     1
  9
$FILLMODE
 70
     1
  9
$QTEXTMODE
 70
     0
  9
$MIRRTEXT
 70
     1
  9
$LTSCALE
 40
1.0
  9
$ATTMODE
 70
     1
  9
$TEXTSIZE
 40
3.5
  9
$TRACEWID
 40
1.0
  9
$TEXTSTYLE
  7
Standard
  9
$CLAYER
  8
0
  9
$CELTYPE
  6
ByLayer
  9
$CECOLOR
 62
   256
  9
$CELTSCALE
 40
1.0
  9
$DISPSILH
 70
     0
  9
$DIMSCALE
 40
1.0
  9
$DIMASZ
 40
3.302
  9
$DIMEXO
 40
1.0
  9
$DIMDLI
 40
3.75
  9
$DIMRND
 40
0.0
  9
$DIMDLE
 40
0.0
  9
$DIMEXE
 40
1.0
  9
$DIMTP
 40
0.0
  9
$DIMTM
 40
0.0
  9
$DIMTXT
 40
3.5
  9
$DIMCEN
 40
2.5
  9
$DIMTSZ
 40
0.0
  9
$DIMTOL
 70
     0
  9
$DIMLIM
 70
     0
  9
$DIMTIH
 70
     1
  9
$DIMTOH
 70
     1
  9
$DIMSE1
 70
     0
  9
$DIMSE2
 70
     0
  9
$DIMTAD
 70
     1
  9
$DIMZIN
 70
     0
  9
$DIMBLK
  1

  9
$DIMASO
 70
     1
  9
$DIMSHO
 70
     1
  9
$DIMPOST
  1

  9
$DIMAPOST
  1

  9
$DIMALT
 70
     0
  9
$DIMALTD
 70
     3
  9
$DIMALTF
 40
0.0393700787
  9
$DIMLFAC
 40
5.0
  9
$DIMTOFL
 70
     1
  9
$DIMTVP
 40
0.0
  9
$DIMTIX
 70
     0
  9
$DIMSOXD
 70
     0
  9
$DIMSAH
 70
     0
  9
$DIMBLK1
  1

  9
$DIMBLK2
  1

  9
$DIMSTYLE
  2
ISO-25
  9
$DIMCLRD
 70
     0
  9
$DIMCLRE
 70
     0
  9
$DIMCLRT
 70
     0
  9
$DIMTFAC
 40
1.0
  9
$DIMGAP
 40
1.524
  9
$DIMJUST
 70
     0
  9
$DIMSD1
 70
     0
  9
$DIMSD2
 70
     0
  9
$DIMTOLJ
 70
     0
  9
$DIMTZIN
 70
     0
  9
$DIMALTZ
 70
     0
  9
$DIMALTTZ
 70
     0
  9
$DIMUPT
 70
     0
  9
$DIMDEC
 70
     2
  9
$DIMTDEC
 70
     2
  9
$DIMALTU
 70
     2
  9
$DIMALTTD
 70
     3
  9
$DIMTXSTY
  7
Standard
  9
$DIMAUNIT
 70
     0
  9
$DIMADEC
 70
     2
  9
$DIMALTRND
 40
0.0
  9
$DIMAZIN
 70
     0
  9
$DIMDSEP
 70
    44
  9
$DIMATFIT
 70
     3
  9
$DIMFRAC
 70
     0
  9
$DIMLDRBLK
  1

  9
$DIMLUNIT
 70
     2
  9
$DIMLWD
 70
    -2
  9
$DIMLWE
 70
    -2
  9
$DIMTMOVE
 70
     0
  9
$LUNITS
 70
     2
  9
$LUPREC
 70
     2
  9
$SKETCHINC
 40
1.0
  9
$FILLETRAD
 40
10.0
  9
$AUNITS
 70
     0
  9
$AUPREC
 70
     2
  9
$MENU
  1
.
  9
$ELEVATION
 40
0.0
  9
$PELEVATION
 40
0.0
  9
$THICKNESS
 40
0.0
  9
$LIMCHECK
 70
     0
  9
$CHAMFERA
 40
10.0
  9
$CHAMFERB
 40
10.0
  9
$CHAMFERC
 40
20.0
  9
$CHAMFERD
 40
0.0
  9
$SKPOLY
 70
     0
  9
$TDCREATE
 40
2455748.566998611
  9
$TDUCREATE
 40
2455748.066998611
  9
$TDUPDATE
 40
2455748.566998623
  9
$TDUUPDATE
 40
2455748.066998623
  9
$TDINDWG
 40
0.0000000116
  9
$TDUSRTIMER
 40
0.0000000116
  9
$USRTIMER
 70
     1
  9
$ANGBASE
 50
0.0
  9
$ANGDIR
 70
     0
  9
$PDMODE
 70
     0
  9
$PDSIZE
 40
-1.0
  9
$PLINEWID
 40
0.0
  9
$SPLFRAME
 70
     0
  9
$SPLINETYPE
 70
     6
  9
$SPLINESEGS
 70
     8
  9
$HANDSEED
  5
243
  9
$SURFTAB1
 70
     6
  9
$SURFTAB2
 70
     6
  9
$SURFTYPE
 70
     6
  9
$SURFU
 70
     6
  9
$SURFV
 70
     6
  9
$UCSBASE
  2

  9
$UCSNAME
  2

  9
$UCSORG
 10
0.0
 20
0.0
 30
0.0
  9
$UCSXDIR
 10
1.0
 20
0.0
 30
0.0
  9
$UCSYDIR
 10
0.0
 20
1.0
 30
0.0
  9
$UCSORTHOREF
  2

  9
$UCSORTHOVIEW
 70
     0
  9
$UCSORGTOP
 10
0.0
 20
0.0
 30
0.0
  9
$UCSORGBOTTOM
 10
0.0
 20
0.0
 30
0.0
  9
$UCSORGLEFT
 10
0.0
 20
0.0
 30
0.0
  9
$UCSORGRIGHT
 10
0.0
 20
0.0
 30
0.0
  9
$UCSORGFRONT
 10
0.0
 20
0.0
 30
0.0
  9
$UCSORGBACK
 10
0.0
 20
0.0
 30
0.0
  9
$PUCSBASE
  2

  9
$PUCSNAME
  2

  9
$PUCSORG
 10
0.0
 20
0.0
 30
0.0
  9
$PUCSXDIR
 10
1.0
 20
0.0
 30
0.0
  9
$PUCSYDIR
 10
0.0
 20
1.0
 30
0.0
  9
$PUCSORTHOREF
  2

  9
$PUCSORTHOVIEW
 70
     0
  9
$PUCSORGTOP
 10
0.0
 20
0.0
 30
0.0
  9
$PUCSORGBOTTOM
 10
0.0
 20
0.0
 30
0.0
  9
$PUCSORGLEFT
 10
0.0
 20
0.0
 30
0.0
  9
$PUCSORGRIGHT
 10
0.0
 20
0.0
 30
0.0
  9
$PUCSORGFRONT
 10
0.0
 20
0.0
 30
0.0
  9
$PUCSORGBACK
 10
0.0
 20
0.0
 30
0.0
  9
$USERI1
 70
     0
  9
$USERI2
 70
     0
  9
$USERI3
 70
     0
  9
$USERI4
 70
     0
  9
$USERI5
 70
     0
  9
$USERR1
 40
0.0
  9
$USERR2
 40
0.0
  9
$USERR3
 40
0.0
  9
$USERR4
 40
0.0
  9
$USERR5
 40
0.0
  9
$WORLDVIEW
 70
     1
  9
$SHADEDGE
 70
     3
  9
$SHADEDIF
 70
    70
  9
$TILEMODE
 70
     1
  9
$MAXACTVP
 70
    64
  9
$PINSBASE
 10
0.0
 20
0.0
 30
0.0
  9
$PLIMCHECK
 70
     0
  9
$PEXTMIN
 10
1.0000000000E+20
 20
1.0000000000E+20
 30
1.0000000000E+20
  9
$PEXTMAX
 10
-1.0000000000E+20
 20
-1.0000000000E+20
 30
-1.0000000000E+20
  9
$PLIMMIN
 10
0.0
 20
0.0
  9
$PLIMMAX
 10
420.0
 20
297.0
  9
$UNITMODE
 70
     0
  9
$VISRETAIN
 70
     1
  9
$PLINEGEN
 70
     0
  9
$PSLTSCALE
 70
     1
  9
$TREEDEPTH
 70
  3020
  9
$CMLSTYLE
  2
Standard
  9
$CMLJUST
 70
     0
  9
$CMLSCALE
 40
20.0
  9
$PROXYGRAPHICS
 70
     1
  9
$MEASUREMENT
 70
     1
  9
$CELWEIGHT
370
    -1
  9
$ENDCAPS
280
     0
  9
$JOINSTYLE
280
     0
  9
$LWDISPLAY
290
     1
  9
$INSUNITS
 70
     4
  9
$HYPERLINKBASE
  1

  9
$STYLESHEET
  1

  9
$XEDIT
290
     1
  9
$CEPSNTYPE
380
     0
  9
$PSTYLEMODE
290
     1
  9
$FINGERPRINTGUID
  2
{A0BD7848-ED41-4CB0-8A94-73DB3FB9AD41}
  9
$VERSIONGUID
  2
{FAEB1C32-E019-11D5-929B-00C0DF256EC4}
  9
$EXTNAMES
290
     1
  9
$PSVPSCALE
 40
0.0
  9
$OLESTARTUP
290
     0
  0
ENDSEC
  0
SECTION
  2
CLASSES
  0
CLASS
  1
ACDBDICTIONARYWDFLT
  2
AcDbDictionaryWithDefault
  3
ObjectDBX Classes
 90
        0
280
     0
281
     0
  0
CLASS
  1
VISUALSTYLE
  2
AcDbVisualStyle
  3
ObjectDBX Classes
 90
     4095
280
     0
281
     0
  0
CLASS
  1
MATERIAL
  2
AcDbMaterial
  3
ObjectDBX Classes
 90
     1153
280
     0
281
     0
  0
CLASS
  1
IMAGEDEF
  2
AcDbRasterImageDef
  3
ISM
 90
        0
280
     0
281
     0
  0
CLASS
  1
IMAGE
  2
AcDbRasterImage
  3
ISM
 90
      127
280
     0
281
     1
  0
CLASS
  1
IMAGEDEF_REACTOR
  2
AcDbRasterImageDefReactor
  3
ISM
 90
        1
280
     0
281
     0
  0
CLASS
  1
SCALE
  2
AcDbScale
  3
ObjectDBX Classes
 90
     1153
280
     0
281
     0
  0
CLASS
  1
DICTIONARYVAR
  2
AcDbDictionaryVar
  3
ObjectDBX Classes
 90
        0
280
     0
281
     0
  0
CLASS
  1
ACDBPLACEHOLDER
  2
AcDbPlaceHolder
  3
ObjectDBX Classes
 90
        0
280
     0
281
     0
  0
CLASS
  1
LAYOUT
  2
AcDbLayout
  3
ObjectDBX Classes
 90
        0
280
     0
281
     0
  0
ENDSEC
  0
SECTION
  2
TABLES
  0
TABLE
  2
VPORT
  5
8
330
0
100
AcDbSymbolTable
 70
     1
  0
VPORT
  5
29
330
8
100
AcDbSymbolTableRecord
100
AcDbViewportTableRecord
  2
*Active
 70
     0
 10
0.0
 20
0.0
 11
1.0
 21
1.0
 12
105.0
 22
148.5
 13
0.0
 23
0.0
 14
10.0
 24
10.0
 15
10.0
 25
10.0
 16
0.0
 26
0.0
 36
1.0
 17
0.0
 27
0.0
 37
0.0
 40
297.0
 41
0.7070707071
 42
50.0
 43
0.0
 44
0.0
 50
0.0
 51
0.0
 71
     0
 72
  2000
 73
     1
 74
     3
 75
     0
 76
     0
 77
     0
 78
     0
281
     0
 65
     1
110
0.0
120
0.0
130
0.0
111
1.0
121
0.0
131
0.0
112
0.0
122
1.0
132
0.0
 79
     0
146
0.0
  0
ENDTAB
  0
TABLE
  2
LTYPE
  5
5
330
0
100
AcDbSymbolTable
 70
     6
  0
LTYPE
  5
14
330
5
100
AcDbSymbolTableRecord
100
AcDbLinetypeTableRecord
  2
ByBlock
 70
     0
  3

 72
    65
 73
     0
 40
0.0
  0
LTYPE
  5
15
330
5
100
AcDbSymbolTableRecord
100
AcDbLinetypeTableRecord
  2
ByLayer
 70
     0
  3

 72
    65
 73
     0
 40
0.0
  0
LTYPE
  5
16
330
5
100
AcDbSymbolTableRecord
100
AcDbLinetypeTableRecord
  2
Continuous
 70
     0
  3
Solid line
 72
    65
 73
     0
 40
0.0
  0
LTYPE
  5
3F
330
5
100
AcDbSymbolTableRecord
100
AcDbLinetypeTableRecord
  2
HIDDEN
 70
     0
  3
Hidden __ __ __ __ __ __ __ __ __ __ __ __ __ __
 72
    65
 73
     2
 40
1.905
 49
1.27
 74
     0
 49
-0.635
 74
     0
  0
LTYPE
  5
40
330
5
100
AcDbSymbolTableRecord
100
AcDbLinetypeTableRecord
  2
PHANTOM
 70
     0
  3
Phantom ______  __  __  ______  __  __  ______
 72
    65
 73
     6
 40
12.7
 49
6.35
 74
     0
 49
-1.27
 74
     0
 49
1.27
 74
     0
 49
-1.27
 74
     0
 49
1.27
 74
     0
 49
-1.27
 74
     0
  0
LTYPE
  5
41
330
5
100
AcDbSymbolTableRecord
100
AcDbLinetypeTableRecord
  2
CENTER
 70
     0
  3
Center ____ _ ____ _ ____ _ ____ _ ____ _ ____
 72
    65
 73
     4
 40
10.16
 49
6.35
 74
     0
 49
-1.27
 74
     0
 49
1.27
 74
     0
 49
-1.27
 74
     0
  0
LTYPE
  5
42
330
5
100
AcDbSymbolTableRecord
100
AcDbLinetypeTableRecord
  2
CENTERX2
 70
     0
  3
Center (2x) ________  __  ________  __  _____
 72
    65
 73
     4
 40
20.32
 49
12.7
 74
     0
 49
-2.54
 74
     0
 49
2.54
 74
     0
 49
-2.54
 74
     0
  0
LTYPE
  5
43
330
5
100
AcDbSymbolTableRecord
100
AcDbLinetypeTableRecord
  2
DOT2
 70
     0
  3
Dot (.5x) ........................................
 72
    65
 73
     2
 40
0.635
 49
0.0
 74
     0
 49
-0.635
 74
     0
  0
ENDTAB
  0
TABLE
  2
LAYER
  5
2
330
0
100
AcDbSymbolTable
 70
     2
  0
LAYER
  5
10
330
2
100
AcDbSymbolTableRecord
100
AcDbLayerTableRecord
  2
0
 70
     0
 62
     7
  6
Continuous
370
    -3
390
F
  0
LAYER
  5
44
330
2
100
AcDbSymbolTableRecord
100
AcDbLayerTableRecord
  2
FORMAT
 70
     0
 62
     7
  6
Continuous
370
    -3
390
F
  0
ENDTAB
  0
TABLE
  2
STYLE
  5
3
330
0
100
AcDbSymbolTable
 70
     4
  0
STYLE
  5
11
330
3
100
AcDbSymbolTableRecord
100
AcDbTextStyleTableRecord
  2
Standard
 70
     0
 40
0.0
 41
1.0
 50
0.0
 71
     0
 42
2.5
  3
txt
  4

  0
STYLE
  5
5D
330
3
100
AcDbSymbolTableRecord
100
AcDbTextStyleTableRecord
  2
SLDTEXTSTYLE0
 70
     0
 40
0.0
 41
0.605
 50
0.0
 71
     0
 42
0.2
  3
TXT
  4

  0
STYLE
  5
81
330
3
100
AcDbSymbolTableRecord
100
AcDbTextStyleTableRecord
  2
SLDTEXTSTYLE1
 70
     0
 40
0.0
 41
0.75
 50
0.0
 71
     0
 42
0.2
  3
TXT
  4

  0
STYLE
  5
83
330
3
100
AcDbSymbolTableRecord
100
AcDbTextStyleTableRecord
  2
SLDTEXTSTYLE2
 70
     0
 40
0.0
 41
0.6875
 50
0.0
 71
     0
 42
0.2
  3
TXT
  4

  0
ENDTAB
  0
TABLE
  2
VIEW
  5
6
330
0
100
AcDbSymbolTable
 70
     0
  0
ENDTAB
  0
TABLE
  2
UCS
  5
7
330
0
100
AcDbSymbolTable
 70
     0
  0
ENDTAB
  0
TABLE
  2
APPID
  5
9
330
0
100
AcDbSymbolTable
 70
     1
  0
APPID
  5
12
330
9
100
AcDbSymbolTableRecord
100
AcDbRegAppTableRecord
  2
ACAD
 70
     0
  0
ENDTAB
  0
TABLE
  2
DIMSTYLE
  5
A
330
0
100
AcDbSymbolTable
 70
     1
100
AcDbDimStyleTable
  0
DIMSTYLE
105
27
330
A
100
AcDbSymbolTableRecord
100
AcDbDimStyleTableRecord
  2
ISO-25
 70
     0
 41
2.5
 42
0.625
 43
3.75
 44
1.25
 73
     0
 74
     0
 77
     1
 78
     8
140
2.5
141
2.5
143
0.0393700787
147
0.625
171
     3
172
     1
271
     2
272
     2
274
     3
278
    44
283
     0
284
     8
340
11
  0
ENDTAB
  0
TABLE
  2
BLOCK_RECORD
  5
1
330
0
100
AcDbSymbolTable
 70
     3
  0
BLOCK_RECORD
  5
1F
330
1
100
AcDbSymbolTableRecord
100
AcDbBlockTableRecord
  2
*Model_Space
340
22
  0
BLOCK_RECORD
  5
1B
330
1
100
AcDbSymbolTableRecord
100
AcDbBlockTableRecord
  2
*Paper_Space
340
1E
  0
BLOCK_RECORD
  5
23
330
1
100
AcDbSymbolTableRecord
100
AcDbBlockTableRecord
  2
*Paper_Space0
340
26
  0
BLOCK_RECORD
  5
87
330
1
100
AcDbSymbolTableRecord
100
AcDbBlockTableRecord
  2
SW_NOTE_0
340
0
102
{BLKREFS
331
8C
102
}
  0
BLOCK_RECORD
  5
8D
330
1
100
AcDbSymbolTableRecord
100
AcDbBlockTableRecord
  2
SW_NOTE_1
340
0
102
{BLKREFS
331
92
102
}
  0
ENDTAB
  0
ENDSEC
  0
SECTION
  2
BLOCKS
  0
BLOCK
  5
20
330
1F
100
AcDbEntity
  8
0
100
AcDbBlockBegin
  2
*Model_Space
 70
     0
 10
0.0
 20
0.0
 30
0.0
  3
*Model_Space
  1

  0
ENDBLK
  5
21
330
1F
100
AcDbEntity
  8
0
100
AcDbBlockEnd
  0
BLOCK
  5
1C
330
1B
100
AcDbEntity
 67
     1
  8
0
100
AcDbBlockBegin
  2
*Paper_Space
 70
     0
 10
0.0
 20
0.0
 30
0.0
  3
*Paper_Space
  1

  0
ENDBLK
  5
1D
330
1B
100
AcDbEntity
 67
     1
  8
0
100
AcDbBlockEnd
  0
BLOCK
  5
24
330
23
100
AcDbEntity
  8
0
100
AcDbBlockBegin
  2
*Paper_Space0
 70
     0
 10
0.0
 20
0.0
 30
0.0
  3
*Paper_Space0
  1

  0
ENDBLK
  5
25
330
23
100
AcDbEntity
  8
0
100
AcDbBlockEnd
  0
BLOCK
  5
88
330
87
100
AcDbEntity
  8
0
100
AcDbBlockBegin
  2
SW_NOTE_0
 70
     0
 10
0.0
 20
0.0
 30
0.0
  3
SW_NOTE_0
  1

  0
MTEXT
  5
8A
330
87
100
AcDbEntity
  8
0
  6
Continuous
 62
     0
370
     0
100
AcDbMText
 10
0.0
 20
1.9336016097
 30
0.0
 40
1.5
 41
0.0
 71
     1
 72
     1
  1
Disclaimer: This information is intended solely as a guide for use fo Marley NZ products. Before using you should ensure that the product is suitable for use in the specific application. 
  7
SLDTEXTSTYLE0
 73
     1
 44
1.0
  0
MTEXT
  5
8B
330
87
100
AcDbEntity
  8
0
  6
Continuous
 62
     0
370
     0
100
AcDbMText
 10
0.0
 20
-0.5663983345
 30
0.0
 40
1.5
 41
0.0
 71
     1
 72
     1
  1
Marley NZ makes no warranty regarding the use of this information with non-Marley NZ products. This drawing is the property of Marley NZ Ltd.
  7
SLDTEXTSTYLE0
 73
     1
 44
1.0
  0
ENDBLK
  5
89
330
87
100
AcDbEntity
  8
0
100
AcDbBlockEnd
  0
BLOCK
  5
8E
330
8D
100
AcDbEntity
  8
0
100
AcDbBlockBegin
  2
SW_NOTE_1
 70
     0
 10
0.0
 20
0.0
 30
0.0
  3
SW_NOTE_1
  1

  0
MTEXT
  5
90
330
8D
100
AcDbEntity
  8
0
  6
Continuous
 62
     0
370
     0
100
AcDbMText
 10
0.0
 20
3.0695925553
 30
0.0
 40
2.38125
 41
0.0
 71
     1
 72
     1
  1
0800 MARLEY
  7
SLDTEXTSTYLE0
 73
     1
 44
1.0
  0
MTEXT
  5
91
330
8D
100
AcDbEntity
  8
0
  6
Continuous
 62
     0
370
     0
100
AcDbMText
 10
-2.0973738283
 20
-0.1054074063
 30
0.0
 40
2.38125
 41
0.0
 71
     1
 72
     1
  1
www.marley.co.nz
  7
SLDTEXTSTYLE0
 73
     1
 44
1.0
  0
ENDBLK
  5
8F
330
8D
100
AcDbEntity
  8
0
100
AcDbBlockEnd
  0
ENDSEC
  0
SECTION
  2
ENTITIES
  0
IMAGE
  5
47
330
1F
100
AcDbEntity
  8
0
 92
      140
310
8C00000001000000840000000600000005000000921C683CA6232740D257A264CEE03B4000000000000000007F530CD800865340D257A264CEE03B4000000000000000007F530CD8008653401D9A86485C5A43400000000000000000921C683CA62327401D9A86485C5A43400000000000000000921C683CA6232740D257A2
310
64CEE03B400000000000000000
100
AcDbRasterImage
 90
        0
 10
11.5696276548
 20
27.8781493088
 30
0.0
 11
0.07416295858990078
 21
0.0
 31
0.0
 12
0.0
 22
0.0741629585899007
 32
0.0
 13
897.0
 23
146.0
340
46
 70
     7
280
     0
281
    50
282
    50
283
     0
360
48
 71
     1
 91
        2
 14
-0.5
 24
-0.5
 14
896.5
 24
145.5
  0
LINE
  5
49
330
1F
100
AcDbEntity
  8
0
  6
Continuous
 62
     7
370
    40
100
AcDbLine
 10
10.0788435654
 20
5.2147801566
 30
0.0
 11
205.0788435654
 21
5.2147801566
 31
0.0
  0
LINE
  5
4A
330
1F
100
AcDbEntity
  8
0
  6
Continuous
 62
     7
370
    40
100
AcDbLine
 10
0.0788435654
 20
0.2147801566
 30
0.0
 11
210.0788435654
 21
0.2147801566
 31
0.0
  0
LINE
  5
4B
330
1F
100
AcDbEntity
  8
0
  6
Continuous
 62
     7
370
    40
100
AcDbLine
 10
0.0788435654
 20
0.2147801566
 30
0.0
 11
0.0788435654
 21
297.2147801566
 31
0.0
  0
LINE
  5
4C
330
1F
100
AcDbEntity
  8
0
  6
Continuous
 62
     7
370
    40
100
AcDbLine
 10
0.0788435654
 20
297.2147801566
 30
0.0
 11
210.0788435654
 21
297.2147801566
 31
0.0
  0
LINE
  5
4D
330
1F
100
AcDbEntity
  8
0
  6
Continuous
 62
     7
370
    40
100
AcDbLine
 10
210.0788435654
 20
0.2147801566
 30
0.0
 11
210.0788435654
 21
297.2147801566
 31
0.0
  0
LINE
  5
4E
330
1F
100
AcDbEntity
  8
0
  6
Continuous
 62
     7
370
    40
100
AcDbLine
 10
205.0788435654
 20
35.066192565
 30
0.0
 11
116.9116953245
 21
35.066192565
 31
0.0
  0
LINE
  5
4F
330
1F
100
AcDbEntity
  8
0
  6
Continuous
 62
     7
370
    40
100
AcDbLine
 10
10.0788435654
 20
292.2147801566
 30
0.0
 11
205.0788435654
 21
292.2147801566
 31
0.0
  0
LINE
  5
50
330
1F
100
AcDbEntity
  8
0
  6
Continuous
 62
     7
370
    40
100
AcDbLine
 10
205.0788435654
 20
5.2147801566
 30
0.0
 11
180.9883118484
 21
5.2147801566
 31
0.0
  0
LINE
  5
51
330
1F
100
AcDbEntity
  8
0
  6
Continuous
 62
     7
370
    40
100
AcDbLine
 10
10.0788435654
 20
5.2147801566
 30
0.0
 11
10.0788435654
 21
292.2147801566
 31
0.0
  0
LINE
  5
52
330
1F
100
AcDbEntity
  8
0
  6
Continuous
 62
     7
370
    40
100
AcDbLine
 10
10.0788435654
 20
11.2357498601
 30
0.0
 11
205.0788435654
 21
11.2357498601
 31
0.0
  0
LINE
  5
53
330
1F
100
AcDbEntity
  8
0
  6
Continuous
 62
     7
370
    40
100
AcDbLine
 10
205.0788435654
 20
43.3709272577
 30
0.0
 11
10.1108209117
 21
43.3709272577
 31
0.0
  0
LINE
  5
54
330
1F
100
AcDbEntity
  8
0
  6
Continuous
 62
     7
370
    40
100
AcDbLine
 10
210.0788435654
 20
292.2147801566
 30
0.0
 11
210.0788435654
 21
297.2147801566
 31
0.0
  0
LINE
  5
55
330
1F
100
AcDbEntity
  8
0
  6
Continuous
 62
     7
370
    40
100
AcDbLine
 10
79.7554204619
 20
22.1812450349
 30
0.0
 11
79.7554204619
 21
43.3709272577
 31
0.0
  0
LINE
  5
56
330
1F
100
AcDbEntity
  8
0
  6
Continuous
 62
     7
370
    40
100
AcDbLine
 10
10.1108209117
 20
60.3709272577
 30
0.0
 11
10.1108209117
 21
5.1209272577
 31
0.0
  0
LINE
  5
57
330
1F
100
AcDbEntity
  8
0
  6
Continuous
 62
     7
370
    40
100
AcDbLine
 10
10.0788435654
 20
22.2147801566
 30
0.0
 11
205.0788435654
 21
22.1209272577
 31
0.0
  0
LINE
  5
58
330
1F
100
AcDbEntity
  8
0
  6
Continuous
 62
     7
370
    40
100
AcDbLine
 10
116.9080516189
 20
43.3709272577
 30
0.0
 11
116.9173564476
 21
22.1633591097
 31
0.0
  0
LINE
  5
59
330
1F
100
AcDbEntity
  8
0
  6
Continuous
 62
     7
370
    40
100
AcDbLine
 10
160.8788435654
 20
5.2147801566
 30
0.0
 11
160.8788435654
 21
11.2357498601
 31
0.0
  0
LINE
  5
5A
330
1F
100
AcDbEntity
  8
0
  6
Continuous
 62
     7
370
    40
100
AcDbLine
 10
192.0788435654
 20
11.2357498601
 30
0.0
 11
192.0788435654
 21
22.2147801566
 31
0.0
  0
LINE
  5
5B
330
1F
100
AcDbEntity
  8
0
  6
Continuous
 62
     7
370
    40
100
AcDbLine
 10
205.0788435654
 20
13.7147801566
 30
0.0
 11
192.0788435654
 21
13.7147801566
 31
0.0
  0
LINE
  5
5C
330
1F
100
AcDbEntity
  8
0
  6
Continuous
 62
     7
370
    40
100
AcDbLine
 10
205.0788435654
 20
5.2147801566
 30
0.0
 11
205.0788435654
 21
292.2147801566
 31
0.0
  0
MTEXT
  5
80
330
1F
100
AcDbEntity
  8
0
  6
Continuous
 62
     7
370
     0
100
AcDbMText
 10
133.8609390955
 20
40.8065136599
 30
0.0
 40
3.175
 41
0.0
 71
     1
 72
     1
  1
RP80 & Adjustable Clip
  7
SLDTEXTSTYLE0
 73
     1
 44
1.0
  0
MTEXT
  5
82
330
1F
100
AcDbEntity
  8
0
  6
Continuous
 62
     7
370
     0
100
AcDbMText
 10
195.9998284117
 20
19.5152246096
 30
0.0
 40
2.9104166667
 41
0.0
 71
     1
 72
     1
  1
A4
  7
SLDTEXTSTYLE1
 73
     1
 44
1.0
  0
MTEXT
  5
84
330
1F
100
AcDbEntity
  8
0
  6
Continuous
 62
     7
370
     0
100
AcDbMText
 10
164.0281072696
 20
8.8743991533
 30
0.0
 40
1.5
 41
0.0
 71
     1
 72
     1
  1
SHEET 1 OF 1
  7
SLDTEXTSTYLE2
 73
     1
 44
1.0
  0
MTEXT
  5
85
330
1F
100
AcDbEntity
  8
0
  6
Continuous
 62
     7
370
     0
100
AcDbMText
 10
14.3797311356
 20
8.8743991533
 30
0.0
 40
1.5
 41
0.0
 71
     1
 72
     1
  1
SCALE:
  7
SLDTEXTSTYLE1
 73
     1
 44
1.0
  0
MTEXT
  5
86
330
1F
100
AcDbEntity
  8
0
  6
Continuous
 62
     7
370
     0
100
AcDbMText
 10
92.7036146979
 20
40.4845312273
 30
0.0
 40
1.5
 41
0.0
 71
     1
 72
     1
  1
CONTACT:
  7
SLDTEXTSTYLE1
 73
     1
 44
1.0
  0
INSERT
  5
8C
330
1F
100
AcDbEntity
  8
0
  6
Continuous
 62
     7
370
     0
100
AcDbBlockReference
  2
SW_NOTE_0
 10
12.3050601837
 20
16.8389604502
 30
0.0
  0
INSERT
  5
92
330
1F
100
AcDbEntity
  8
0
  6
Continuous
 62
     7
370
     0
100
AcDbBlockReference
  2
SW_NOTE_1
 10
87.196611182
 20
32.8969357155
 30
0.0
  0
MTEXT
  5
93
330
1F
100
AcDbEntity
  8
0
  6
Continuous
 62
     7
370
     0
100
AcDbMText
 10
23.5366971372
 20
9.4862686747
 30
0.0
 40
2.1166666667
 41
0.0
 71
     1
 72
     1
  1
1:2
  7
SLDTEXTSTYLE0
 73
     1
 44
1.0
  0
MTEXT
  5
94
330
1F
100
AcDbEntity
  8
0
  6
Continuous
 62
     7
370
     0
100
AcDbMText
 10
122.1441575388
 20
39.1302418531
 30
0.0
 40
1.5
 41
0.0
 71
     1
 72
     1
  1
DWG NO.
  7
SLDTEXTSTYLE1
 73
     1
 44
1.0
  0
MTEXT
  5
95
330
1F
100
AcDbEntity
  8
0
  6
Continuous
 62
     7
370
     0
100
AcDbMText
 10
121.6266647804
 20
30.4463685999
 30
0.0
 40
2.6458333333
 41
0.0
 71
     1
 72
     1
  1
RP80 Downpipe with 80mm Adjustable Pipe Clip 
  7
SLDTEXTSTYLE0
 73
     1
 44
1.0
  0
MTEXT
  5
96
330
1F
100
AcDbEntity
  8
0
  6
Continuous
 62
     7
370
     0
100
AcDbMText
 10
128.9875122993
 20
8.8245626669
 30
0.0
 40
1.5
 41
0.0
 71
     1
 72
     1
  1
DATE: 30/06/11
  7
SLDTEXTSTYLE1
 73
     1
 44
1.0
  0
LINE
  5
97
330
1F
100
AcDbEntity
  8
0
  6
Continuous
 62
     7
370
    15
100
AcDbLine
 10
179.6124005322
 20
115.0667609397
 30
0.0
 11
179.6124005322
 21
123.0667609397
 31
0.0
  0
LINE
  5
98
330
1F
100
AcDbEntity
  8
0
  6
Continuous
 62
     7
370
    15
100
AcDbLine
 10
135.6124005322
 20
123.0667609397
 30
0.0
 11
135.6124005322
 21
115.0667609397
 31
0.0
  0
LINE
  5
99
330
1F
100
AcDbEntity
  8
0
  6
Continuous
 62
     7
370
    15
100
AcDbLine
 10
177.4999005322
 20
53.5622131325
 30
0.0
 11
177.4999005322
 21
115.0667609397
 31
0.0
  0
LINE
  5
9A
330
1F
100
AcDbEntity
  8
0
  6
Continuous
 62
     7
370
    15
100
AcDbLine
 10
177.4999005322
 20
123.0667609397
 30
0.0
 11
177.4999005322
 21
178.5622131325
 31
0.0
  0
LINE
  5
9B
330
1F
100
AcDbEntity
  8
0
  6
Continuous
 62
     7
370
    15
100
AcDbLine
 10
137.7249005322
 20
178.5622131325
 30
0.0
 11
137.7249005322
 21
123.0667609397
 31
0.0
  0
LINE
  5
9C
330
1F
100
AcDbEntity
  8
0
  6
Continuous
 62
     7
370
    15
100
AcDbLine
 10
137.7249005322
 20
115.0667609397
 30
0.0
 11
137.7249005322
 21
53.5622131325
 31
0.0
  0
LINE
  5
9D
330
1F
100
AcDbEntity
  8
0
  6
Continuous
 62
     7
370
    15
100
AcDbLine
 10
135.6124005322
 20
115.0667609397
 30
0.0
 11
179.6124005322
 21
115.0667609397
 31
0.0
  0
LINE
  5
9E
330
1F
100
AcDbEntity
  8
0
  6
Continuous
 62
     7
370
    15
100
AcDbLine
 10
135.6124005322
 20
123.0667609397
 30
0.0
 11
179.6124005322
 21
123.0667609397
 31
0.0
  0
LINE
  5
9F
330
1F
100
AcDbEntity
  8
0
  6
Continuous
 62
     7
370
    15
100
AcDbLine
 10
157.6124005322
 20
178.5622131325
 30
0.0
 11
177.4999005322
 21
178.5622131325
 31
0.0
  0
LINE
  5
A0
330
1F
100
AcDbEntity
  8
0
  6
Continuous
 62
     7
370
    15
100
AcDbLine
 10
137.7249005322
 20
178.5622131325
 30
0.0
 11
157.6124005322
 21
178.5622131325
 31
0.0
  0
LINE
  5
A1
330
1F
100
AcDbEntity
  8
0
  6
Continuous
 62
     7
370
    15
100
AcDbLine
 10
157.6124005322
 20
53.5622131325
 30
0.0
 11
177.4999005322
 21
53.5622131325
 31
0.0
  0
LINE
  5
A2
330
1F
100
AcDbEntity
  8
0
  6
Continuous
 62
     7
370
    15
100
AcDbLine
 10
137.7249005322
 20
53.5622131325
 30
0.0
 11
157.6124005322
 21
53.5622131325
 31
0.0
  0
LINE
  5
A3
330
1F
100
AcDbEntity
  8
0
  6
CENTERX2
 62
     7
370
     0
100
AcDbLine
 10
157.6124005322
 20
180.5474282167
 30
0.0
 11
157.6124005322
 21
50.3859580636
 31
0.0
  0
LINE
  5
A4
330
1F
100
AcDbEntity
  8
0
  6
Continuous
 62
     7
370
    15
100
AcDbLine
 10
87.4751808636
 20
115.0667609397
 30
0.0
 11
87.4751808636
 21
123.0667609397
 31
0.0
  0
ARC
  5
A5
330
1F
100
AcDbEntity
  8
0
  6
Continuous
 62
     7
370
    15
100
AcDbCircle
 10
25.9732704749
 20
121.6590819949
 30
0.0
 40
0.375
100
AcDbArc
 50
0.0
 51
90.0
  0
ARC
  5
A6
330
1F
100
AcDbEntity
  8
0
  6
Continuous
 62
     7
370
    15
100
AcDbCircle
 10
25.9732704749
 20
116.9090819949
 30
0.0
 40
0.375
100
AcDbArc
 50
270.0
 51
0.0
  0
LINE
  5
A7
330
1F
100
AcDbEntity
  8
0
  6
Continuous
 62
     7
370
    15
100
AcDbLine
 10
85.3626808636
 20
53.5622131325
 30
0.0
 11
85.3626808636
 21
115.0667609397
 31
0.0
  0
LINE
  5
A8
330
1F
100
AcDbEntity
  8
0
  6
Continuous
 62
     7
370
    15
100
AcDbLine
 10
85.3626808636
 20
123.0667609397
 30
0.0
 11
85.3626808636
 21
178.5622131325
 31
0.0
  0
LINE
  5
A9
330
1F
100
AcDbEntity
  8
0
  6
Continuous
 62
     7
370
    15
100
AcDbLine
 10
45.5876808636
 20
178.5622131325
 30
0.0
 11
45.5876808636
 21
123.0667609397
 31
0.0
  0
LINE
  5
AA
330
1F
100
AcDbEntity
  8
0
  6
Continuous
 62
     7
370
    15
100
AcDbLine
 10
45.5876808636
 20
115.0667609397
 30
0.0
 11
45.5876808636
 21
53.5622131325
 31
0.0
  0
ARC
  5
AB
330
1F
100
AcDbEntity
  8
0
  6
Continuous
 62
     7
370
    15
100
AcDbCircle
 10
34.3922491849
 20
120.5378934262
 30
0.0
 40
0.0500000000000119
100
AcDbArc
 50
120.0
 51
180.0
  0
ARC
  5
AC
330
1F
100
AcDbEntity
  8
0
  6
Continuous
 62
     7
370
    15
100
AcDbCircle
 10
34.3922491849
 20
117.5956284531
 30
0.0
 40
0.0500000000000083
100
AcDbArc
 50
180.0
 51
240.0
  0
ARC
  5
AD
330
1F
100
AcDbEntity
  8
0
  6
Continuous
 62
     7
370
    15
100
AcDbCircle
 10
36.9403253962
 20
116.1244959666
 30
0.0
 40
0.0500000000000119
100
AcDbArc
 50
240.0
 51
300.0
  0
ARC
  5
AE
330
1F
100
AcDbEntity
  8
0
  6
Continuous
 62
     7
370
    15
100
AcDbCircle
 10
36.9403253962
 20
122.0090259127
 30
0.0
 40
0.0499999999999996
100
AcDbArc
 50
60.0
 51
120.0
  0
ARC
  5
AF
330
1F
100
AcDbEntity
  8
0
  6
Continuous
 62
     7
370
    15
100
AcDbCircle
 10
39.4884016076
 20
117.5956284531
 30
0.0
 40
0.0500000000000154
100
AcDbArc
 50
300.0
 51
0.0
  0
ARC
  5
B0
330
1F
100
AcDbEntity
  8
0
  6
Continuous
 62
     7
370
    15
100
AcDbCircle
 10
39.4884016076
 20
120.5378934262
 30
0.0
 40
0.0500000000000083
100
AcDbArc
 50
0.0
 51
60.0
  0
LINE
  5
B1
330
1F
100
AcDbEntity
  8
0
  6
Continuous
 62
     7
370
    15
100
AcDbLine
 10
34.3422491849
 20
120.5378934262
 30
0.0
 11
34.3422491849
 21
117.5956284531
 31
0.0
  0
CIRCLE
  5
B2
330
1F
100
AcDbEntity
  8
0
  6
Continuous
 62
     7
370
    15
100
AcDbCircle
 10
36.9403253962
 20
119.0667609397
 30
0.0
 40
1.600000000000001
  0
LINE
  5
B3
330
1F
100
AcDbEntity
  8
0
  6
Continuous
 62
     7
370
    15
100
AcDbLine
 10
34.3672491849
 20
117.5523271829
 30
0.0
 11
36.9153253962
 21
116.0811946964
 31
0.0
  0
LINE
  5
B4
330
1F
100
AcDbEntity
  8
0
  6
Continuous
 62
     7
370
    15
100
AcDbLine
 10
36.9153253962
 20
122.0523271829
 30
0.0
 11
34.3672491849
 21
120.5811946964
 31
0.0
  0
LINE
  5
B5
330
1F
100
AcDbEntity
  8
0
  6
Continuous
 62
     7
370
    15
100
AcDbLine
 10
39.5134016076
 20
120.5811946964
 30
0.0
 11
36.9653253962
 21
122.0523271829
 31
0.0
  0
LINE
  5
B6
330
1F
100
AcDbEntity
  8
0
  6
Continuous
 62
     7
370
    15
100
AcDbLine
 10
36.9653253962
 20
116.0811946964
 30
0.0
 11
39.5134016076
 21
117.5523271829
 31
0.0
  0
LINE
  5
B7
330
1F
100
AcDbEntity
  8
0
  6
Continuous
 62
     7
370
    15
100
AcDbLine
 10
39.5384016076
 20
117.5956284531
 30
0.0
 11
39.5384016076
 21
120.5378934262
 31
0.0
  0
SPLINE
  5
B8
330
1F
100
AcDbEntity
  8
0
  6
Continuous
 62
     7
370
    15
100
AcDbSpline
210
0.0
220
0.0
230
1.0
 70
     8
 71
     3
 72
    16
 73
    12
 74
     0
 42
0.00000001
 43
0.00000001
 40
0.0
 40
0.0
 40
0.0
 40
0.0
 40
0.1050844684703132
 40
0.2141407458190174
 40
0.3231311869493247
 40
0.4365812705797197
 40
0.552972344933238
 40
0.6707568400185032
 40
0.794532871136729
 40
0.918226193243641
 40
1.0
 40
1.0
 40
1.0
 40
1.0
 10
35.74032539621143
 20
119.066760939668
 30
0.0
 10
35.74178169734763
 20
118.9321623376608
 30
0.0
 10
35.74474934248095
 20
118.6578777983793
 30
0.0
 10
35.91937885603947
 20
118.2735375576452
 30
0.0
 10
36.20824675484016
 20
117.9595046781743
 30
0.0
 10
36.59216647837852
 20
117.7473048974859
 30
0.0
 10
37.03523749309858
 20
117.672089786617
 30
0.0
 10
37.49253454653821
 20
117.742812703954
 30
0.0
 10
37.90947317242343
 20
117.9630620168753
 30
0.0
 10
38.20654330683774
 20
118.2711823235298
 30
0.0
 10
38.32061455879561
 20
118.5067371550804
 30
0.0
 10
38.36601374535
 20
118.6004855584494
 30
0.0
  0
SPLINE
  5
B9
330
1F
100
AcDbEntity
  8
0
  6
Continuous
 62
     7
370
    15
100
AcDbSpline
210
0.0
220
0.0
230
1.0
 70
     8
 71
     3
 72
    24
 73
    20
 74
     0
 42
0.00000001
 43
0.00000001
 40
0.0
 40
0.0
 40
0.0
 40
0.0
 40
0.0831906840183391
 40
0.143854966372656
 40
0.205415052206266
 40
0.2656665817575517
 40
0.327239549667376
 40
0.3878680960727998
 40
0.4488919230278628
 40
0.510283862750627
 40
0.570609094361876
 40
0.6322453792254974
 40
0.6926245796974833
 40
0.7539397566960899
 40
0.8150707852290153
 40
0.8756017197737413
 40
0.937206330017404
 40
0.9974676937298462
 40
1.0
 40
1.0
 40
1.0
 40
1.0
 10
38.36601374535001
 20
118.6004855584495
 30
0.0
 10
38.26951863483473
 20
118.3976290262926
 30
0.0
 10
38.10265739259226
 20
118.0468455226317
 30
0.0
 10
37.6490980310743
 20
117.7163797894088
 30
0.0
 10
37.1838796584461
 20
117.5594043433576
 30
0.0
 10
36.68790066707364
 20
117.5611978010074
 30
0.0
 10
36.22124368563789
 20
117.7199249150436
 30
0.0
 10
35.8282993905594
 20
118.0209558804496
 30
0.0
 10
35.55203536159789
 20
118.431150950144
 30
0.0
 10
35.42208528521232
 20
118.9075941903426
 30
0.0
 10
35.45090348136064
 20
119.4019649783694
 30
0.0
 10
35.63529337279648
 20
119.8590196143019
 30
0.0
 10
35.95754028383645
 20
120.234886952315
 30
0.0
 10
36.38215120487674
 20
120.4880092589604
 30
0.0
 10
36.86469305626583
 20
120.5910359516074
 30
0.0
 10
37.35990278229632
 20
120.537042848293
 30
0.0
 10
37.79352566313391
 20
120.3200498089864
 30
0.0
 10
38.06771012203952
 20
120.1063182850148
 30
0.0
 10
38.14416913859886
 20
119.9580942344555
 30
0.0
 10
38.14725253294572
 20
119.9521167419356
 30
0.0
  0
ARC
  5
BA
330
1F
100
AcDbEntity
  8
0
  6
Continuous
 62
     7
370
    15
100
AcDbCircle
 10
36.9403253962
 20
119.0667609397
 30
0.0
 40
1.499999999999996
100
AcDbArc
 50
341.8895217844
 51
35.7741154098
  0
SPLINE
  5
BB
330
1F
100
AcDbEntity
  8
0
  6
Continuous
 62
     7
370
    15
100
AcDbSpline
210
0.0
220
0.0
230
1.0
 70
     8
 71
     3
 72
    15
 73
    11
 74
     0
 42
0.00000001
 43
0.00000001
 40
0.0
 40
0.0
 40
0.0
 40
0.0
 40
0.1471513764666113
 40
0.2931439418170084
 40
0.4345185932675965
 40
0.5739753468115137
 40
0.7060873453253582
 40
0.8384187117728267
 40
0.9616838469071131
 40
1.0
 40
1.0
 40
1.0
 40
1.0
 10
38.15731740118482
 20
119.9436477395635
 30
0.0
 10
38.03681843181471
 20
120.0610874216502
 30
0.0
 10
37.79676941756675
 20
120.2950419530947
 30
0.0
 10
37.31843304344032
 20
120.4617333617869
 30
0.0
 10
36.82762230342945
 20
120.469545162808
 30
0.0
 10
36.37749581507229
 20
120.3088142823155
 30
0.0
 10
36.01737225584895
 20
120.0130273536019
 30
0.0
 10
35.78983452744557
 20
119.627449316348
 30
0.0
 10
35.72639771324405
 20
119.2926820546165
 30
0.0
 10
35.73765575107099
 20
119.1100652859875
 30
0.0
 10
35.74032539621143
 20
119.0667609396682
 30
0.0
  0
LINE
  5
BC
330
1F
100
AcDbEntity
  8
0
  6
Continuous
 62
     7
370
    15
100
AcDbLine
 10
44.1737724594
 20
115.0667609397
 30
0.0
 11
87.4751808636
 21
115.0667609397
 31
0.0
  0
LINE
  5
BD
330
1F
100
AcDbEntity
  8
0
  6
Continuous
 62
     7
370
    15
100
AcDbLine
 10
44.1737724594
 20
123.0667609397
 30
0.0
 11
87.4751808636
 21
123.0667609397
 31
0.0
  0
LINE
  5
BE
330
1F
100
AcDbEntity
  8
0
  6
Continuous
 62
     7
370
    15
100
AcDbLine
 10
42.2372807863
 20
115.0667609397
 30
0.0
 11
44.1737724594
 21
115.0667609397
 31
0.0
  0
LINE
  5
BF
330
1F
100
AcDbEntity
  8
0
  6
Continuous
 62
     7
370
    15
100
AcDbLine
 10
42.2372807863
 20
123.0667609397
 30
0.0
 11
44.1737724594
 21
123.0667609397
 31
0.0
  0
LINE
  5
C0
330
1F
100
AcDbEntity
  8
0
  6
Continuous
 62
     7
370
    15
100
AcDbLine
 10
31.4403253962
 20
123.0667609397
 30
0.0
 11
31.4403253962
 21
115.0667609397
 31
0.0
  0
LINE
  5
C1
330
1F
100
AcDbEntity
  8
0
  6
Continuous
 62
     7
370
    15
100
AcDbLine
 10
31.4403253962
 20
115.0667609397
 30
0.0
 11
32.6903253962
 21
115.0667609397
 31
0.0
  0
LINE
  5
C2
330
1F
100
AcDbEntity
  8
0
  6
Continuous
 62
     7
370
    15
100
AcDbLine
 10
31.4403253962
 20
123.0667609397
 30
0.0
 11
32.6903253962
 21
123.0667609397
 31
0.0
  0
LINE
  5
C3
330
1F
100
AcDbEntity
  8
0
  6
Continuous
 62
     7
370
    15
100
AcDbLine
 10
32.6903253962
 20
115.0667609397
 30
0.0
 11
42.2372807863
 21
115.0667609397
 31
0.0
  0
LINE
  5
C4
330
1F
100
AcDbEntity
  8
0
  6
Continuous
 62
     7
370
    15
100
AcDbLine
 10
32.6903253962
 20
123.0667609397
 30
0.0
 11
42.2372807863
 21
123.0667609397
 31
0.0
  0
LINE
  5
C5
330
1F
100
AcDbEntity
  8
0
  6
Continuous
 62
     7
370
    15
100
AcDbLine
 10
25.9732704749
 20
125.7840819949
 30
0.0
 11
24.4732704749
 21
125.7840819949
 31
0.0
  0
LINE
  5
C6
330
1F
100
AcDbEntity
  8
0
  6
Continuous
 62
     7
370
    15
100
AcDbLine
 10
25.9732704749
 20
125.7840819949
 30
0.0
 11
25.9732704749
 21
112.7840819949
 31
0.0
  0
LINE
  5
C7
330
1F
100
AcDbEntity
  8
0
  6
Continuous
 62
     7
370
    15
100
AcDbLine
 10
25.9732704749
 20
112.7840819949
 30
0.0
 11
24.4732704749
 21
112.7840819949
 31
0.0
  0
LINE
  5
C8
330
1F
100
AcDbEntity
  8
0
  6
Continuous
 62
     7
370
    15
100
AcDbLine
 10
24.4732704749
 20
125.7840819949
 30
0.0
 11
24.4732704749
 21
112.7840819949
 31
0.0
  0
LINE
  5
C9
330
1F
100
AcDbEntity
  8
0
  6
Continuous
 62
     7
370
    15
100
AcDbLine
 10
26.3482704749
 20
121.6590819949
 30
0.0
 11
26.3482704749
 21
116.9090819949
 31
0.0
  0
SPLINE
  5
CA
330
1F
100
AcDbEntity
  8
0
  6
Continuous
 62
     7
370
    15
100
AcDbSpline
210
0.0
220
0.0
230
1.0
 70
     8
 71
     3
 72
    11
 73
     7
 74
     0
 42
0.00000001
 43
0.00000001
 40
0.0
 40
0.0
 40
0.0
 40
0.0
 40
0.0042966901565942
 40
0.4101254656488348
 40
0.7562277734618332
 40
1.0
 40
1.0
 40
1.0
 40
1.0
 10
25.97327047493643
 20
114.7840819948955
 30
0.0
 10
25.97327193186942
 20
114.7832213150007
 30
0.0
 10
25.97341099829069
 20
114.7010681390103
 30
0.0
 10
26.01223778653809
 20
114.5504877666069
 30
0.0
 10
26.15416243019787
 20
114.3718446351591
 30
0.0
 10
26.30232845341442
 20
114.3183671041099
 30
0.0
 10
26.36355971408673
 20
114.2962669183
 30
0.0
  0
LINE
  5
CB
330
1F
100
AcDbEntity
  8
0
  6
Continuous
 62
     7
370
    15
100
AcDbLine
 10
26.3635597141
 20
112.7840819949
 30
0.0
 11
25.9732704749
 21
112.7840819949
 31
0.0
  0
SPLINE
  5
CC
330
1F
100
AcDbEntity
  8
0
  6
Continuous
 62
     7
370
    15
100
AcDbSpline
210
0.0
220
0.0
230
1.0
 70
     8
 71
     3
 72
    11
 73
     7
 74
     0
 42
0.00000001
 43
0.00000001
 40
0.0
 40
0.0
 40
0.0
 40
0.0
 40
0.2437722265381637
 40
0.5898745343511634
 40
0.9957033098433982
 40
1.0
 40
1.0
 40
1.0
 40
1.0
 10
26.36355971408673
 20
124.2718970714909
 30
0.0
 10
26.30232845341442
 20
124.2497968856811
 30
0.0
 10
26.15416243019785
 20
124.1963193546318
 30
0.0
 10
26.01223778653798
 20
124.0176762231841
 30
0.0
 10
25.97341099829104
 20
123.8670958507805
 30
0.0
 10
25.97327193186942
 20
123.7849426747902
 30
0.0
 10
25.97327047493643
 20
123.7840819948954
 30
0.0
  0
LINE
  5
CD
330
1F
100
AcDbEntity
  8
0
  6
Continuous
 62
     7
370
    15
100
AcDbLine
 10
25.9732704749
 20
125.7840819949
 30
0.0
 11
26.3635597141
 21
125.7840819949
 31
0.0
  0
ELLIPSE
  5
CE
330
1F
100
AcDbEntity
  8
0
  6
Continuous
 62
     7
370
    15
100
AcDbEllipse
 10
31.8232704749
 20
123.7840819949
 30
0.0
 11
0.6500000000000021
 21
0.0
 31
0.0
210
0.0
220
0.0
230
1.0
 40
0.7692307692
 41
0.9456104794112231
 42
1.570796326794897
  0
LINE
  5
CF
330
1F
100
AcDbEntity
  8
0
  6
Continuous
 62
     7
370
    15
100
AcDbLine
 10
26.4732704749
 20
124.2840819949
 30
0.0
 11
31.8232704749
 21
124.2840819949
 31
0.0
  0
ARC
  5
D0
330
1F
100
AcDbEntity
  8
0
  6
Continuous
 62
     7
370
    15
100
AcDbCircle
 10
26.4732704749
 20
123.7840819949
 30
0.0
 40
0.5000000000000048
100
AcDbArc
 50
90.0
 51
102.675058463
  0
LINE
  5
D1
330
1F
100
AcDbEntity
  8
0
  6
Continuous
 62
     7
370
    15
100
AcDbLine
 10
26.3635597141
 20
125.7840819949
 30
0.0
 11
32.2036816608
 21
125.7840819949
 31
0.0
  0
LINE
  5
D2
330
1F
100
AcDbEntity
  8
0
  6
Continuous
 62
     7
370
    15
100
AcDbLine
 10
31.8232704749
 20
114.2840819949
 30
0.0
 11
26.4732704749
 21
114.2840819949
 31
0.0
  0
ELLIPSE
  5
D3
330
1F
100
AcDbEntity
  8
0
  6
Continuous
 62
     7
370
    15
100
AcDbEllipse
 10
31.8232704749
 20
114.7840819949
 30
0.0
 11
0.6500000000000021
 21
0.0
 31
0.0
210
0.0
220
0.0
230
1.0
 40
0.7692307692
 41
4.7123889803847
 42
5.337574827768362
  0
ARC
  5
D4
330
1F
100
AcDbEntity
  8
0
  6
Continuous
 62
     7
370
    15
100
AcDbCircle
 10
26.4732704749
 20
114.7840819949
 30
0.0
 40
0.5000000000000048
100
AcDbArc
 50
257.324941537
 51
270.0
  0
LINE
  5
D5
330
1F
100
AcDbEntity
  8
0
  6
Continuous
 62
     7
370
    15
100
AcDbLine
 10
26.3635597141
 20
112.7840819949
 30
0.0
 11
32.2036816608
 21
112.7840819949
 31
0.0
  0
LINE
  5
D6
330
1F
100
AcDbEntity
  8
0
  6
Continuous
 62
     7
370
    15
100
AcDbLine
 10
26.4732704749
 20
117.2840819949
 30
0.0
 11
26.4732704749
 21
121.2840819949
 31
0.0
  0
SPLINE
  5
D7
330
1F
100
AcDbEntity
  8
0
  6
Continuous
 62
     7
370
    15
100
AcDbSpline
210
0.0
220
0.0
230
1.0
 70
     8
 71
     3
 72
    10
 73
     6
 74
     0
 42
0.00000001
 43
0.00000001
 40
0.0
 40
0.0
 40
0.0
 40
0.0
 40
0.4746465137250866
 40
0.994187287479022
 40
1.0
 40
1.0
 40
1.0
 40
1.0
 10
32.2036816607724
 20
114.3786548115437
 30
0.0
 10
32.2960975590844
 20
114.4349194886736
 30
0.0
 10
32.4896704783115
 20
114.5527706160263
 30
0.0
 10
32.70217416458249
 20
114.7054436819221
 30
0.0
 10
32.81217532656461
 20
114.7832214320293
 30
0.0
 10
32.8133924216221
 20
114.7840819948955
 30
0.0
  0
SPLINE
  5
D8
330
1F
100
AcDbEntity
  8
0
  6
Continuous
 62
     7
370
    15
100
AcDbSpline
210
0.0
220
0.0
230
1.0
 70
     8
 71
     3
 72
    10
 73
     6
 74
     0
 42
0.00000001
 43
0.00000001
 40
0.0
 40
0.0
 40
0.0
 40
0.0
 40
0.005812712520978
 40
0.525353486274923
 40
1.0
 40
1.0
 40
1.0
 40
1.0
 10
32.8133924216221
 20
123.7840819948954
 30
0.0
 10
32.81217532656461
 20
123.7849425577616
 30
0.0
 10
32.70217416458166
 20
123.8627203078695
 30
0.0
 10
32.48967047831184
 20
124.0153933737643
 30
0.0
 10
32.29609755908449
 20
124.1332445011173
 30
0.0
 10
32.2036816607724
 20
124.1895091782472
 30
0.0
  0
LINE
  5
D9
330
1F
100
AcDbEntity
  8
0
  6
Continuous
 62
     7
370
    15
100
AcDbLine
 10
32.8133924216
 20
112.7840819949
 30
0.0
 11
32.2036816608
 21
112.7840819949
 31
0.0
  0
LINE
  5
DA
330
1F
100
AcDbEntity
  8
0
  6
Continuous
 62
     7
370
    15
100
AcDbLine
 10
32.2036816608
 20
125.7840819949
 30
0.0
 11
32.8133924216
 21
125.7840819949
 31
0.0
  0
LINE
  5
DB
330
1F
100
AcDbEntity
  8
0
  6
Continuous
 62
     7
370
    15
100
AcDbLine
 10
40.9732704749
 20
125.7840819949
 30
0.0
 11
40.9732704749
 21
123.0667609397
 31
0.0
  0
LINE
  5
DC
330
1F
100
AcDbEntity
  8
0
  6
Continuous
 62
     7
370
    15
100
AcDbLine
 10
40.9732704749
 20
115.0667609397
 30
0.0
 11
40.9732704749
 21
112.7840819949
 31
0.0
  0
LINE
  5
DD
330
1F
100
AcDbEntity
  8
0
  6
Continuous
 62
     7
370
    15
100
AcDbLine
 10
26.4732704749
 20
121.2840819949
 30
0.0
 11
31.4403253962
 21
121.2840819949
 31
0.0
  0
LINE
  5
DE
330
1F
100
AcDbEntity
  8
0
  6
Continuous
 62
     7
370
    15
100
AcDbLine
 10
31.4403253962
 20
117.2840819949
 30
0.0
 11
26.4732704749
 21
117.2840819949
 31
0.0
  0
LINE
  5
DF
330
1F
100
AcDbEntity
  8
0
  6
Continuous
 62
     7
370
    15
100
AcDbLine
 10
32.8133924216
 20
125.7840819949
 30
0.0
 11
40.9732704749
 21
125.7840819949
 31
0.0
  0
LINE
  5
E0
330
1F
100
AcDbEntity
  8
0
  6
Continuous
 62
     7
370
    15
100
AcDbLine
 10
32.8133924216
 20
112.7840819949
 30
0.0
 11
40.9732704749
 21
112.7840819949
 31
0.0
  0
LINE
  5
E1
330
1F
100
AcDbEntity
  8
0
  6
Continuous
 62
     7
370
    15
100
AcDbLine
 10
45.5876808636
 20
178.5622131325
 30
0.0
 11
85.3626808636
 21
178.5622131325
 31
0.0
  0
LINE
  5
E2
330
1F
100
AcDbEntity
  8
0
  6
Continuous
 62
     7
370
    15
100
AcDbLine
 10
45.5876808636
 20
53.5622131325
 30
0.0
 11
85.3626808636
 21
53.5622131325
 31
0.0
  0
LINE
  5
E3
330
1F
100
AcDbEntity
  8
0
  6
CENTERX2
 62
     7
370
     0
100
AcDbLine
 10
65.4751808636
 20
180.1601540667
 30
0.0
 11
65.4751808636
 21
51.6231405675
 31
0.0
  0
LINE
  5
E4
330
1F
100
AcDbEntity
  8
0
  6
Continuous
 62
     7
370
    15
100
AcDbLine
 10
153.5624261469
 20
259.4871006225
 30
0.0
 11
153.4874005322
 21
259.4871311236
 31
0.0
  0
LINE
  5
E5
330
1F
100
AcDbEntity
  8
0
  6
Continuous
 62
     7
370
    15
100
AcDbLine
 10
153.4874005322
 20
254.2909787009
 30
0.0
 11
153.5624261469
 21
254.2910092019
 31
0.0
  0
LINE
  5
E6
330
1F
100
AcDbEntity
  8
0
  6
Continuous
 62
     7
370
    15
100
AcDbLine
 10
151.7374005322
 20
259.4871311236
 30
0.0
 11
151.6124005322
 21
259.4870803058
 31
0.0
  0
LINE
  5
E7
330
1F
100
AcDbEntity
  8
0
  6
Continuous
 62
     7
370
    15
100
AcDbLine
 10
151.6124005322
 20
254.2910295186
 30
0.0
 11
151.7374005322
 21
254.2909787009
 31
0.0
  0
ARC
  5
E8
330
1F
100
AcDbEntity
  8
0
  6
Continuous
 62
     7
370
    15
100
AcDbCircle
 10
151.6624005322
 20
259.4371091637
 30
0.0
 40
0.0500000000000081
100
AcDbArc
 50
90.0102060278
 51
179.9999999834
  0
ARC
  5
E9
330
1F
100
AcDbEntity
  8
0
  6
Continuous
 62
     7
370
    15
100
AcDbCircle
 10
153.5624005322
 20
259.4371091637
 30
0.0
 40
0.0500000000000114
100
AcDbArc
 50
0.0000000162
 51
89.9518816514
  0
ARC
  5
EA
330
1F
100
AcDbEntity
  8
0
  6
Continuous
 62
     7
370
    15
100
AcDbCircle
 10
153.5624005322
 20
254.3410006607
 30
0.0
 40
0.0500000000000114
100
AcDbArc
 50
270.010194265
 51
359.9999999839
  0
ARC
  5
EB
330
1F
100
AcDbEntity
  8
0
  6
Continuous
 62
     7
370
    15
100
AcDbCircle
 10
151.6624005322
 20
254.3410006607
 30
0.0
 40
0.0500000000000114
100
AcDbArc
 50
180.0000000176
 51
269.9518528548
  0
ARC
  5
EC
330
1F
100
AcDbEntity
  8
0
  6
Continuous
 62
     7
370
    15
100
AcDbCircle
 10
161.7374005322
 20
260.2640549122
 30
0.0
 40
0.125
100
AcDbArc
 50
90.0
 51
180.0
  0
ARC
  5
ED
330
1F
100
AcDbEntity
  8
0
  6
Continuous
 62
     7
370
    15
100
AcDbCircle
 10
161.7374005322
 20
253.5140549122
 30
0.0
 40
0.125
100
AcDbArc
 50
180.0
 51
270.0
  0
LINE
  5
EE
330
1F
100
AcDbEntity
  8
0
  6
Continuous
 62
     7
370
    15
100
AcDbLine
 10
161.7374005322
 20
253.3890549122
 30
0.0
 11
162.3027741811
 21
253.3890549122
 31
0.0
  0
LINE
  5
EF
330
1F
100
AcDbEntity
  8
0
  6
Continuous
 62
     7
370
    15
100
AcDbLine
 10
162.3027741811
 20
260.3890549122
 30
0.0
 11
161.7374005322
 21
260.3890549122
 31
0.0
  0
SPLINE
  5
F0
330
1F
100
AcDbEntity
  8
0
  6
Continuous
 62
     7
370
    15
100
AcDbSpline
210
0.0
220
0.0
230
1.0
 70
     8
 71
     3
 72
     9
 73
     5
 74
     0
 42
0.00000001
 43
0.00000001
 40
0.0
 40
0.0
 40
0.0
 40
0.0
 40
0.4802205206008521
 40
1.0
 40
1.0
 40
1.0
 40
1.0
 10
160.1124005321792
 20
258.0945453914968
 30
0.0
 10
160.0813482264368
 20
258.1409168056201
 30
0.0
 10
160.0166856299623
 20
258.2374795557193
 30
0.0
 10
159.952081102411
 20
258.3340869350147
 30
0.0
 10
159.9185009947136
 20
258.384301468331
 30
0.0
  0
SPLINE
  5
F1
330
1F
100
AcDbEntity
  8
0
  6
Continuous
 62
     7
370
    15
100
AcDbSpline
210
0.0
220
0.0
230
1.0
 70
     8
 71
     3
 72
     9
 73
     5
 74
     0
 42
0.00000001
 43
0.00000001
 40
0.0
 40
0.0
 40
0.0
 40
0.0
 40
0.4998587479140173
 40
1.0
 40
1.0
 40
1.0
 40
1.0
 10
159.6200585620325
 20
258.0831056998576
 30
0.0
 10
159.5864669921531
 20
258.1332681186001
 30
0.0
 10
159.5192648675139
 20
258.2336213062791
 30
0.0
 10
159.4521230988727
 20
258.3340224194484
 30
0.0
 10
159.4185427306372
 20
258.3842371578996
 30
0.0
  0
SPLINE
  5
F2
330
1F
100
AcDbEntity
  8
0
  6
Continuous
 62
     7
370
    15
100
AcDbSpline
210
0.0
220
0.0
230
1.0
 70
     8
 71
     3
 72
     9
 73
     5
 74
     0
 42
0.00000001
 43
0.00000001
 40
0.0
 40
0.0
 40
0.0
 40
0.0
 40
0.4998649858247708
 40
1.0
 40
1.0
 40
1.0
 40
1.0
 10
156.1201626390325
 20
258.0829457950888
 30
0.0
 10
156.0865769444331
 20
258.1330975999376
 30
0.0
 10
156.019387412156
 20
258.2334283017692
 30
0.0
 10
155.9522555426776
 20
258.3338149445171
 30
0.0
 10
155.9186805441845
 20
258.3840218195109
 30
0.0
  0
SPLINE
  5
F3
330
1F
100
AcDbEntity
  8
0
  6
Continuous
 62
     7
370
    15
100
AcDbSpline
210
0.0
220
0.0
230
1.0
 70
     8
 71
     3
 72
     9
 73
     5
 74
     0
 42
0.00000001
 43
0.00000001
 40
0.0
 40
0.0
 40
0.0
 40
0.0
 40
0.4998667499439278
 40
1.0
 40
1.0
 40
1.0
 40
1.0
 10
155.6201407569057
 20
258.0829795852432
 30
0.0
 10
155.5865567876422
 20
258.1331289887322
 30
0.0
 10
155.5193709440803
 20
258.2334545324786
 30
0.0
 10
155.4522420089146
 20
258.333836373236
 30
0.0
 10
155.4186685963973
 20
258.3840406695005
 30
0.0
  0
LINE
  5
F4
330
1F
100
AcDbEntity
  8
0
  6
Continuous
 62
     7
370
    15
100
AcDbLine
 10
155.1201077967
 20
258.0830303109
 30
0.0
 11
155.1124005322
 21
258.0945419719
 31
0.0
  0
SPLINE
  5
F5
330
1F
100
AcDbEntity
  8
0
  6
Continuous
 62
     7
370
    15
100
AcDbSpline
210
0.0
220
0.0
230
1.0
 70
     8
 71
     3
 72
     9
 73
     5
 74
     0
 42
0.00000001
 43
0.00000001
 40
0.0
 40
0.0
 40
0.0
 40
0.0
 40
0.4998674616769369
 40
1.0
 40
1.0
 40
1.0
 40
1.0
 10
151.6197372594645
 20
258.0835863925532
 30
0.0
 10
151.5861543000235
 20
258.1337395057515
 30
0.0
 10
151.5189705723044
 20
258.2340723280361
 30
0.0
 10
151.4518435008731
 20
258.3344473847667
 30
0.0
 10
151.4182710682479
 20
258.3846482166738
 30
0.0
  0
SPLINE
  5
F6
330
1F
100
AcDbEntity
  8
0
  6
Continuous
 62
     7
370
    15
100
AcDbSpline
210
0.0
220
0.0
230
1.0
 70
     8
 71
     3
 72
     9
 73
     5
 74
     0
 42
0.00000001
 43
0.00000001
 40
0.0
 40
0.0
 40
0.0
 40
0.0
 40
0.4998647812669184
 40
1.0
 40
1.0
 40
1.0
 40
1.0
 10
151.1197059343381
 20
258.0836322080611
 30
0.0
 10
151.0861204053114
 20
258.1337895027104
 30
0.0
 10
151.0189311767733
 20
258.2341312281709
 30
0.0
 10
150.9517997605647
 20
258.3345121542581
 30
0.0
 10
150.9182249750354
 20
258.3847161906834
 30
0.0
  0
SPLINE
  5
F7
330
1F
100
AcDbEntity
  8
0
  6
Continuous
 62
     7
370
    15
100
AcDbSpline
210
0.0
220
0.0
230
1.0
 70
     8
 71
     3
 72
     9
 73
     5
 74
     0
 42
0.00000001
 43
0.00000001
 40
0.0
 40
0.0
 40
0.0
 40
0.0
 40
0.4998622145311343
 40
1.0
 40
1.0
 40
1.0
 40
1.0
 10
150.6196820867153
 20
258.0836669619598
 30
0.0
 10
150.5860941148563
 20
258.1338281343754
 30
0.0
 10
150.5188996542976
 20
258.23417813275
 30
0.0
 10
150.4517641125691
 20
258.3345646048978
 30
0.0
 10
150.4181870914027
 20
258.384771672769
 30
0.0
  0
SPLINE
  5
F8
330
1F
100
AcDbEntity
  8
0
  6
Continuous
 62
     7
370
    15
100
AcDbSpline
210
0.0
220
0.0
230
1.0
 70
     8
 71
     3
 72
     9
 73
     5
 74
     0
 42
0.00000001
 43
0.00000001
 40
0.0
 40
0.0
 40
0.0
 40
0.0
 40
0.4998597760527926
 40
1.0
 40
1.0
 40
1.0
 40
1.0
 10
150.1196652570293
 20
258.0836914232559
 30
0.0
 10
150.086074979603
 20
258.1338561757855
 30
0.0
 10
150.0188755788201
 20
258.2342138259366
 30
0.0
 10
149.9517361475307
 20
258.3346055370091
 30
0.0
 10
149.91815701733
 20
258.3848154698674
 30
0.0
  0
SPLINE
  5
F9
330
1F
100
AcDbEntity
  8
0
  6
Continuous
 62
     7
370
    15
100
AcDbSpline
210
0.0
220
0.0
230
1.0
 70
     8
 71
     3
 72
     9
 73
     5
 74
     0
 42
0.00000001
 43
0.00000001
 40
0.0
 40
0.0
 40
0.0
 40
0.0
 40
0.4998574804316636
 40
1.0
 40
1.0
 40
1.0
 40
1.0
 10
149.6196549548281
 20
258.0837063705034
 30
0.0
 10
149.5860625195726
 20
258.1338744084763
 30
0.0
 10
149.5188584932839
 20
258.2342390922852
 30
0.0
 10
149.4517154250234
 20
258.3346357428107
 30
0.0
 10
149.4181343216921
 20
258.3848483765608
 30
0.0
  0
SPLINE
  5
FA
330
1F
100
AcDbEntity
  8
0
  6
Continuous
 62
     7
370
    15
100
AcDbSpline
210
0.0
220
0.0
230
1.0
 70
     8
 71
     3
 72
     9
 73
     5
 74
     0
 42
0.00000001
 43
0.00000001
 40
0.0
 40
0.0
 40
0.0
 40
0.0
 40
0.517705598370221
 40
0.9999999999999999
 40
0.9999999999999999
 40
0.9999999999999999
 40
0.9999999999999999
 10
149.1681255975798
 20
255.3932488318983
 30
0.0
 10
149.2017074537861
 20
255.4434628450723
 30
0.0
 10
149.2665741585542
 20
255.5404562199403
 30
0.0
 10
149.3315002065977
 20
255.6374196079096
 30
0.0
 10
149.362813676089
 20
255.6841845070904
 30
0.0
  0
SPLINE
  5
FB
330
1F
100
AcDbEntity
  8
0
  6
Continuous
 62
     7
370
    15
100
AcDbSpline
210
0.0
220
0.0
230
1.0
 70
     8
 71
     3
 72
     9
 73
     5
 74
     0
 42
0.00000001
 43
0.00000001
 40
0.0
 40
0.0
 40
0.0
 40
0.0
 40
0.5177307812700925
 40
1.0
 40
1.0
 40
1.0
 40
1.0
 10
149.6681447753654
 20
255.3932765892756
 30
0.0
 10
149.7017247323698
 20
255.443487989796
 30
0.0
 10
149.7665846136425
 20
255.540471600462
 30
0.0
 10
149.8315029123598
 20
255.6374233575831
 30
0.0
 10
149.8628110095636
 20
255.6841802057444
 30
0.0
  0
SPLINE
  5
FC
330
1F
100
AcDbEntity
  8
0
  6
Continuous
 62
     7
370
    15
100
AcDbSpline
210
0.0
220
0.0
230
1.0
 70
     8
 71
     3
 72
     9
 73
     5
 74
     0
 42
0.00000001
 43
0.00000001
 40
0.0
 40
0.0
 40
0.0
 40
0.0
 40
0.5177614994543328
 40
1.0
 40
1.0
 40
1.0
 40
1.0
 10
150.1681711043879
 20
255.3933148423674
 30
0.0
 10
150.2017490218173
 20
255.4435234667901
 30
0.0
 10
150.2666011158121
 20
255.5404959618009
 30
0.0
 10
150.331510637856
 20
255.6374344280714
 30
0.0
 10
150.3628125084375
 20
255.6841818886909
 30
0.0
  0
SPLINE
  5
FD
330
1F
100
AcDbEntity
  8
0
  6
Continuous
 62
     7
370
    15
100
AcDbSpline
210
0.0
220
0.0
230
1.0
 70
     8
 71
     3
 72
     9
 73
     5
 74
     0
 42
0.00000001
 43
0.00000001
 40
0.0
 40
0.0
 40
0.0
 40
0.0
 40
0.5178173392367085
 40
1.0
 40
1.0
 40
1.0
 40
1.0
 10
150.668205031294
 20
255.393364382016
 30
0.0
 10
150.7017807778254
 20
255.4435700666976
 30
0.0
 10
150.7666216859743
 20
255.5405264273238
 30
0.0
 10
150.8315189731767
 20
255.6374462802344
 30
0.0
 10
150.8628113197963
 20
255.6841793527916
 30
0.0
  0
SPLINE
  5
FE
330
1F
100
AcDbEntity
  8
0
  6
Continuous
 62
     7
370
    15
100
AcDbSpline
210
0.0
220
0.0
230
1.0
 70
     8
 71
     3
 72
     9
 73
     5
 74
     0
 42
0.00000001
 43
0.00000001
 40
0.0
 40
0.0
 40
0.0
 40
0.0
 40
0.5178891282624815
 40
1.0
 40
1.0
 40
1.0
 40
1.0
 10
151.1682469716563
 20
255.3934260081731
 30
0.0
 10
151.2018204253785
 20
255.4436285849697
 30
0.0
 10
151.2666479181565
 20
255.5405655045864
 30
0.0
 10
151.3315306886322
 20
255.637463139167
 30
0.0
 10
151.3628113776669
 20
255.6841785422439
 30
0.0
  0
SPLINE
  5
FF
330
1F
100
AcDbEntity
  8
0
  6
Continuous
 62
     7
370
    15
100
AcDbSpline
210
0.0
220
0.0
230
1.0
 70
     8
 71
     3
 72
     9
 73
     5
 74
     0
 42
0.00000001
 43
0.00000001
 40
0.0
 40
0.0
 40
0.0
 40
0.0
 40
0.5189683296929861
 40
1.0
 40
1.0
 40
1.0
 40
1.0
 10
155.1686587244019
 20
255.3940536058517
 30
0.0
 10
155.2022311078669
 20
255.4442566871986
 30
0.0
 10
155.266921728747
 20
255.5409929974403
 30
0.0
 10
155.3316668059014
 20
255.6376749952368
 30
0.0
 10
155.3628112385092
 20
255.6841820981255
 30
0.0
  0
SPLINE
  5
100
330
1F
100
AcDbEntity
  8
0
  6
Continuous
 62
     7
370
    15
100
AcDbSpline
210
0.0
220
0.0
230
1.0
 70
     8
 71
     3
 72
     9
 73
     5
 74
     0
 42
0.00000001
 43
0.00000001
 40
0.0
 40
0.0
 40
0.0
 40
0.0
 40
0.5190460124461395
 40
0.9999999999999999
 40
0.9999999999999999
 40
0.9999999999999999
 40
0.9999999999999999
 10
155.6686761904696
 20
255.3940811320987
 30
0.0
 10
155.7022502369903
 20
255.4442869338823
 30
0.0
 10
155.7669343800444
 20
255.5410140073589
 30
0.0
 10
155.8316737300143
 20
255.6376869584824
 30
0.0
 10
155.8628103785339
 20
255.6841821998139
 30
0.0
  0
SPLINE
  5
101
330
1F
100
AcDbEntity
  8
0
  6
Continuous
 62
     7
370
    15
100
AcDbSpline
210
0.0
220
0.0
230
1.0
 70
     8
 71
     3
 72
     9
 73
     5
 74
     0
 42
0.00000001
 43
0.00000001
 40
0.0
 40
0.0
 40
0.0
 40
0.0
 40
0.518845328909933
 40
1.0
 40
1.0
 40
1.0
 40
1.0
 10
159.1685621429711
 20
255.3939027219585
 30
0.0
 10
159.2021422787942
 20
255.4441176574675
 30
0.0
 10
159.2668631772046
 20
255.5408997478343
 30
0.0
 10
159.3316422239839
 20
255.6376349085878
 30
0.0
 10
159.3628109649305
 20
255.6841794830429
 30
0.0
  0
SPLINE
  5
102
330
1F
100
AcDbEntity
  8
0
  6
Continuous
 62
     7
370
    15
100
AcDbSpline
210
0.0
220
0.0
230
1.0
 70
     8
 71
     3
 72
     9
 73
     5
 74
     0
 42
0.00000001
 43
0.00000001
 40
0.0
 40
0.0
 40
0.0
 40
0.0
 40
0.5187285454365012
 40
1.0
 40
1.0
 40
1.0
 40
1.0
 10
159.6685223156652
 20
255.3938411568188
 30
0.0
 10
159.7021024904025
 20
255.4440559066908
 30
0.0
 10
159.7668380347111
 20
255.5408594281351
 30
0.0
 10
159.8316317806
 20
255.6376174827652
 30
0.0
 10
159.8628151609306
 20
255.6841843724578
 30
0.0
  0
SPLINE
  5
103
330
1F
100
AcDbEntity
  8
0
  6
Continuous
 62
     7
370
    15
100
AcDbSpline
210
0.0
220
0.0
230
1.0
 70
     8
 71
     3
 72
     9
 73
     5
 74
     0
 42
0.00000001
 43
0.00000001
 40
0.0
 40
0.0
 40
0.0
 40
0.0
 40
0.5167455266970189
 40
1.0
 40
1.0
 40
1.0
 40
1.0
 10
159.8318691294129
 20
258.3851362933165
 30
0.0
 10
159.7941494106987
 20
258.3349647277205
 30
0.0
 10
159.7211546448702
 20
258.2378732910194
 30
0.0
 10
159.6481117532276
 20
258.1408259139113
 30
0.0
 10
159.6128134490983
 20
258.0939273348015
 30
0.0
  0
SPLINE
  5
104
330
1F
100
AcDbEntity
  8
0
  6
Continuous
 62
     7
370
    15
100
AcDbSpline
210
0.0
220
0.0
230
1.0
 70
     8
 71
     3
 72
     9
 73
     5
 74
     0
 42
0.00000001
 43
0.00000001
 40
0.0
 40
0.0
 40
0.0
 40
0.0
 40
0.5371809030417444
 40
0.9999999999999999
 40
0.9999999999999999
 40
0.9999999999999999
 40
0.9999999999999999
 10
159.332131782918
 20
258.3854950970647
 30
0.0
 10
159.294410283295
 20
258.3353223811778
 30
0.0
 10
159.2241890609667
 20
258.2419223447975
 30
0.0
 10
159.1539205879648
 20
258.1485555367542
 30
0.0
 10
159.1213989967455
 20
258.1053435949697
 30
0.0
  0
LINE
  5
105
330
1F
100
AcDbEntity
  8
0
  6
Continuous
 62
     7
370
    15
100
AcDbLine
 10
156.1213989967
 20
258.1053434143
 30
0.0
 11
156.1128094798
 21
258.0939284833
 31
0.0
  0
SPLINE
  5
106
330
1F
100
AcDbEntity
  8
0
  6
Continuous
 62
     7
370
    15
100
AcDbSpline
210
0.0
220
0.0
230
1.0
 70
     8
 71
     3
 72
     9
 73
     5
 74
     0
 42
0.00000001
 43
0.00000001
 40
0.0
 40
0.0
 40
0.0
 40
0.0
 40
0.5156045883166033
 40
1.0
 40
1.0
 40
1.0
 40
1.0
 10
155.8323781934404
 20
258.3858164154939
 30
0.0
 10
155.7946544788421
 20
258.3356433769553
 30
0.0
 10
155.7214904390855
 20
258.2383342379843
 30
0.0
 10
155.6482761341625
 20
258.1410504677584
 30
0.0
 10
155.6128114607882
 20
258.0939266558297
 30
0.0
  0
SPLINE
  5
107
330
1F
100
AcDbEntity
  8
0
  6
Continuous
 62
     7
370
    15
100
AcDbSpline
210
0.0
220
0.0
230
1.0
 70
     8
 71
     3
 72
     9
 73
     5
 74
     0
 42
0.00000001
 43
0.00000001
 40
0.0
 40
0.0
 40
0.0
 40
0.0
 40
0.516115296663818
 40
1.0
 40
1.0
 40
1.0
 40
1.0
 10
155.3320487976994
 20
258.385383548771
 30
0.0
 10
155.2943422364385
 20
258.3352311455645
 30
0.0
 10
155.2212838297129
 20
258.2380582783183
 30
0.0
 10
155.1481828131347
 20
258.1409291590845
 30
0.0
 10
155.1128103494141
 20
258.0939298640388
 30
0.0
  0
SPLINE
  5
108
330
1F
100
AcDbEntity
  8
0
  6
Continuous
 62
     7
370
    15
100
AcDbSpline
210
0.0
220
0.0
230
1.0
 70
     8
 71
     3
 72
     9
 73
     5
 74
     0
 42
0.00000001
 43
0.00000001
 40
0.0
 40
0.0
 40
0.0
 40
0.0
 40
0.5161046385710836
 40
1.0
 40
1.0
 40
1.0
 40
1.0
 10
151.3321821030444
 20
258.3855619191963
 30
0.0
 10
151.2944557581669
 20
258.3353834391231
 30
0.0
 10
151.2213575101414
 20
258.2381580388396
 30
0.0
 10
151.1482079435043
 20
258.1409632055186
 30
0.0
 10
151.1128112075181
 20
258.0939310765197
 30
0.0
  0
SPLINE
  5
109
330
1F
100
AcDbEntity
  8
0
  6
Continuous
 62
     7
370
    15
100
AcDbSpline
210
0.0
220
0.0
230
1.0
 70
     8
 71
     3
 72
     9
 73
     5
 74
     0
 42
0.00000001
 43
0.00000001
 40
0.0
 40
0.0
 40
0.0
 40
0.0
 40
0.5156948278700569
 40
1.0
 40
1.0
 40
1.0
 40
1.0
 10
150.8323609367303
 20
258.3857943960495
 30
0.0
 10
150.7946340570471
 20
258.3356170422858
 30
0.0
 10
150.7214766824831
 20
258.2383165632971
 30
0.0
 10
150.6482676139854
 20
258.1410403175043
 30
0.0
 10
150.6128120834651
 20
258.0939289285414
 30
0.0
  0
SPLINE
  5
10A
330
1F
100
AcDbEntity
  8
0
  6
Continuous
 62
     7
370
    15
100
AcDbSpline
210
0.0
220
0.0
230
1.0
 70
     8
 71
     3
 72
     9
 73
     5
 74
     0
 42
0.00000001
 43
0.00000001
 40
0.0
 40
0.0
 40
0.0
 40
0.0
 40
0.5157793778097635
 40
1.0
 40
1.0
 40
1.0
 40
1.0
 10
150.3322363703205
 20
258.3856332902945
 30
0.0
 10
150.2945230423
 20
258.3354727000363
 30
0.0
 10
150.2214039343189
 20
258.2382206724906
 30
0.0
 10
150.1482392397705
 20
258.1410037465793
 30
0.0
 10
150.112811385854
 20
258.0939293062271
 30
0.0
  0
SPLINE
  5
10B
330
1F
100
AcDbEntity
  8
0
  6
Continuous
 62
     7
370
    15
100
AcDbSpline
210
0.0
220
0.0
230
1.0
 70
     8
 71
     3
 72
     9
 73
     5
 74
     0
 42
0.00000001
 43
0.00000001
 40
0.0
 40
0.0
 40
0.0
 40
0.0
 40
0.5168611992125097
 40
1.0
 40
1.0
 40
1.0
 40
1.0
 10
149.8317877590312
 20
258.3850217306004
 30
0.0
 10
149.7940731160489
 20
258.334857090718
 30
0.0
 10
149.7211045066044
 20
258.2378007824503
 30
0.0
 10
149.6480900355221
 20
258.1407932143171
 30
0.0
 10
149.6128139115233
 20
258.0939250941818
 30
0.0
  0
SPLINE
  5
10C
330
1F
100
AcDbEntity
  8
0
  6
Continuous
 62
     7
370
    15
100
AcDbSpline
210
0.0
220
0.0
230
1.0
 70
     8
 71
     3
 72
     9
 73
     5
 74
     0
 42
0.00000001
 43
0.00000001
 40
0.0
 40
0.0
 40
0.0
 40
0.0
 40
0.5001036067206938
 40
1.0
 40
1.0
 40
1.0
 40
1.0
 10
149.3319913315554
 20
258.3853053197521
 30
0.0
 10
149.2942716393823
 20
258.3351347797984
 30
0.0
 10
149.2188478838519
 20
258.2348144876041
 30
0.0
 10
149.1433744171989
 20
258.1345356728574
 30
0.0
 10
149.1056455034308
 20
258.0844066550432
 30
0.0
  0
SPLINE
  5
10D
330
1F
100
AcDbEntity
  8
0
  6
Continuous
 62
     7
370
    15
100
AcDbSpline
210
0.0
220
0.0
230
1.0
 70
     8
 71
     3
 72
     9
 73
     5
 74
     0
 42
0.00000001
 43
0.00000001
 40
0.0
 40
0.0
 40
0.0
 40
0.0
 40
0.4998969212556107
 40
1.0
 40
1.0
 40
1.0
 40
1.0
 10
149.3554803454752
 20
255.6939294934044
 30
0.0
 10
149.3932087807455
 20
255.6438030136471
 30
0.0
 10
149.4686812104928
 20
255.5435293819727
 30
0.0
 10
149.5441042019829
 20
255.443208430998
 30
0.0
 10
149.5818234722353
 20
255.393037614553
 30
0.0
  0
SPLINE
  5
10E
330
1F
100
AcDbEntity
  8
0
  6
Continuous
 62
     7
370
    15
100
AcDbSpline
210
0.0
220
0.0
230
1.0
 70
     8
 71
     3
 72
     9
 73
     5
 74
     0
 42
0.00000001
 43
0.00000001
 40
0.0
 40
0.0
 40
0.0
 40
0.0
 40
0.4999080922129129
 40
1.0
 40
1.0
 40
1.0
 40
1.0
 10
149.8556806043554
 20
255.6936557416243
 30
0.0
 10
149.8933958030154
 20
255.6435452270323
 30
0.0
 10
149.9688400681665
 20
255.5433057722755
 30
0.0
 10
150.0442402540368
 20
255.4430180829728
 30
0.0
 10
150.0819472768362
 20
255.3928650211018
 30
0.0
  0
SPLINE
  5
10F
330
1F
100
AcDbEntity
  8
0
  6
Continuous
 62
     7
370
    15
100
AcDbSpline
210
0.0
220
0.0
230
1.0
 70
     8
 71
     3
 72
     9
 73
     5
 74
     0
 42
0.00000001
 43
0.00000001
 40
0.0
 40
0.0
 40
0.0
 40
0.0
 40
0.4998941619970242
 40
1.0
 40
1.0
 40
1.0
 40
1.0
 10
150.35600910723
 20
255.6932233302991
 30
0.0
 10
150.3937402695461
 20
255.6430880920028
 30
0.0
 10
150.4692185711238
 20
255.5427963860625
 30
0.0
 10
150.5446460445721
 20
255.442477012174
 30
0.0
 10
150.5823677643893
 20
255.3923067076275
 30
0.0
  0
SPLINE
  5
110
330
1F
100
AcDbEntity
  8
0
  6
Continuous
 62
     7
370
    15
100
AcDbSpline
210
0.0
220
0.0
230
1.0
 70
     8
 71
     3
 72
     9
 73
     5
 74
     0
 42
0.00000001
 43
0.00000001
 40
0.0
 40
0.0
 40
0.0
 40
0.0
 40
0.4998874724625001
 40
1.0
 40
1.0
 40
1.0
 40
1.0
 10
150.8558726694571
 20
255.6934004089092
 30
0.0
 10
150.8936113630692
 20
255.6432561551421
 30
0.0
 10
150.9691057406862
 20
255.5429450720896
 30
0.0
 10
151.044546079455
 20
255.4426068898255
 30
0.0
 10
151.082274737955
 20
255.3924265078849
 30
0.0
  0
SPLINE
  5
111
330
1F
100
AcDbEntity
  8
0
  6
Continuous
 62
     7
370
    15
100
AcDbSpline
210
0.0
220
0.0
230
1.0
 70
     8
 71
     3
 72
     9
 73
     5
 74
     0
 42
0.00000001
 43
0.00000001
 40
0.0
 40
0.0
 40
0.0
 40
0.0
 40
0.4998942680297953
 40
1.0
 40
1.0
 40
1.0
 40
1.0
 10
151.3557726562624
 20
255.6935324841996
 30
0.0
 10
151.3935038809205
 20
255.6433990589369
 30
0.0
 10
151.4689822911988
 20
255.5431110011037
 30
0.0
 10
151.544409951594
 20
255.4427872467003
 30
0.0
 10
151.5821317569067
 20
255.3926147620705
 30
0.0
  0
SPLINE
  5
112
330
1F
100
AcDbEntity
  8
0
  6
Continuous
 62
     7
370
    15
100
AcDbSpline
210
0.0
220
0.0
230
1.0
 70
     8
 71
     3
 72
     9
 73
     5
 74
     0
 42
0.00000001
 43
0.00000001
 40
0.0
 40
0.0
 40
0.0
 40
0.0
 40
0.4998991867544207
 40
1.0
 40
1.0
 40
1.0
 40
1.0
 10
155.3559726033015
 20
255.6932703570608
 30
0.0
 10
155.3936980721257
 20
255.6431428756631
 30
0.0
 10
155.4691642257499
 20
255.542867694735
 30
0.0
 10
155.5445819785293
 20
255.4425598131612
 30
0.0
 10
155.5822984580275
 20
255.3923957600112
 30
0.0
  0
SPLINE
  5
113
330
1F
100
AcDbEntity
  8
0
  6
Continuous
 62
     7
370
    15
100
AcDbSpline
210
0.0
220
0.0
230
1.0
 70
     8
 71
     3
 72
     9
 73
     5
 74
     0
 42
0.00000001
 43
0.00000001
 40
0.0
 40
0.0
 40
0.0
 40
0.0
 40
0.4998880738660295
 40
1.0
 40
1.0
 40
1.0
 40
1.0
 10
155.8559399033902
 20
255.6933127008004
 30
0.0
 10
155.8936778848676
 20
255.6431689570087
 30
0.0
 10
155.9691707470709
 20
255.5428590148172
 30
0.0
 10
156.0446098523744
 20
255.4425238267395
 30
0.0
 10
156.0823378486335
 20
255.3923450025709
 30
0.0
  0
SPLINE
  5
114
330
1F
100
AcDbEntity
  8
0
  6
Continuous
 62
     7
370
    15
100
AcDbSpline
210
0.0
220
0.0
230
1.0
 70
     8
 71
     3
 72
     9
 73
     5
 74
     0
 42
0.00000001
 43
0.00000001
 40
0.0
 40
0.0
 40
0.0
 40
0.0
 40
0.4998970130171339
 40
1.0
 40
1.0
 40
1.0
 40
1.0
 10
159.3557216911857
 20
255.6936005256871
 30
0.0
 10
159.39344984133
 20
255.6434717706746
 30
0.0
 10
159.4689216868537
 20
255.5431936059585
 30
0.0
 10
159.5443441113862
 20
255.4428760514438
 30
0.0
 10
159.5820630911803
 20
255.3927069427842
 30
0.0
  0
SPLINE
  5
115
330
1F
100
AcDbEntity
  8
0
  6
Continuous
 62
     7
370
    15
100
AcDbSpline
210
0.0
220
0.0
230
1.0
 70
     8
 71
     3
 72
     9
 73
     5
 74
     0
 42
0.00000001
 43
0.00000001
 40
0.0
 40
0.0
 40
0.0
 40
0.0
 40
0.4998993300835165
 40
1.0
 40
1.0
 40
1.0
 40
1.0
 10
159.8554514105487
 20
255.6939696813446
 30
0.0
 10
159.8931771020008
 20
255.6438474500232
 30
0.0
 10
159.968643679333
 20
255.5435828001127
 30
0.0
 10
160.0440619817638
 20
255.4432682736151
 30
0.0
 10
160.0817787253334
 20
255.3931009117113
 30
0.0
  0
LINE
  5
116
330
1F
100
AcDbEntity
  8
0
  6
Continuous
 62
     7
370
    15
100
AcDbLine
 10
149.4123367187
 20
258.3890549122
 30
0.0
 11
149.3374770009
 21
258.3890549122
 31
0.0
  0
LINE
  5
117
330
1F
100
AcDbEntity
  8
0
  6
Continuous
 62
     7
370
    15
100
AcDbLine
 10
149.9123683461
 20
258.3890549122
 30
0.0
 11
149.8373367187
 21
258.3890549122
 31
0.0
  0
LINE
  5
118
330
1F
100
AcDbEntity
  8
0
  6
Continuous
 62
     7
370
    15
100
AcDbLine
 10
150.4124865976
 20
258.3890549122
 30
0.0
 11
150.3373683461
 21
258.3890549122
 31
0.0
  0
LINE
  5
119
330
1F
100
AcDbEntity
  8
0
  6
Continuous
 62
     7
370
    15
100
AcDbLine
 10
150.9123517999
 20
258.3890549122
 30
0.0
 11
150.8374865976
 21
258.3890549122
 31
0.0
  0
LINE
  5
11A
330
1F
100
AcDbEntity
  8
0
  6
Continuous
 62
     7
370
    15
100
AcDbLine
 10
151.412343514
 20
258.3890549122
 30
0.0
 11
151.3373517999
 21
258.3890549122
 31
0.0
  0
LINE
  5
11B
330
1F
100
AcDbEntity
  8
0
  6
Continuous
 62
     7
370
    15
100
AcDbLine
 10
155.4124051659
 20
258.3890549122
 30
0.0
 11
155.3374908713
 21
258.3890549122
 31
0.0
  0
LINE
  5
11C
330
1F
100
AcDbEntity
  8
0
  6
Continuous
 62
     7
370
    15
100
AcDbLine
 10
155.9123079127
 20
258.3890549122
 30
0.0
 11
155.8374051659
 21
258.3890549122
 31
0.0
  0
LINE
  5
11D
330
1F
100
AcDbEntity
  8
0
  6
Continuous
 62
     7
370
    15
100
AcDbLine
 10
159.4124460221
 20
258.3890549122
 30
0.0
 11
159.3373110104
 21
258.3890549122
 31
0.0
  0
LINE
  5
11E
330
1F
100
AcDbEntity
  8
0
  6
Continuous
 62
     7
370
    15
100
AcDbLine
 10
159.9124570684
 20
258.3890549122
 30
0.0
 11
159.8374460221
 21
258.3890549122
 31
0.0
  0
LINE
  5
11F
330
1F
100
AcDbEntity
  8
0
  6
Continuous
 62
     7
370
    15
100
AcDbLine
 10
160.0873144668
 20
255.3890549122
 30
0.0
 11
160.1124005322
 21
255.3890549122
 31
0.0
  0
LINE
  5
120
330
1F
100
AcDbEntity
  8
0
  6
Continuous
 62
     7
370
    15
100
AcDbLine
 10
159.5874492645
 20
255.3890549122
 30
0.0
 11
159.6623144668
 21
255.3890549122
 31
0.0
  0
LINE
  5
121
330
1F
100
AcDbEntity
  8
0
  6
Continuous
 62
     7
370
    15
100
AcDbLine
 10
159.1213989967
 20
255.3890549122
 30
0.0
 11
159.1624492645
 21
255.3890549122
 31
0.0
  0
LINE
  5
122
330
1F
100
AcDbEntity
  8
0
  6
Continuous
 62
     7
370
    15
100
AcDbLine
 10
156.0874872231
 20
255.3890549122
 30
0.0
 11
156.1213989967
 21
255.3890549122
 31
0.0
  0
LINE
  5
123
330
1F
100
AcDbEntity
  8
0
  6
Continuous
 62
     7
370
    15
100
AcDbLine
 10
155.5873101931
 20
255.3890549122
 30
0.0
 11
155.6624872231
 21
255.3890549122
 31
0.0
  0
LINE
  5
124
330
1F
100
AcDbEntity
  8
0
  6
Continuous
 62
     7
370
    15
100
AcDbLine
 10
155.1124005322
 20
255.3890549122
 30
0.0
 11
155.1623101931
 21
255.3890549122
 31
0.0
  0
LINE
  5
125
330
1F
100
AcDbEntity
  8
0
  6
Continuous
 62
     7
370
    15
100
AcDbLine
 10
151.5874900539
 20
255.3890549122
 30
0.0
 11
151.6124005322
 21
255.3890549122
 31
0.0
  0
LINE
  5
126
330
1F
100
AcDbEntity
  8
0
  6
Continuous
 62
     7
370
    15
100
AcDbLine
 10
151.0873550423
 20
255.3890549122
 30
0.0
 11
151.1624900539
 21
255.3890549122
 31
0.0
  0
LINE
  5
127
330
1F
100
AcDbEntity
  8
0
  6
Continuous
 62
     7
370
    15
100
AcDbLine
 10
150.5873439959
 20
255.3890549122
 30
0.0
 11
150.6623550423
 21
255.3890549122
 31
0.0
  0
LINE
  5
128
330
1F
100
AcDbEntity
  8
0
  6
Continuous
 62
     7
370
    15
100
AcDbLine
 10
150.0874822207
 20
255.3890549122
 30
0.0
 11
150.1623439959
 21
255.3890549122
 31
0.0
  0
LINE
  5
129
330
1F
100
AcDbEntity
  8
0
  6
Continuous
 62
     7
370
    15
100
AcDbLine
 10
149.5873834888
 20
255.3890549122
 30
0.0
 11
149.6624822207
 21
255.3890549122
 31
0.0
  0
LINE
  5
12A
330
1F
100
AcDbEntity
  8
0
  6
Continuous
 62
     7
370
    15
100
AcDbLine
 10
141.8713989967
 20
269.3561098335
 30
0.0
 11
141.8713989967
 21
267.8561098335
 31
0.0
  0
LINE
  5
12B
330
1F
100
AcDbEntity
  8
0
  6
Continuous
 62
     7
370
    15
100
AcDbLine
 10
173.3713989967
 20
267.8561098335
 30
0.0
 11
173.3713989967
 21
269.3561098335
 31
0.0
  0
ARC
  5
12C
330
1F
100
AcDbEntity
  8
0
  6
Continuous
 62
     7
370
    15
100
AcDbCircle
 10
150.7463989967
 20
267.8561098335
 30
0.0
 40
0.375
100
AcDbArc
 50
270.0
 51
341.5053806899
  0
ARC
  5
12D
330
1F
100
AcDbEntity
  8
0
  6
Continuous
 62
     7
370
    15
100
AcDbCircle
 10
145.9963989967
 20
267.8561098335
 30
0.0
 40
0.375
100
AcDbArc
 50
180.0
 51
270.0
  0
ARC
  5
12E
330
1F
100
AcDbEntity
  8
0
  6
Continuous
 62
     7
370
    15
100
AcDbCircle
 10
164.4963989967
 20
267.8561098335
 30
0.0
 40
0.3750000000000058
100
AcDbArc
 50
198.5444248085
 51
270.0
  0
ARC
  5
12F
330
1F
100
AcDbEntity
  8
0
  6
Continuous
 62
     7
370
    15
100
AcDbCircle
 10
169.2463989967
 20
267.8561098335
 30
0.0
 40
0.375
100
AcDbArc
 50
270.0
 51
0.0
  0
SPLINE
  5
130
330
1F
100
AcDbEntity
  8
0
  6
Continuous
 62
     7
370
    15
100
AcDbSpline
210
0.0
220
0.0
230
1.0
 70
    24
 71
     3
 72
    23
 73
    19
 74
     0
 42
0.00000001
 43
0.00000001
 40
0.0
 40
0.0
 40
0.0
 40
0.0
 40
0.0568848099645308
 40
0.1407803419917893
 40
0.2190344316424372
 40
0.3091737820958119
 40
0.4046189398156037
 40
0.4523122974594044
 40
0.4761578416239592
 40
0.5000033696825215
 40
0.5468139157933527
 40
0.5936038520695657
 40
0.6867962036567536
 40
0.780106217407668
 40
0.8582842669990831
 40
0.9421483225957877
 40
0.9445365360972304
 40
1.0
 40
1.0
 40
1.0
 40
1.0
 10
151.6124005321792
 20
256.8890549122175
 30
0.0
 10
151.6124005321792
 20
256.9402669952518
 30
0.0
 10
151.6124005321792
 20
257.06700829171
 30
0.0
 10
151.6124005321792
 20
257.2632124455293
 30
0.0
 10
151.6124005321792
 20
257.485744248044
 30
0.0
 10
151.6124005321792
 20
257.7113508532962
 30
0.0
 10
151.6124005321792
 20
257.899852657838
 30
0.0
 10
151.6124005321792
 20
258.0322318235645
 30
0.0
 10
151.6124005321792
 20
258.1072098527814
 30
0.0
 10
151.6124005321792
 20
258.1810888170233
 30
0.0
 10
151.6124005321792
 20
258.2721872169989
 30
0.0
 10
151.6124005321792
 20
258.4152551310468
 30
0.0
 10
151.6124005321792
 20
258.5905927594922
 30
0.0
 10
151.6124005321792
 20
258.7711123622821
 30
0.0
 10
151.6124005321792
 20
258.9252669665311
 30
0.0
 10
151.6124005321792
 20
259.0137254435261
 30
0.0
 10
151.6124005321792
 20
259.0848752241787
 30
0.0
 10
151.6124005321792
 20
259.1118723939151
 30
0.0
 10
151.6124005321792
 20
259.1377550755648
 30
0.0
  0
SPLINE
  5
131
330
1F
100
AcDbEntity
  8
0
  6
Continuous
 62
     7
370
    15
100
AcDbSpline
210
0.0
220
0.0
230
1.0
 70
    24
 71
     3
 72
    23
 73
    19
 74
     0
 42
0.00000001
 43
0.00000001
 40
0.0
 40
0.0
 40
0.0
 40
0.0
 40
0.0568848099647348
 40
0.1407803419919658
 40
0.2190344316425784
 40
0.3091737820959287
 40
0.4046189398156843
 40
0.4523122974594663
 40
0.4761578416240136
 40
0.5000033696825671
 40
0.5468139157965498
 40
0.5936038520759048
 40
0.6867962036692492
 40
0.7801062174095654
 40
0.8582842670011184
 40
0.9421483225978657
 40
0.9445365361018275
 40
1.0
 40
1.0
 40
1.0
 40
1.0
 10
151.6124005321792
 20
254.6403547488692
 30
0.0
 10
151.6124005321792
 20
254.6670302380433
 30
0.0
 10
151.6124005321792
 20
254.7330475894427
 30
0.0
 10
151.6124005321792
 20
254.8514205924939
 30
0.0
 10
151.6124005321792
 20
255.0033535435166
 30
0.0
 10
151.6124005321792
 20
255.1826682225815
 30
0.0
 10
151.6124005321792
 20
255.3577604043393
 30
0.0
 10
151.6124005321792
 20
255.4856086486646
 30
0.0
 10
151.6124005321792
 20
255.5593595404134
 30
0.0
 10
151.6124005321792
 20
255.6328374021587
 30
0.0
 10
151.6124005321792
 20
255.7248921986586
 30
0.0
 10
151.6124005321792
 20
255.8729336591262
 30
0.0
 10
151.6124005321792
 20
256.0612050652118
 30
0.0
 10
151.6124005321792
 20
256.2872558734383
 30
0.0
 10
151.6124005321792
 20
256.5124353778741
 30
0.0
 10
151.6124005321792
 20
256.6597365823427
 30
0.0
 10
151.6124005321792
 20
256.7870265869579
 30
0.0
 10
151.6124005321792
 20
256.8391159166897
 30
0.0
 10
151.6124005321792
 20
256.8890549122175
 30
0.0
  0
SPLINE
  5
132
330
1F
100
AcDbEntity
  8
0
  6
Continuous
 62
     7
370
    15
100
AcDbSpline
210
0.0
220
0.0
230
1.0
 70
     8
 71
     3
 72
    20
 73
    16
 74
     0
 42
0.00000001
 43
0.00000001
 40
0.0
 40
0.0
 40
0.0
 40
0.0
 40
0.0000686473386129
 40
0.0219390645581039
 40
0.0796999336771741
 40
0.1279228252846349
 40
0.1849103576328158
 40
0.2807045138487064
 40
0.3667549413699176
 40
0.4490278045483379
 40
0.5289002639975495
 40
0.684678350858897
 40
0.9013582219637366
 40
0.988485714266643
 40
1.0
 40
1.0
 40
1.0
 40
1.0
 10
153.4874005321792
 20
259.4871311235703
 30
0.0
 10
153.4874105321811
 20
259.4871311224219
 30
0.0
 10
153.490606441763
 20
259.4871307554099
 30
0.0
 10
153.5022137006947
 20
259.4865115830613
 30
0.0
 10
153.5205207048172
 20
259.4811701047738
 30
0.0
 10
153.5399809729815
 20
259.4672108425656
 30
0.0
 10
153.558217019481
 20
259.4448384505323
 30
0.0
 10
153.5722560273543
 20
259.4151893350104
 30
0.0
 10
153.5827328869919
 20
259.3819163410499
 30
0.0
 10
153.5899296519104
 20
259.3504313915734
 30
0.0
 10
153.5969887212054
 20
259.3100632106247
 30
0.0
 10
153.6039613527489
 20
259.2526108538712
 30
0.0
 10
153.6085649832174
 20
259.1943102645146
 30
0.0
 10
153.6113476764234
 20
259.1543281517007
 30
0.0
 10
153.6122098471334
 20
259.1418214460272
 30
0.0
 10
153.6123104868431
 20
259.1403615597034
 30
0.0
  0
SPLINE
  5
133
330
1F
100
AcDbEntity
  8
0
  6
Continuous
 62
     7
370
    15
100
AcDbSpline
210
0.0
220
0.0
230
1.0
 70
    24
 71
     3
 72
    11
 73
     7
 74
     0
 42
0.00000001
 43
0.00000001
 40
0.0
 40
0.0
 40
0.0
 40
0.0
 40
0.2499999999999825
 40
0.4999999999999433
 40
0.749999999999911
 40
0.9999999999999999
 40
0.9999999999999999
 40
0.9999999999999999
 40
0.9999999999999999
 10
153.4874005321792
 20
259.4871311235703
 30
0.0
 10
153.4874005321792
 20
259.4868011698091
 30
0.0
 10
153.4874005321792
 20
259.4861412622867
 30
0.0
 10
153.4874005321792
 20
259.4808683165916
 30
0.0
 10
153.4874005321792
 20
259.4729798339039
 30
0.0
 10
153.4874005321792
 20
259.4657473603482
 30
0.0
 10
153.4874005321792
 20
259.4621311235703
 30
0.0
  0
SPLINE
  5
134
330
1F
100
AcDbEntity
  8
0
  6
Continuous
 62
     7
370
    15
100
AcDbSpline
210
0.0
220
0.0
230
1.0
 70
     8
 71
     3
 72
    20
 73
    16
 74
     0
 42
0.00000001
 43
0.00000001
 40
0.0
 40
0.0
 40
0.0
 40
0.0
 40
0.0000686473386129
 40
0.0219390645581061
 40
0.079699933677167
 40
0.1279228252846392
 40
0.1849103576328233
 40
0.2807045138487264
 40
0.366754941369938
 40
0.4490278045483687
 40
0.5289002639975805
 40
0.6846783508589399
 40
0.9013582219637453
 40
0.9884857142666561
 40
1.0
 40
1.0
 40
1.0
 40
1.0
 10
151.7374005321792
 20
254.2909787008636
 30
0.0
 10
151.7373905321773
 20
254.2909787020121
 30
0.0
 10
151.7341946225953
 20
254.2909790690248
 30
0.0
 10
151.7225873636638
 20
254.2915982413717
 30
0.0
 10
151.7042803595411
 20
254.2969397196605
 30
0.0
 10
151.6848200913769
 20
254.3108989818682
 30
0.0
 10
151.6665840448773
 20
254.3332713739018
 30
0.0
 10
151.6525450370042
 20
254.3629204894235
 30
0.0
 10
151.6420681773665
 20
254.3961934833841
 30
0.0
 10
151.6348714124481
 20
254.4276784328606
 30
0.0
 10
151.627812343153
 20
254.4680466138093
 30
0.0
 10
151.6208397116095
 20
254.5254989705628
 30
0.0
 10
151.616236081141
 20
254.583799559919
 30
0.0
 10
151.613453387935
 20
254.6237816727335
 30
0.0
 10
151.612591217225
 20
254.6362883784067
 30
0.0
 10
151.6124905775153
 20
254.6377482647305
 30
0.0
  0
SPLINE
  5
135
330
1F
100
AcDbEntity
  8
0
  6
Continuous
 62
     7
370
    15
100
AcDbSpline
210
0.0
220
0.0
230
1.0
 70
     8
 71
     3
 72
    19
 73
    15
 74
     0
 42
0.00000001
 43
0.00000001
 40
0.0
 40
0.0
 40
0.0
 40
0.0
 40
0.0115214579954212
 40
0.0730548276561717
 40
0.3155164562716539
 40
0.4713915787172169
 40
0.5513137914463822
 40
0.6336379031380159
 40
0.8149744600270933
 40
0.871997490426404
 40
0.9202504205107436
 40
0.9780472693994563
 40
0.9999313099003369
 40
1.0
 40
1.0
 40
1.0
 40
1.0
 10
153.6123104868407
 20
254.6377482646958
 30
0.0
 10
153.6122098500643
 20
254.6362883769677
 30
0.0
 10
153.6115717361763
 20
254.6270315757522
 30
0.0
 10
153.6087945346925
 20
254.5870510812434
 30
0.0
 10
153.6043597705776
 20
254.5287453031761
 30
0.0
 10
153.5969804766226
 20
254.4680626167167
 30
0.0
 10
153.5899448383191
 20
254.4276494274276
 30
0.0
 10
153.5798827154978
 20
254.3842928041853
 30
0.0
 10
153.5658866760726
 20
254.3428378697096
 30
0.0
 10
153.5399902336939
 20
254.310892348716
 30
0.0
 10
153.5205178025855
 20
254.2969417984365
 30
0.0
 10
153.5022140198734
 20
254.2915980127538
 30
0.0
 10
153.4906064416708
 20
254.2909790690912
 30
0.0
 10
153.4874105321808
 20
254.2909787020122
 30
0.0
 10
153.4874005321792
 20
254.2909787008636
 30
0.0
  0
SPLINE
  5
136
330
1F
100
AcDbEntity
  8
0
  6
Continuous
 62
     7
370
    15
100
AcDbSpline
210
0.0
220
0.0
230
1.0
 70
    24
 71
     3
 72
    11
 73
     7
 74
     0
 42
0.00000001
 43
0.00000001
 40
0.0
 40
0.0
 40
0.0
 40
0.0
 40
0.2500000000001244
 40
0.5000000000000747
 40
0.7500000000000435
 40
1.0
 40
1.0
 40
1.0
 40
1.0
 10
153.4874005321792
 20
254.3159787008636
 30
0.0
 10
153.4874005321792
 20
254.3123624640858
 30
0.0
 10
153.4874005321792
 20
254.30512999053
 30
0.0
 10
153.4874005321792
 20
254.2972415078423
 30
0.0
 10
153.4874005321792
 20
254.2919685621473
 30
0.0
 10
153.4874005321792
 20
254.2913086546249
 30
0.0
 10
153.4874005321792
 20
254.2909787008636
 30
0.0
  0
SPLINE
  5
137
330
1F
100
AcDbEntity
  8
0
  6
Continuous
 62
     7
370
    15
100
AcDbSpline
210
0.0
220
0.0
230
1.0
 70
     8
 71
     3
 72
    19
 73
    15
 74
     0
 42
0.00000001
 43
0.00000001
 40
0.0
 40
0.0
 40
0.0
 40
0.0
 40
0.0115214580856236
 40
0.0730548277408553
 40
0.3155164563341468
 40
0.4713915787654775
 40
0.5513137914873475
 40
0.6336379031714617
 40
0.8149744600439739
 40
0.8719974904380948
 40
0.9202504205180243
 40
0.9780472694014603
 40
0.9999313099003431
 40
1.0
 40
1.0
 40
1.0
 40
1.0
 10
151.6124905775243
 20
259.1403615472993
 30
0.0
 10
151.6125912142983
 20
259.1418214395166
 30
0.0
 10
151.6132293281662
 20
259.1510782691345
 30
0.0
 10
151.6160065296919
 20
259.191058707678
 30
0.0
 10
151.6204412937743
 20
259.2493645301893
 30
0.0
 10
151.6278205877365
 20
259.3100472068086
 30
0.0
 10
151.6348562260391
 20
259.3504603971822
 30
0.0
 10
151.6449183488607
 20
259.3938170201323
 30
0.0
 10
151.6589143882858
 20
259.4352719547363
 30
0.0
 10
151.6848108306645
 20
259.4672174757166
 30
0.0
 10
151.7042832617729
 20
259.4811680259982
 30
0.0
 10
151.722587044485
 20
259.4865118116791
 30
0.0
 10
151.7341946226875
 20
259.4871307553435
 30
0.0
 10
151.7373905321776
 20
259.4871311224217
 30
0.0
 10
151.7374005321792
 20
259.4871311235703
 30
0.0
  0
LINE
  5
138
330
1F
100
AcDbEntity
  8
0
  6
Continuous
 62
     7
370
    15
100
AcDbLine
 10
151.7374005322
 20
259.4871311236
 30
0.0
 11
153.4874005322
 21
259.4871311236
 31
0.0
  0
LINE
  5
139
330
1F
100
AcDbEntity
  8
0
  6
Continuous
 62
     7
370
    15
100
AcDbLine
 10
153.4874005322
 20
254.2909787009
 30
0.0
 11
151.7374005322
 21
254.2909787009
 31
0.0
  0
ARC
  5
13A
330
1F
100
AcDbEntity
  8
0
  6
Continuous
 62
     7
370
    15
100
AcDbCircle
 10
151.6501780197
 20
254.6403550376
 30
0.0
 40
0.0377774875716698
100
AcDbArc
 50
180.0004379829
 51
183.956744533
  0
ARC
  5
13B
330
1F
100
AcDbEntity
  8
0
  6
Continuous
 62
     7
370
    15
100
AcDbCircle
 10
153.5746230423
 20
259.1377547741
 30
0.0
 40
0.0377774898310665
100
AcDbArc
 50
0.0004571667
 51
3.9567446688
  0
SPLINE
  5
13C
330
1F
100
AcDbEntity
  8
0
  6
Continuous
 62
     7
370
    15
100
AcDbSpline
210
0.0
220
0.0
230
1.0
 70
    24
 71
     3
 72
    14
 73
    10
 74
     0
 42
0.00000001
 43
0.00000001
 40
0.0
 40
0.0
 40
0.0
 40
0.0
 40
0.1194662882598712
 40
0.2956589804585423
 40
0.4600038317031155
 40
0.6493094412588434
 40
0.8497580097298332
 40
0.9499209252057641
 40
1.0
 40
1.0
 40
1.0
 40
1.0
 10
151.6124005321792
 20
259.1377550755648
 30
0.0
 10
151.6124005321792
 20
259.1622916304727
 30
0.0
 10
151.6124005321792
 20
259.2230154791307
 30
0.0
 10
151.6124005321792
 20
259.3008475934847
 30
0.0
 10
151.6124005321792
 20
259.3714425968033
 30
0.0
 10
151.6124005321792
 20
259.4177510936589
 30
0.0
 10
151.6124005321792
 20
259.4311049413251
 30
0.0
 10
151.6124005321792
 20
259.4357366803329
 30
0.0
 10
151.6124005321792
 20
259.4365360073145
 30
0.0
 10
151.6124005321792
 20
259.4368024411899
 30
0.0
  0
SPLINE
  5
13D
330
1F
100
AcDbEntity
  8
0
  6
Continuous
 62
     7
370
    15
100
AcDbSpline
210
0.0
220
0.0
230
1.0
 70
    24
 71
     3
 72
    15
 73
    11
 74
     0
 42
0.00000001
 43
0.00000001
 40
0.0
 40
0.0
 40
0.0
 40
0.0
 40
0.0936217231768317
 40
0.1872022264066245
 40
0.3735881857122303
 40
0.560209470909097
 40
0.7165666238401088
 40
0.8842958654222159
 40
0.8890723246187459
 40
1.0
 40
1.0
 40
1.0
 40
1.0
 10
151.6124005321792
 20
254.3410006607049
 30
0.0
 10
151.6124005321792
 20
254.3412202327391
 30
0.0
 10
151.6124005321792
 20
254.3416592801339
 30
0.0
 10
151.6124005321792
 20
254.3467912685953
 30
0.0
 10
151.6124005321792
 20
254.3596474407834
 30
0.0
 10
151.6124005321792
 20
254.4052027879985
 30
0.0
 10
151.6124005321792
 20
254.4762220859845
 30
0.0
 10
151.6124005321792
 20
254.5350660573943
 30
0.0
 10
151.6124005321792
 20
254.5912062711628
 30
0.0
 10
151.6124005321792
 20
254.6162984331142
 30
0.0
 10
151.6124005321792
 20
254.6403547488692
 30
0.0
  0
SPLINE
  5
13E
330
1F
100
AcDbEntity
  8
0
  6
Continuous
 62
     7
370
    15
100
AcDbSpline
210
0.0
220
0.0
230
1.0
 70
     8
 71
     3
 72
    11
 73
     7
 74
     0
 42
0.00000001
 43
0.00000001
 40
0.0
 40
0.0
 40
0.0
 40
0.0
 40
0.2303607118474691
 40
0.6087852954705621
 40
0.9833851842529274
 40
1.0
 40
1.0
 40
1.0
 40
1.0
 10
162.4003522748311
 20
253.4723207601861
 30
0.0
 10
162.3946044020399
 20
253.4659099870361
 30
0.0
 10
162.3794142230919
 20
253.4489679295343
 30
0.0
 10
162.3466790121114
 20
253.4305340085492
 30
0.0
 10
162.3179684708551
 20
253.4250270759825
 30
0.0
 10
162.3033931905424
 20
253.424956302803
 30
0.0
 10
162.3027741810981
 20
253.4249532970793
 30
0.0
  0
SPLINE
  5
13F
330
1F
100
AcDbEntity
  8
0
  6
Continuous
 62
     7
370
    15
100
AcDbSpline
210
0.0
220
0.0
230
1.0
 70
     8
 71
     3
 72
    11
 73
     7
 74
     0
 42
0.00000001
 43
0.00000001
 40
0.0
 40
0.0
 40
0.0
 40
0.0
 40
0.2529450331503938
 40
0.4801222009655679
 40
0.8560152883702368
 40
1.0
 40
1.0
 40
1.0
 40
1.0
 10
162.3027741810981
 20
260.3531565273548
 30
0.0
 10
162.3122363007789
 20
260.3525313017023
 30
0.0
 10
162.3301966207362
 20
260.3513445430115
 30
0.0
 10
162.3605132017976
 20
260.3404811292123
 30
0.0
 10
162.3842197655285
 20
260.324612136937
 30
0.0
 10
162.3968533052905
 20
260.3098715883359
 30
0.0
 10
162.4003522748231
 20
260.3057890642437
 30
0.0
  0
LINE
  5
140
330
1F
100
AcDbEntity
  8
0
  6
Continuous
 62
     7
370
    15
100
AcDbLine
 10
162.3027741811
 20
253.3890549122
 30
0.0
 11
162.3027741811
 21
253.4249532971
 31
0.0
  0
LINE
  5
141
330
1F
100
AcDbEntity
  8
0
  6
Continuous
 62
     7
370
    15
100
AcDbLine
 10
162.3027741811
 20
260.3531565274
 30
0.0
 11
162.3027741811
 21
260.3890549122
 31
0.0
  0
ARC
  5
142
330
1F
100
AcDbEntity
  8
0
  6
Continuous
 62
     7
370
    15
100
AcDbCircle
 10
158.0874005322
 20
256.8890549122
 30
0.0
 40
5.502329052328576
100
AcDbArc
 50
321.6136223039
 51
38.3863776962
  0
SPLINE
  5
143
330
1F
100
AcDbEntity
  8
0
  6
Continuous
 62
     7
370
    15
100
AcDbSpline
210
0.0
220
0.0
230
1.0
 70
     8
 71
     3
 72
    17
 73
    13
 74
     0
 42
0.00000001
 43
0.00000001
 40
0.0
 40
0.0
 40
0.0
 40
0.0
 40
0.0718873548157927
 40
0.1794899997911398
 40
0.2848910612671225
 40
0.3919312891072142
 40
0.4986489999881415
 40
0.6043157819158826
 40
0.7118629474187881
 40
0.817057651420616
 40
0.9244469100381052
 40
1.0
 40
1.0
 40
1.0
 40
1.0
 10
149.1124005321792
 20
258.089054912217
 30
0.0
 10
149.1180467616326
 20
258.0833561341308
 30
0.0
 10
149.1321443971069
 20
258.0691272940226
 30
0.0
 10
149.1565521635363
 20
257.9318759570219
 30
0.0
 10
149.1811667582327
 20
257.675560413014
 30
0.0
 10
149.2077167603435
 20
257.3356749927691
 30
0.0
 10
149.2338694027951
 20
256.9489715294454
 30
0.0
 10
149.2587804746537
 20
256.5556837704112
 30
0.0
 10
149.2860389596814
 20
256.1977886601803
 30
0.0
 10
149.310371342743
 20
255.9151657439067
 30
0.0
 10
149.3348563925747
 20
255.7376779986234
 30
0.0
 10
149.3494490938405
 20
255.7155485039927
 30
0.0
 10
149.3554757119531
 20
255.7064092767355
 30
0.0
  0
LINE
  5
144
330
1F
100
AcDbEntity
  8
0
  6
Continuous
 62
     7
370
    15
100
AcDbLine
 10
149.3628524689
 20
255.6890763897
 30
0.0
 11
149.3696122041
 21
255.7061406962
 31
0.0
  0
SPLINE
  5
145
330
1F
100
AcDbEntity
  8
0
  6
Continuous
 62
     7
370
    15
100
AcDbSpline
210
0.0
220
0.0
230
1.0
 70
     8
 71
     3
 72
    18
 73
    14
 74
     0
 42
0.00000001
 43
0.00000001
 40
0.0
 40
0.0
 40
0.0
 40
0.0
 40
0.0067729745404811
 40
0.1175094197686132
 40
0.227358807018058
 40
0.3367648160501621
 40
0.4476977388008122
 40
0.5562929270922063
 40
0.667295734615505
 40
0.7765079089210747
 40
0.8865631473471903
 40
0.9971732001648324
 40
1.0
 40
1.0
 40
1.0
 40
1.0
 10
149.6196886984193
 20
258.0800580176729
 30
0.0
 10
149.6202073293602
 20
258.0804923907766
 30
0.0
 10
149.6292054468896
 20
258.0880286558369
 30
0.0
 10
149.6478672108315
 20
257.9847310136166
 30
0.0
 10
149.6735807852583
 20
257.7706366296049
 30
0.0
 10
149.6988567305496
 20
257.4504883578523
 30
0.0
 10
149.725960399324
 20
257.0762619029249
 30
0.0
 10
149.7502904458067
 20
256.67958457873
 30
0.0
 10
149.7774917150507
 20
256.3078719941879
 30
0.0
 10
149.8025463941809
 20
255.9918591071484
 30
0.0
 10
149.8285041800053
 20
255.7845885653546
 30
0.0
 10
149.8467120080721
 20
255.6859658550897
 30
0.0
 10
149.8554191978413
 20
255.6950559674881
 30
0.0
 10
149.8556361774386
 20
255.6952824893602
 30
0.0
  0
SPLINE
  5
146
330
1F
100
AcDbEntity
  8
0
  6
Continuous
 62
     7
370
    15
100
AcDbSpline
210
0.0
220
0.0
230
1.0
 70
     8
 71
     3
 72
    17
 73
    13
 74
     0
 42
0.00000001
 43
0.00000001
 40
0.0
 40
0.0
 40
0.0
 40
0.0
 40
0.0827038121364051
 40
0.1931380931783824
 40
0.3014589044974796
 40
0.4121948609178373
 40
0.5208074138336333
 40
0.6308266818254163
 40
0.7408459498171999
 40
0.8494585027329935
 40
0.960194459153341
 40
0.9999999999999999
 40
0.9999999999999999
 40
0.9999999999999999
 40
0.9999999999999999
 10
150.1196039597578
 20
258.0725223862011
 30
0.0
 10
150.1260482826424
 20
258.0612062258146
 30
0.0
 10
150.1410977005787
 20
258.034779612788
 30
0.0
 10
150.1658538969037
 20
257.8494486783379
 30
0.0
 10
150.1902377584387
 20
257.5615593213834
 30
0.0
 10
150.2175492802185
 20
257.2007943343751
 30
0.0
 10
150.2422893241672
 20
256.8065739396187
 30
0.0
 10
150.2686489580282
 20
256.4219584198362
 30
0.0
 10
150.2950179965407
 20
256.0843997254374
 30
0.0
 10
150.3197300060305
 20
255.8385932200323
 30
0.0
 10
150.341412734429
 20
255.7080572869712
 30
0.0
 10
150.3528884056136
 20
255.7076107848145
 30
0.0
 10
150.3559227536597
 20
255.707492722618
 30
0.0
  0
SPLINE
  5
147
330
1F
100
AcDbEntity
  8
0
  6
Continuous
 62
     7
370
    15
100
AcDbSpline
210
0.0
220
0.0
230
1.0
 70
     8
 71
     3
 72
    17
 73
    13
 74
     0
 42
0.00000001
 43
0.00000001
 40
0.0
 40
0.0
 40
0.0
 40
0.0
 40
0.046504431778947
 40
0.1573414178865721
 40
0.2658407331829699
 40
0.3761906738292406
 40
0.4859871047933846
 40
0.5949424541985394
 40
0.7056842259429134
 40
0.8140240402469648
 40
0.9246960915607026
 40
1.0
 40
1.0
 40
1.0
 40
1.0
 10
150.6197923603913
 20
258.068668856916
 30
0.0
 10
150.6233406297628
 20
258.0670730238731
 30
0.0
 10
150.6353457164308
 20
258.0616737398892
 30
0.0
 10
150.6575897933945
 20
257.9206454667282
 30
0.0
 10
150.682082959792
 20
257.6649109691896
 30
0.0
 10
150.7087635913081
 20
257.321509319922
 30
0.0
 10
150.7347636805069
 20
256.9340408857191
 30
0.0
 10
150.7598061950174
 20
256.5413060498332
 30
0.0
 10
150.7870141022711
 20
256.1854223615099
 30
0.0
 10
150.8113300133688
 20
255.9063213909675
 30
0.0
 10
150.8356836773555
 20
255.733682109949
 30
0.0
 10
150.8500369032733
 20
255.7142940381851
 30
0.0
 10
150.855848697506
 20
255.7064435741634
 30
0.0
  0
SPLINE
  5
148
330
1F
100
AcDbEntity
  8
0
  6
Continuous
 62
     7
370
    15
100
AcDbSpline
210
0.0
220
0.0
230
1.0
 70
     8
 71
     3
 72
    17
 73
    13
 74
     0
 42
0.00000001
 43
0.00000001
 40
0.0
 40
0.0
 40
0.0
 40
0.0
 40
0.0124910700147151
 40
0.1230182001552963
 40
0.2324400830463244
 40
0.3417097348986226
 40
0.452302200052805
 40
0.5606346514217413
 40
0.6713897335075117
 40
0.7802083439415549
 40
0.8901092304349565
 40
1.0
 40
1.0
 40
1.0
 40
1.0
 10
151.1193280589609
 20
258.0778999327731
 30
0.0
 10
151.1202850840951
 20
258.078615705764
 30
0.0
 10
151.129710338247
 20
258.0856649901692
 30
0.0
 10
151.1489070895088
 20
257.9790423520554
 30
0.0
 10
151.1744562828599
 20
257.7599647417127
 30
0.0
 10
151.1998932567769
 20
257.4372819023768
 30
0.0
 10
151.2269183783276
 20
257.0612950380541
 30
0.0
 10
151.2512636059658
 20
256.6650797675493
 30
0.0
 10
151.2785262542669
 20
256.2936861814255
 30
0.0
 10
151.3034079570216
 20
255.985694231939
 30
0.0
 10
151.3296473895312
 20
255.7637289991829
 30
0.0
 10
151.3471163566676
 20
255.7169891940807
 30
0.0
 10
151.3558504381907
 20
255.6936203672375
 30
0.0
  0
SPLINE
  5
149
330
1F
100
AcDbEntity
  8
0
  6
Continuous
 62
     7
370
    15
100
AcDbSpline
210
0.0
220
0.0
230
1.0
 70
     8
 71
     3
 72
    17
 73
    13
 74
     0
 42
0.00000001
 43
0.00000001
 40
0.0
 40
0.0
 40
0.0
 40
0.0
 40
0.057432899376748
 40
0.1683898716340425
 40
0.2769171308539524
 40
0.387664702829573
 40
0.4971949257701654
 40
0.6067251487107576
 40
0.7174727206863853
 40
0.8259999799062903
 40
0.936956952163567
 40
0.9999999999999999
 40
0.9999999999999999
 40
0.9999999999999999
 40
0.9999999999999999
 10
155.1202208677057
 20
258.0677932761779
 30
0.0
 10
155.1246156765147
 20
258.0637399329011
 30
0.0
 10
155.1375009965878
 20
258.051855769617
 30
0.0
 10
155.1605611771129
 20
257.896788668285
 30
0.0
 10
155.1849024197687
 20
257.629337793514
 30
0.0
 10
155.2118914703789
 20
257.2794327373072
 30
0.0
 10
155.237400444195
 20
256.8890612877232
 30
0.0
 10
155.262909947872
 20
256.4986514433838
 30
0.0
 10
155.2898974019911
 20
256.1488620720256
 30
0.0
 10
155.3142444410577
 20
255.880991178056
 30
0.0
 10
155.3377530132683
 20
255.7241441960932
 30
0.0
 10
155.3510597503005
 20
255.7124347933418
 30
0.0
 10
155.3558809983602
 20
255.7081922855685
 30
0.0
  0
SPLINE
  5
14A
330
1F
100
AcDbEntity
  8
0
  6
Continuous
 62
     7
370
    15
100
AcDbSpline
210
0.0
220
0.0
230
1.0
 70
     8
 71
     3
 72
    17
 73
    13
 74
     0
 42
0.00000001
 43
0.00000001
 40
0.0
 40
0.0
 40
0.0
 40
0.0
 40
0.0213555415638835
 40
0.1322489281498556
 40
0.241435952373967
 40
0.3513371240810397
 40
0.4619034073439167
 40
0.5705424494643235
 40
0.6815502476363924
 40
0.7902867918182668
 40
0.9007143748120394
 40
1.0
 40
1.0
 40
1.0
 40
1.0
 10
155.6202057923549
 20
258.0732414074017
 30
0.0
 10
155.6218339389585
 20
258.0737495003635
 30
0.0
 10
155.631916597951
 20
258.0768959787331
 30
0.0
 10
155.6520179519523
 20
257.9597018597604
 30
0.0
 10
155.6770824575103
 20
257.7275241117444
 30
0.0
 10
155.7030196207725
 20
257.39705102224
 30
0.0
 10
155.7297468583158
 20
257.0164986172162
 30
0.0
 10
155.7542307925372
 20
256.6209707756546
 30
0.0
 10
155.7815698268346
 20
256.254764324346
 30
0.0
 10
155.8061461319947
 20
255.9564128074324
 30
0.0
 10
155.8319081899803
 20
255.7519000280135
 30
0.0
 10
155.8483818682507
 20
255.7156247297886
 30
0.0
 10
155.8561810882446
 20
255.698450724897
 30
0.0
  0
SPLINE
  5
14B
330
1F
100
AcDbEntity
  8
0
  6
Continuous
 62
     7
370
    15
100
AcDbSpline
210
0.0
220
0.0
230
1.0
 70
     8
 71
     3
 72
    17
 73
    13
 74
     0
 42
0.00000001
 43
0.00000001
 40
0.0
 40
0.0
 40
0.0
 40
0.0
 40
0.1068400922553647
 40
0.2170038230811284
 40
0.3260826894231919
 40
0.4371026587772423
 40
0.5456942033324214
 40
0.6565511668322879
 40
0.7660821533253189
 40
0.8757657349402551
 40
0.9865572071680856
 40
1.0
 40
1.0
 40
1.0
 40
1.0
 10
159.1197394196827
 20
258.081615707305
 30
0.0
 10
159.1282108670939
 20
258.0588332164908
 30
0.0
 10
159.1454172962202
 20
258.0125595049875
 30
0.0
 10
159.1713931960933
 20
257.792305151299
 30
0.0
 10
159.196274784236
 20
257.4844538625354
 30
0.0
 10
159.2235374715833
 20
257.1130215511068
 30
0.0
 10
159.2478826591107
 20
256.7168191142455
 30
0.0
 10
159.2749079038589
 20
256.3408190681798
 30
0.0
 10
159.3003444285486
 20
256.018175726545
 30
0.0
 10
159.3258952997971
 20
255.7989529339218
 30
0.0
 10
159.345163536619
 20
255.6922944551779
 30
0.0
 10
159.3546576339029
 20
255.6995362067311
 30
0.0
 10
159.3556849445475
 20
255.7003198018674
 30
0.0
  0
SPLINE
  5
14C
330
1F
100
AcDbEntity
  8
0
  6
Continuous
 62
     7
370
    15
100
AcDbSpline
210
0.0
220
0.0
230
1.0
 70
     8
 71
     3
 72
    17
 73
    13
 74
     0
 42
0.00000001
 43
0.00000001
 40
0.0
 40
0.0
 40
0.0
 40
0.0
 40
0.0705995537468971
 40
0.1816632116572707
 40
0.2903863800733484
 40
0.4015200051160054
 40
0.5108608866682335
 40
0.6210458258974734
 40
0.7317862333705579
 40
0.8406694671639316
 40
0.9518986434802953
 40
1.0
 40
1.0
 40
1.0
 40
1.0
 10
159.6201103880593
 20
258.0691497248642
 30
0.0
 10
159.6255419028983
 20
258.0616420189833
 30
0.0
 10
159.6395180029928
 20
258.0423235687931
 30
0.0
 10
159.6634739122057
 20
257.871540629855
 30
0.0
 10
159.6877861812424
 20
257.5927550533036
 30
0.0
 10
159.7149950839454
 20
257.2367853387426
 30
0.0
 10
159.7400372995883
 20
256.8440756806665
 30
0.0
 10
159.7660375966501
 20
256.4565918984994
 30
0.0
 10
159.7927176960494
 20
256.1132264169814
 30
0.0
 10
159.8172127669371
 20
255.85736368666
 30
0.0
 10
159.8395704358639
 20
255.7159710502619
 30
0.0
 10
159.8516820663557
 20
255.7106815801248
 30
0.0
 10
159.8553385272107
 20
255.70908470673
 30
0.0
  0
SPLINE
  5
14D
330
1F
100
AcDbEntity
  8
0
  6
Continuous
 62
     7
370
    15
100
AcDbSpline
210
0.0
220
0.0
230
1.0
 70
     8
 71
     3
 72
    10
 73
     6
 74
     0
 42
0.00000001
 43
0.00000001
 40
0.0
 40
0.0
 40
0.0
 40
0.0
 40
0.4374648747125358
 40
0.9002347573474103
 40
1.0
 40
1.0
 40
1.0
 40
1.0
 10
149.1124005321792
 20
255.6720629072435
 30
0.0
 10
149.1207363015152
 20
255.5959506326474
 30
0.0
 10
149.1378900199491
 20
255.4393233946383
 30
0.0
 10
149.1561235965504
 20
255.3622471580313
 30
0.0
 10
149.1665431636509
 20
255.3998839727407
 30
0.0
 10
149.1683910671744
 20
255.4065588376217
 30
0.0
  0
SPLINE
  5
14E
330
1F
100
AcDbEntity
  8
0
  6
Continuous
 62
     7
370
    15
100
AcDbSpline
210
0.0
220
0.0
230
1.0
 70
     8
 71
     3
 72
    18
 73
    14
 74
     0
 42
0.00000001
 43
0.00000001
 40
0.0
 40
0.0
 40
0.0
 40
0.0
 40
0.0364841071851244
 40
0.1407853042760921
 40
0.2442536817466228
 40
0.3473057610387465
 40
0.451791410564955
 40
0.5540821769255138
 40
0.6586334330172242
 40
0.7615035141682747
 40
0.86516516387475
 40
0.969347701957566
 40
1.0
 40
1.0
 40
1.0
 40
1.0
 10
149.4123367187031
 20
258.3713163001941
 30
0.0
 10
149.4152888262172
 20
258.3760423376721
 30
0.0
 10
149.4266804536051
 20
258.3942792269838
 30
0.0
 10
149.4478314931017
 20
258.262914041779
 30
0.0
 10
149.4735906737569
 20
257.9898919548224
 30
0.0
 10
149.4988531656407
 20
257.591176500079
 30
0.0
 10
149.5259626049015
 20
257.1229353891663
 30
0.0
 10
149.5502882612659
 20
256.6273469269032
 30
0.0
 10
149.577495084508
 20
256.1622395735059
 30
0.0
 10
149.6025375996311
 20
255.76871922323
 30
0.0
 10
149.6285352165464
 20
255.5041325698873
 30
0.0
 10
149.6490508530111
 20
255.3802250332789
 30
0.0
 10
149.6599944002247
 20
255.4006441765802
 30
0.0
 10
149.6624822207351
 20
255.4052861050627
 30
0.0
  0
SPLINE
  5
14F
330
1F
100
AcDbEntity
  8
0
  6
Continuous
 62
     7
370
    15
100
AcDbSpline
210
0.0
220
0.0
230
1.0
 70
     8
 71
     3
 72
    17
 73
    13
 74
     0
 42
0.00000001
 43
0.00000001
 40
0.0
 40
0.0
 40
0.0
 40
0.0
 40
0.0849960605399
 40
0.1919070111784994
 40
0.2967784087677176
 40
0.403980449087542
 40
0.5091333987454109
 40
0.6156438821906097
 40
0.7221543656358064
 40
0.8273073152936751
 40
0.9345093556134991
 40
0.9999999999999999
 40
0.9999999999999999
 40
0.9999999999999999
 40
0.9999999999999999
 10
149.9184047709934
 20
258.3723037372603
 30
0.0
 10
149.9252439943325
 20
258.3575291050173
 30
0.0
 10
149.9406858265945
 20
258.3241704352508
 30
0.0
 10
149.9658532106356
 20
258.0898057266376
 30
0.0
 10
149.9902368246903
 20
257.7296355245686
 30
0.0
 10
150.017550538312
 20
257.2787150807699
 30
0.0
 10
150.0422880474111
 20
256.7860068632773
 30
0.0
 10
150.0686509142703
 20
256.3050191890489
 30
0.0
 10
150.0950114983228
 20
255.8838397821545
 30
0.0
 10
150.1197558124093
 20
255.5737121527052
 30
0.0
 10
150.1436567328356
 20
255.4025308231932
 30
0.0
 10
150.1572057651837
 20
255.4059053483961
 30
0.0
 10
150.1623439959131
 20
255.4071850773575
 30
0.0
  0
SPLINE
  5
150
330
1F
100
AcDbEntity
  8
0
  6
Continuous
 62
     7
370
    15
100
AcDbSpline
210
0.0
220
0.0
230
1.0
 70
     8
 71
     3
 72
    18
 73
    14
 74
     0
 42
0.00000001
 43
0.00000001
 40
0.0
 40
0.0
 40
0.0
 40
0.0
 40
0.0492679245511078
 40
0.1538907121874687
 40
0.256313910681991
 40
0.3604784640706882
 40
0.4641222190023166
 40
0.5669745420244381
 40
0.6715077497714338
 40
0.7737808580083
 40
0.87824847051524
 40
0.9812827602606828
 40
1.0
 40
1.0
 40
1.0
 40
1.0
 10
150.4184783797224
 20
258.3653464743771
 30
0.0
 10
150.4224574410752
 20
258.3633609718649
 30
0.0
 10
150.4348862289935
 20
258.3571591600686
 30
0.0
 10
150.4575854084515
 20
258.1790138243441
 30
0.0
 10
150.4820834659579
 20
257.8587654341513
 30
0.0
 10
150.5087634953591
 20
257.4296223870765
 30
0.0
 10
150.5347642911201
 20
256.9453845312984
 30
0.0
 10
150.5598049994586
 20
256.4539597782098
 30
0.0
 10
150.5870159161942
 20
256.0111113038742
 30
0.0
 10
150.6113271717349
 20
255.654708441005
 30
0.0
 10
150.6384907702625
 20
255.4426196080355
 30
0.0
 10
150.6567234098433
 20
255.3607516095414
 30
0.0
 10
150.6668742890767
 20
255.3991562189469
 30
0.0
 10
150.6684348151825
 20
255.4050602785048
 30
0.0
  0
SPLINE
  5
151
330
1F
100
AcDbEntity
  8
0
  6
Continuous
 62
     7
370
    15
100
AcDbSpline
210
0.0
220
0.0
230
1.0
 70
     8
 71
     3
 72
    18
 73
    14
 74
     0
 42
0.00000001
 43
0.00000001
 40
0.0
 40
0.0
 40
0.0
 40
0.0
 40
0.0403828779219904
 40
0.1447527324269621
 40
0.2480822628796047
 40
0.3512684942746029
 40
0.4556998417537119
 40
0.5580038498521565
 40
0.6625882494907562
 40
0.7653499003458548
 40
0.8691303137454149
 40
0.9732233507725175
 40
1.0
 40
1.0
 40
1.0
 40
1.0
 10
150.9123517998509
 20
258.3705888870585
 30
0.0
 10
150.9156136145816
 20
258.3752156724507
 30
0.0
 10
150.9273056142421
 20
258.3918004198075
 30
0.0
 10
150.9488733986636
 20
258.2552461515443
 30
0.0
 10
150.9744654826577
 20
257.9767062669497
 30
0.0
 10
150.999890114678
 20
257.5746004865676
 30
0.0
 10
151.0269198567173
 20
257.1043374181444
 30
0.0
 10
151.0512637897775
 20
256.6088475182387
 30
0.0
 10
151.0785206864318
 20
256.1458965461968
 30
0.0
 10
151.1034321641827
 20
255.7559104142948
 30
0.0
 10
151.1295806671941
 20
255.497055728164
 30
0.0
 10
151.1496658611025
 20
255.377893845673
 30
0.0
 10
151.1603118306884
 20
255.3995704326776
 30
0.0
 10
151.1624900539382
 20
255.4040055802147
 30
0.0
  0
SPLINE
  5
152
330
1F
100
AcDbEntity
  8
0
  6
Continuous
 62
     7
370
    15
100
AcDbSpline
210
0.0
220
0.0
230
1.0
 70
     8
 71
     3
 72
    15
 73
    11
 74
     0
 42
0.00000001
 43
0.00000001
 40
0.0
 40
0.0
 40
0.0
 40
0.0
 40
0.1114666973431749
 40
0.2458650863240008
 40
0.3778459163915435
 40
0.5127228958446115
 40
0.6449005495672772
 40
0.7790189858460501
 40
0.9128687423380198
 40
0.9999999999999999
 40
0.9999999999999999
 40
0.9999999999999999
 40
0.9999999999999999
 10
151.4184828249703
 20
258.3737773987623
 30
0.0
 10
151.4256384219581
 20
258.3569034093065
 30
0.0
 10
151.4414217143049
 20
258.3196839978316
 30
0.0
 10
151.4667945008248
 20
258.0783495792202
 30
0.0
 10
151.4912280385821
 20
257.7137995108084
 30
0.0
 10
151.5185649301074
 20
257.2607832357272
 30
0.0
 10
151.5431960423765
 20
256.7665328219643
 30
0.0
 10
151.569718844633
 20
256.2906481864308
 30
0.0
 10
151.5928804690227
 20
255.9081043868229
 30
0.0
 10
151.6068804415887
 20
255.7504938082165
 30
0.0
 10
151.6124005321792
 20
255.6883490670161
 30
0.0
  0
SPLINE
  5
153
330
1F
100
AcDbEntity
  8
0
  6
Continuous
 62
     7
370
    15
100
AcDbSpline
210
0.0
220
0.0
230
1.0
 70
     8
 71
     3
 72
    10
 73
     6
 74
     0
 42
0.00000001
 43
0.00000001
 40
0.0
 40
0.0
 40
0.0
 40
0.0
 40
0.0447514937408804
 40
0.5701551374234091
 40
1.0
 40
1.0
 40
1.0
 40
1.0
 10
155.1124005321792
 20
255.677338997734
 30
0.0
 10
155.1131232177988
 20
255.6676490927628
 30
0.0
 10
155.1223305734489
 20
255.5441951331599
 30
0.0
 10
155.1400441684719
 20
255.4250117608112
 30
0.0
 10
155.1554002356056
 20
255.4076604750639
 30
0.0
 10
155.1623101930916
 20
255.3998527046369
 30
0.0
  0
SPLINE
  5
154
330
1F
100
AcDbEntity
  8
0
  6
Continuous
 62
     7
370
    15
100
AcDbSpline
210
0.0
220
0.0
230
1.0
 70
     8
 71
     3
 72
    18
 73
    14
 74
     0
 42
0.00000001
 43
0.00000001
 40
0.0
 40
0.0
 40
0.0
 40
0.0
 40
0.0266083809230051
 40
0.133947122233701
 40
0.2396394752186371
 40
0.3460209117105505
 40
0.4530440707389544
 40
0.5582076620069628
 40
0.6656567823095147
 40
0.7709144562533936
 40
0.877803796587146
 40
0.9843721151285169
 40
1.0
 40
1.0
 40
1.0
 40
1.0
 10
155.4187963125173
 20
258.3693711880559
 30
0.0
 10
155.4208896308224
 20
258.3703990605044
 30
0.0
 10
155.4314274370761
 20
258.375573390987
 30
0.0
 10
155.4520104797302
 20
258.2281281418325
 30
0.0
 10
155.4770843129607
 20
257.9369442935525
 30
0.0
 10
155.5030186894732
 20
257.5240886769291
 30
0.0
 10
155.5297478184376
 20
257.0484186733413
 30
0.0
 10
155.5542304691091
 20
256.5536304179236
 30
0.0
 10
155.5815669605765
 20
256.0974895711951
 30
0.0
 10
155.606160630075
 20
255.7184214532094
 30
0.0
 10
155.632724178208
 20
255.477310016316
 30
0.0
 10
155.6514847784816
 20
255.3712251248148
 30
0.0
 10
155.6612396549909
 20
255.3957275230545
 30
0.0
 10
155.6624872231048
 20
255.3988611773586
 30
0.0
  0
SPLINE
  5
155
330
1F
100
AcDbEntity
  8
0
  6
Continuous
 62
     7
370
    15
100
AcDbSpline
210
0.0
220
0.0
230
1.0
 70
     8
 71
     3
 72
    16
 73
    12
 74
     0
 42
0.00000001
 43
0.00000001
 40
0.0
 40
0.0
 40
0.0
 40
0.0
 40
0.0227817481768065
 40
0.1469651338387528
 40
0.2712730985948872
 40
0.3938866405885275
 40
0.5189497010170026
 40
0.6413077538838184
 40
0.7659791146522487
 40
0.8896550050114239
 40
1.0
 40
1.0
 40
1.0
 40
1.0
 10
155.9123079126555
 20
258.3773188455505
 30
0.0
 10
155.9138661173868
 20
258.3809954998133
 30
0.0
 10
155.9239181013303
 20
258.4047136087842
 30
0.0
 10
155.9431258217298
 20
258.2944680172916
 30
0.0
 10
155.9695573042905
 20
258.0473586798118
 30
0.0
 10
155.994243776202
 20
257.6645616783884
 30
0.0
 10
156.0215675867039
 20
257.2062405528791
 30
0.0
 10
156.0459824261459
 20
256.7106093298327
 30
0.0
 10
156.0728513928943
 20
256.2386625985042
 30
0.0
 10
156.0976190535517
 20
255.8362973603738
 30
0.0
 10
156.1137792008761
 20
255.6678830380857
 30
0.0
 10
156.1213989967455
 20
255.5884727003235
 30
0.0
  0
SPLINE
  5
156
330
1F
100
AcDbEntity
  8
0
  6
Continuous
 62
     7
370
    15
100
AcDbSpline
210
0.0
220
0.0
230
1.0
 70
     8
 71
     3
 72
    10
 73
     6
 74
     0
 42
0.00000001
 43
0.00000001
 40
0.0
 40
0.0
 40
0.0
 40
0.0
 40
0.1149391414337587
 40
0.7530871852587812
 40
1.0
 40
1.0
 40
1.0
 40
1.0
 10
159.1213989967455
 20
255.5925898113055
 30
0.0
 10
159.1229542419318
 20
255.5751121499722
 30
0.0
 10
159.1331442886395
 20
255.4605976111108
 30
0.0
 10
159.1475128264396
 20
255.3883755823272
 30
0.0
 10
159.1591912400035
 20
255.403344838924
 30
0.0
 10
159.1624492645075
 20
255.4075209373755
 30
0.0
  0
SPLINE
  5
157
330
1F
100
AcDbEntity
  8
0
  6
Continuous
 62
     7
370
    15
100
AcDbSpline
210
0.0
220
0.0
230
1.0
 70
     8
 71
     3
 72
    17
 73
    13
 74
     0
 42
0.00000001
 43
0.00000001
 40
0.0
 40
0.0
 40
0.0
 40
0.0
 40
0.0733085853660206
 40
0.1805495876855238
 40
0.2855378263793304
 40
0.3928461653510302
 40
0.4984289957334891
 40
0.6048242688358101
 40
0.711754166471062
 40
0.8168964799951794
 40
0.9242967770091053
 40
1.0
 40
1.0
 40
1.0
 40
1.0
 10
159.4188713076175
 20
258.3675392746461
 30
0.0
 10
159.4247096212486
 20
258.3576979494037
 30
0.0
 10
159.4390886344788
 20
258.3334600350323
 30
0.0
 10
159.4634722382609
 20
258.1174762309019
 30
0.0
 10
159.4877855709374
 20
257.7686138181925
 30
0.0
 10
159.5149960579655
 20
257.3237123135185
 30
0.0
 10
159.5400363893961
 20
256.8328751535093
 30
0.0
 10
159.566039130556
 20
256.3483244857125
 30
0.0
 10
159.5927117505002
 20
255.9198438719038
 30
0.0
 10
159.6172372728547
 20
255.5972783359338
 30
0.0
 10
159.6420102414077
 20
255.410012228577
 30
0.0
 10
159.6563753042823
 20
255.4062349621645
 30
0.0
 10
159.6623144667738
 20
255.4046732704968
 30
0.0
  0
SPLINE
  5
158
330
1F
100
AcDbEntity
  8
0
  6
Continuous
 62
     7
370
    15
100
AcDbSpline
210
0.0
220
0.0
230
1.0
 70
     8
 71
     3
 72
    16
 73
    12
 74
     0
 42
0.00000001
 43
0.00000001
 40
0.0
 40
0.0
 40
0.0
 40
0.0
 40
0.0493118990748031
 40
0.1842255488490649
 40
0.3165604202801162
 40
0.4506037464886434
 40
0.5846470726971739
 40
0.716981944128219
 40
0.851895593902466
 40
0.9838761323649484
 40
1.0
 40
1.0
 40
1.0
 40
1.0
 10
159.9187246088167
 20
258.3661253471885
 30
0.0
 10
159.9218093986489
 20
258.3660022094136
 30
0.0
 10
159.9333339416209
 20
258.3655421759416
 30
0.0
 10
159.9550714689873
 20
258.2021726921457
 30
0.0
 10
159.9797828413307
 20
257.8949140193885
 30
0.0
 10
160.0061506590754
 20
257.4727494664946
 30
0.0
 10
160.0325177186777
 20
256.9928149628452
 30
0.0
 10
160.0572313510237
 20
256.4968995331839
 30
0.0
 10
160.0846371978579
 20
256.0578646339936
 30
0.0
 10
160.1015874882528
 20
255.7730371530928
 30
0.0
 10
160.1113389117588
 20
255.6892074828943
 30
0.0
 10
160.1124005321792
 20
255.6800810933305
 30
0.0
  0
SPLINE
  5
159
330
1F
100
AcDbEntity
  8
0
  6
Continuous
 62
     7
370
    15
100
AcDbSpline
210
0.0
220
0.0
230
1.0
 70
    24
 71
     3
 72
    15
 73
    11
 74
     0
 42
0.00000001
 43
0.00000001
 40
0.0
 40
0.0
 40
0.0
 40
0.0
 40
0.1471513764666086
 40
0.2931439418170056
 40
0.4345185932675937
 40
0.573975346811511
 40
0.7060873453253553
 40
0.8384187117728267
 40
0.9616838469071131
 40
1.0
 40
1.0
 40
1.0
 40
1.0
 10
149.1124005321792
 20
255.6720629072435
 30
0.0
 10
149.1124005321792
 20
255.7925618766136
 30
0.0
 10
149.1124005321792
 20
256.0326108908616
 30
0.0
 10
149.1124005321792
 20
256.510947264988
 30
0.0
 10
149.1124005321792
 20
257.0017580049989
 30
0.0
 10
149.1124005321792
 20
257.4518844933561
 30
0.0
 10
149.1124005321792
 20
257.8120080525794
 30
0.0
 10
149.1124005321792
 20
258.0395457809828
 30
0.0
 10
149.1124005321792
 20
258.1029825951843
 30
0.0
 10
149.1124005321792
 20
258.0917245573573
 30
0.0
 10
149.1124005321792
 20
258.089054912217
 30
0.0
  0
SPLINE
  5
15A
330
1F
100
AcDbEntity
  8
0
  6
Continuous
 62
     7
370
    15
100
AcDbSpline
210
0.0
220
0.0
230
1.0
 70
     8
 71
     3
 72
    17
 73
    13
 74
     0
 42
0.00000001
 43
0.00000001
 40
0.0
 40
0.0
 40
0.0
 40
0.0
 40
0.0698039063261829
 40
0.1744197752764261
 40
0.276901982597556
 40
0.3809728320288634
 40
0.484731124468853
 40
0.5874708715152285
 40
0.6920329788233167
 40
0.7943151806603168
 40
0.8987242684322214
 40
1.0
 40
1.0
 40
1.0
 40
1.0
 10
149.3374770008972
 20
258.3722659446831
 30
0.0
 10
149.3430938663307
 20
258.3719450500655
 30
0.0
 10
149.3571287887045
 20
258.3711432272158
 30
0.0
 10
149.3815604376239
 20
258.1904201153163
 30
0.0
 10
149.4061639086822
 20
257.8727815616644
 30
0.0
 10
149.4327175279221
 20
257.4471638273425
 30
0.0
 10
149.4588696353057
 20
256.9640093808687
 30
0.0
 10
149.4837802664983
 20
256.4722425505308
 30
0.0
 10
149.511036967943
 20
256.0253574686134
 30
0.0
 10
149.5353825188617
 20
255.6702259575061
 30
0.0
 10
149.5622412100948
 20
255.4333913979561
 30
0.0
 10
149.5790882773485
 20
255.4046238467238
 30
0.0
 10
149.5873834887617
 20
255.3904591903052
 30
0.0
  0
SPLINE
  5
15B
330
1F
100
AcDbEntity
  8
0
  6
Continuous
 62
     7
370
    15
100
AcDbSpline
210
0.0
220
0.0
230
1.0
 70
     8
 71
     3
 72
    18
 73
    14
 74
     0
 42
0.00000001
 43
0.00000001
 40
0.0
 40
0.0
 40
0.0
 40
0.0
 40
0.0364841071851245
 40
0.1407853042760925
 40
0.2442536817466225
 40
0.3473057610387446
 40
0.451791410564954
 40
0.5540821769255136
 40
0.6586334330172235
 40
0.7615035141682752
 40
0.8651651638747502
 40
0.9693477019575659
 40
1.0
 40
1.0
 40
1.0
 40
1.0
 10
149.8373367187031
 20
258.3713163001941
 30
0.0
 10
149.8402888262172
 20
258.3760423376721
 30
0.0
 10
149.8516804536051
 20
258.3942792269838
 30
0.0
 10
149.8728314931016
 20
258.262914041779
 30
0.0
 10
149.8985906737569
 20
257.9898919548224
 30
0.0
 10
149.9238531656407
 20
257.591176500079
 30
0.0
 10
149.9509626049015
 20
257.1229353891663
 30
0.0
 10
149.9752882612659
 20
256.6273469269032
 30
0.0
 10
150.002495084508
 20
256.1622395735059
 30
0.0
 10
150.027537599631
 20
255.76871922323
 30
0.0
 10
150.0535352165464
 20
255.5041325698873
 30
0.0
 10
150.0740508530111
 20
255.3802250332789
 30
0.0
 10
150.0849944002246
 20
255.4006441765803
 30
0.0
 10
150.0874822207351
 20
255.4052861050627
 30
0.0
  0
SPLINE
  5
15C
330
1F
100
AcDbEntity
  8
0
  6
Continuous
 62
     7
370
    15
100
AcDbSpline
210
0.0
220
0.0
230
1.0
 70
     8
 71
     3
 72
    18
 73
    14
 74
     0
 42
0.00000001
 43
0.00000001
 40
0.0
 40
0.0
 40
0.0
 40
0.0
 40
0.0037813012143305
 40
0.1071654526379464
 40
0.2114860857029619
 40
0.3138165815181418
 40
0.4184212515283228
 40
0.5210264777604244
 40
0.6249563464473488
 40
0.7288862151342737
 40
0.8314914413663758
 40
0.9360961113765558
 40
1.0
 40
1.0
 40
1.0
 40
1.0
 10
150.3373683460931
 20
258.3862965027186
 30
0.0
 10
150.3376809316628
 20
258.3872108498851
 30
0.0
 10
150.3465398858067
 20
258.4131242649812
 30
0.0
 10
150.3639232756001
 20
258.3182059037237
 30
0.0
 10
150.3908493994345
 20
258.0957284089039
 30
0.0
 10
150.4152378633054
 20
257.7280214960574
 30
0.0
 10
150.4425502635195
 20
257.2791421139189
 30
0.0
 10
150.4672881214935
 20
256.7858917377904
 30
0.0
 10
150.4936508943037
 20
256.305050217584
 30
0.0
 10
150.520011503598
 20
255.8838315844519
 30
0.0
 10
150.5447558109566
 20
255.5737144101136
 30
0.0
 10
150.5686567330413
 20
255.4025305035146
 30
0.0
 10
150.5822057652402
 20
255.4059052604976
 30
0.0
 10
150.587343995913
 20
255.4071850773575
 30
0.0
  0
SPLINE
  5
15D
330
1F
100
AcDbEntity
  8
0
  6
Continuous
 62
     7
370
    15
100
AcDbSpline
210
0.0
220
0.0
230
1.0
 70
     8
 71
     3
 72
    17
 73
    13
 74
     0
 42
0.00000001
 43
0.00000001
 40
0.0
 40
0.0
 40
0.0
 40
0.0
 40
0.0737393607818909
 40
0.1783535229893207
 40
0.2807682773959022
 40
0.3849242431339294
 40
0.4885594533511365
 40
0.591403296906951
 40
0.6959278866102611
 40
0.7981925631330948
 40
0.9026515630042259
 40
1.0
 40
1.0
 40
1.0
 40
1.0
 10
150.8374865975846
 20
258.3734365539372
 30
0.0
 10
150.8434257598299
 20
258.3718748888842
 30
0.0
 10
150.857790822109
 20
258.3680976868446
 30
0.0
 10
150.8825637965264
 20
258.1808309455101
 30
0.0
 10
150.9070892955431
 20
257.8582679325114
 30
0.0
 10
150.933762003318
 20
257.4297778236185
 30
0.0
 10
150.959764417942
 20
256.9452624565084
 30
0.0
 10
150.9848059641409
 20
256.4542939720405
 30
0.0
 10
151.0120118863074
 20
256.0098859589687
 30
0.0
 10
151.0363420765323
 20
255.6592011342762
 30
0.0
 10
151.0629375111346
 20
255.4298245163284
 30
0.0
 10
151.0794093233463
 20
255.4050619136815
 30
0.0
 10
151.0873550422861
 20
255.3931168600152
 30
0.0
  0
SPLINE
  5
15E
330
1F
100
AcDbEntity
  8
0
  6
Continuous
 62
     7
370
    15
100
AcDbSpline
210
0.0
220
0.0
230
1.0
 70
     8
 71
     3
 72
    18
 73
    14
 74
     0
 42
0.00000001
 43
0.00000001
 40
0.0
 40
0.0
 40
0.0
 40
0.0
 40
0.0403828779219876
 40
0.1447527324269586
 40
0.2480822628796022
 40
0.3512684942746013
 40
0.4556998417537105
 40
0.5580038498521552
 40
0.6625882494907546
 40
0.7653499003458539
 40
0.8691303137454149
 40
0.9732233507725174
 40
1.0
 40
1.0
 40
1.0
 40
1.0
 10
151.3373517998509
 20
258.3705888870585
 30
0.0
 10
151.3406136145817
 20
258.3752156724507
 30
0.0
 10
151.3523056142421
 20
258.3918004198075
 30
0.0
 10
151.3738733986636
 20
258.2552461515444
 30
0.0
 10
151.3994654826577
 20
257.9767062669497
 30
0.0
 10
151.424890114678
 20
257.5746004865675
 30
0.0
 10
151.4519198567172
 20
257.1043374181444
 30
0.0
 10
151.4762637897775
 20
256.6088475182387
 30
0.0
 10
151.5035206864318
 20
256.1458965461968
 30
0.0
 10
151.5284321641827
 20
255.7559104142948
 30
0.0
 10
151.5545806671941
 20
255.497055728164
 30
0.0
 10
151.5746658611025
 20
255.377893845673
 30
0.0
 10
151.5853118306884
 20
255.3995704326776
 30
0.0
 10
151.5874900539382
 20
255.4040055802147
 30
0.0
  0
SPLINE
  5
15F
330
1F
100
AcDbEntity
  8
0
  6
Continuous
 62
     7
370
    15
100
AcDbSpline
210
0.0
220
0.0
230
1.0
 70
     8
 71
     3
 72
    17
 73
    13
 74
     0
 42
0.00000001
 43
0.00000001
 40
0.0
 40
0.0
 40
0.0
 40
0.0
 40
0.0855491566679026
 40
0.1901167403255629
 40
0.2924017958157267
 40
0.3967726856095102
 40
0.499999999999997
 40
0.6032273143904822
 40
0.7075982041842682
 40
0.8098832596744331
 40
0.9144508433320854
 40
1.0
 40
1.0
 40
1.0
 40
1.0
 10
155.3374908712668
 20
258.3782571197971
 30
0.0
 10
155.3444158073514
 20
258.3721340620087
 30
0.0
 10
155.3598051615735
 20
258.3585267298866
 30
0.0
 10
155.3855395594004
 20
258.1507929153626
 30
0.0
 10
155.4099073728101
 20
257.8138621331515
 30
0.0
 10
155.4368906195705
 20
257.3771578649002
 30
0.0
 10
155.4624005321792
 20
256.889054912217
 30
0.0
 10
155.4879104447879
 20
256.4009519595338
 30
0.0
 10
155.5148936915483
 20
255.9642476912825
 30
0.0
 10
155.5392615049579
 20
255.6273169090714
 30
0.0
 10
155.5649959027849
 20
255.4195830945474
 30
0.0
 10
155.580385257007
 20
255.4059757624252
 30
0.0
 10
155.5873101930916
 20
255.3998527046369
 30
0.0
  0
SPLINE
  5
160
330
1F
100
AcDbEntity
  8
0
  6
Continuous
 62
     7
370
    15
100
AcDbSpline
210
0.0
220
0.0
230
1.0
 70
     8
 71
     3
 72
    18
 73
    14
 74
     0
 42
0.00000001
 43
0.00000001
 40
0.0
 40
0.0
 40
0.0
 40
0.0
 40
0.0521214150961349
 40
0.156646759494951
 40
0.2595688681499617
 40
0.3631619991218654
 40
0.4673800327926066
 40
0.5697872388142194
 40
0.6744200691216419
 40
0.7769188918696786
 40
0.8810066142942228
 40
0.9847817290526206
 40
1.0
 40
1.0
 40
1.0
 40
1.0
 10
155.8374051659113
 20
258.3697482545851
 30
0.0
 10
155.8415995771269
 20
258.3733030287154
 30
0.0
 10
155.854205545781
 20
258.3839866190823
 30
0.0
 10
155.8769804096504
 20
258.2308514446
 30
0.0
 10
155.9020923743689
 20
257.9362142105144
 30
0.0
 10
155.9280165077843
 20
257.5242862620146
 30
0.0
 10
155.9547483927925
 20
257.0483666567855
 30
0.0
 10
155.9792303125475
 20
256.5536445969581
 30
0.0
 10
156.0065670019373
 20
256.0974858253422
 30
0.0
 10
156.0311606188606
 20
255.7184224688458
 30
0.0
 10
156.057724181365
 20
255.4773097304035
 30
0.0
 10
156.0764847783947
 20
255.3712251326851
 30
0.0
 10
156.086239654981
 20
255.3957275239469
 30
0.0
 10
156.0874872231048
 20
255.3988611773586
 30
0.0
  0
SPLINE
  5
161
330
1F
100
AcDbEntity
  8
0
  6
Continuous
 62
     7
370
    15
100
AcDbSpline
210
0.0
220
0.0
230
1.0
 70
     8
 71
     3
 72
    18
 73
    14
 74
     0
 42
0.00000001
 43
0.00000001
 40
0.0
 40
0.0
 40
0.0
 40
0.0
 40
0.0267766492274738
 40
0.1308696862545825
 40
0.2346500996541476
 40
0.3374117505092411
 40
0.44199615014784
 40
0.5443001582462895
 40
0.6487315057253971
 40
0.7519177371203944
 40
0.8552472675730401
 40
0.9596171220779975
 40
1.0
 40
1.0
 40
1.0
 40
1.0
 10
159.3373110104202
 20
258.3741042442193
 30
0.0
 10
159.33948923367
 20
258.3785393917564
 30
0.0
 10
159.3501352032558
 20
258.400215978761
 30
0.0
 10
159.3702203971642
 20
258.28105409627
 30
0.0
 10
159.3963689001757
 20
258.0221994101391
 30
0.0
 10
159.4212803779266
 20
257.6322132782371
 30
0.0
 10
159.4485372745809
 20
257.1692623061953
 30
0.0
 10
159.4728812076411
 20
256.6737724062896
 30
0.0
 10
159.4999109496804
 20
256.2035093378664
 30
0.0
 10
159.5253355817007
 20
255.8014035574843
 30
0.0
 10
159.5509276656948
 20
255.5228636728896
 30
0.0
 10
159.5724954501163
 20
255.3863094046265
 30
0.0
 10
159.5841874497767
 20
255.4028941519832
 30
0.0
 10
159.5874492645075
 20
255.4075209373755
 30
0.0
  0
SPLINE
  5
162
330
1F
100
AcDbEntity
  8
0
  6
Continuous
 62
     7
370
    15
100
AcDbSpline
210
0.0
220
0.0
230
1.0
 70
     8
 71
     3
 72
    17
 73
    13
 74
     0
 42
0.00000001
 43
0.00000001
 40
0.0
 40
0.0
 40
0.0
 40
0.0
 40
0.0973484369957588
 40
0.2018074368669029
 40
0.3040721133897329
 40
0.4085967030930396
 40
0.5114405466488591
 40
0.6150757568660656
 40
0.7192317226040957
 40
0.8216464770106781
 40
0.9262606392180942
 40
1.0
 40
1.0
 40
1.0
 40
1.0
 10
159.8374460220723
 20
258.3849929644188
 30
0.0
 10
159.8453917410121
 20
258.3730479107525
 30
0.0
 10
159.8618635532238
 20
258.3482853081055
 30
0.0
 10
159.8884589878261
 20
258.1189086901578
 30
0.0
 10
159.912789178051
 20
257.7682238654653
 30
0.0
 10
159.9399951002175
 20
257.3238158523934
 30
0.0
 10
159.9650366464163
 20
256.8328473679256
 30
0.0
 10
159.9910390610403
 20
256.3483320008154
 30
0.0
 10
160.0177117688153
 20
255.9198418919226
 30
0.0
 10
160.042237267832
 20
255.597278878924
 30
0.0
 10
160.0670102422494
 20
255.4100121375893
 30
0.0
 10
160.0813753045285
 20
255.4062349355498
 30
0.0
 10
160.0873144667738
 20
255.4046732704968
 30
0.0
  0
LINE
  5
163
330
1F
100
AcDbEntity
  8
0
  6
Continuous
 62
     7
370
    15
100
AcDbLine
 10
149.1124005322
 20
255.6720629072
 30
0.0
 11
149.1124005322
 21
255.3900587219
 31
0.0
  0
ARC
  5
164
330
1F
100
AcDbEntity
  8
0
  6
Continuous
 62
     7
370
    15
100
AcDbCircle
 10
151.1124005322
 20
251.4572295492
 30
0.0
 40
4.0
100
AcDbArc
 50
285.713861048
 51
0.0
  0
ARC
  5
165
330
1F
100
AcDbEntity
  8
0
  6
Continuous
 62
     7
370
    15
100
AcDbCircle
 10
157.6124005322
 20
228.3541994449
 30
0.0
 40
20.00000000000001
100
AcDbArc
 50
105.713861048
 51
145.6987776953
  0
LINE
  5
166
330
1F
100
AcDbEntity
  8
0
  6
Continuous
 62
     7
370
    15
100
AcDbLine
 10
139.5906750828
 20
237.0269966768
 30
0.0
 11
139.8028528066
 21
237.20477378
 31
0.0
  0
LINE
  5
167
330
1F
100
AcDbEntity
  8
0
  6
Continuous
 62
     7
370
    15
100
AcDbLine
 10
141.0428044571
 20
239.3524330375
 30
0.0
 11
141.0906750828
 21
239.6250728881
 31
0.0
  0
ARC
  5
168
330
1F
100
AcDbEntity
  8
0
  6
Continuous
 62
     7
370
    15
100
AcDbCircle
 10
157.6124005322
 20
228.3541994449
 30
0.0
 40
20.00000000000002
100
AcDbArc
 50
154.3012223047
 51
205.6987776953
  0
LINE
  5
169
330
1F
100
AcDbEntity
  8
0
  6
Continuous
 62
     7
370
    15
100
AcDbLine
 10
141.0906750828
 20
217.0833260016
 30
0.0
 11
141.0428044571
 21
217.3559658522
 31
0.0
  0
LINE
  5
16A
330
1F
100
AcDbEntity
  8
0
  6
Continuous
 62
     7
370
    15
100
AcDbLine
 10
139.8028528066
 20
219.5036251097
 30
0.0
 11
139.5906750828
 21
219.6814022129
 31
0.0
  0
ARC
  5
16B
330
1F
100
AcDbEntity
  8
0
  6
Continuous
 62
     7
370
    15
100
AcDbCircle
 10
157.6124005322
 20
228.3541994449
 30
0.0
 40
20.0
100
AcDbArc
 50
214.3012223047
 51
265.6987776953
  0
LINE
  5
16C
330
1F
100
AcDbEntity
  8
0
  6
Continuous
 62
     7
370
    15
100
AcDbLine
 10
159.1124005322
 20
208.4105287697
 30
0.0
 11
158.8523521827
 21
208.5053915171
 31
0.0
  0
LINE
  5
16D
330
1F
100
AcDbEntity
  8
0
  6
Continuous
 62
     7
370
    15
100
AcDbLine
 10
156.3724488817
 20
208.5053915171
 30
0.0
 11
156.1124005322
 21
208.4105287697
 31
0.0
  0
ARC
  5
16E
330
1F
100
AcDbEntity
  8
0
  6
Continuous
 62
     7
370
    15
100
AcDbCircle
 10
157.6124005322
 20
228.3541994449
 30
0.0
 40
19.99999999999999
100
AcDbArc
 50
274.3012223047
 51
325.6987776953
  0
LINE
  5
16F
330
1F
100
AcDbEntity
  8
0
  6
Continuous
 62
     7
370
    15
100
AcDbLine
 10
175.6341259816
 20
219.6814022129
 30
0.0
 11
175.4219482577
 21
219.5036251097
 31
0.0
  0
LINE
  5
170
330
1F
100
AcDbEntity
  8
0
  6
Continuous
 62
     7
370
    15
100
AcDbLine
 10
174.1819966072
 20
217.3559658522
 30
0.0
 11
174.1341259816
 21
217.0833260016
 31
0.0
  0
ARC
  5
171
330
1F
100
AcDbEntity
  8
0
  6
Continuous
 62
     7
370
    15
100
AcDbCircle
 10
157.6124005322
 20
228.3541994449
 30
0.0
 40
20.0
100
AcDbArc
 50
334.3012223047
 51
25.6987776953
  0
LINE
  5
172
330
1F
100
AcDbEntity
  8
0
  6
Continuous
 62
     7
370
    15
100
AcDbLine
 10
174.1341259816
 20
239.6250728881
 30
0.0
 11
174.1819966072
 21
239.3524330375
 31
0.0
  0
LINE
  5
173
330
1F
100
AcDbEntity
  8
0
  6
Continuous
 62
     7
370
    15
100
AcDbLine
 10
175.4219482577
 20
237.20477378
 30
0.0
 11
175.6341259816
 21
237.0269966768
 31
0.0
  0
ARC
  5
174
330
1F
100
AcDbEntity
  8
0
  6
Continuous
 62
     7
370
    15
100
AcDbCircle
 10
157.6124005322
 20
228.3541994449
 30
0.0
 40
20.0
100
AcDbArc
 50
34.3012223047
 51
74.286138952
  0
ARC
  5
175
330
1F
100
AcDbEntity
  8
0
  6
Continuous
 62
     7
370
    15
100
AcDbCircle
 10
164.1124005322
 20
251.4572295492
 30
0.0
 40
4.00000000000004
100
AcDbArc
 50
180.0
 51
254.286138952
  0
LINE
  5
176
330
1F
100
AcDbEntity
  8
0
  6
Continuous
 62
     7
370
    15
100
AcDbLine
 10
160.1124005322
 20
254.1390549122
 30
0.0
 11
160.1124005322
 21
251.4572295492
 31
0.0
  0
LINE
  5
177
330
1F
100
AcDbEntity
  8
0
  6
Continuous
 62
     7
370
    15
100
AcDbLine
 10
160.1124005322
 20
259.6390549122
 30
0.0
 11
160.1124005322
 21
254.1390549122
 31
0.0
  0
LINE
  5
178
330
1F
100
AcDbEntity
  8
0
  6
Continuous
 62
     7
370
    15
100
AcDbLine
 10
160.3624005322
 20
262.3890549122
 30
0.0
 11
160.1124005322
 21
262.3890549122
 31
0.0
  0
ARC
  5
179
330
1F
100
AcDbEntity
  8
0
  6
Continuous
 62
     7
370
    15
100
AcDbCircle
 10
160.3624005322
 20
261.1390549122
 30
0.0
 40
1.25
100
AcDbArc
 50
0.0
 51
90.0
  0
LINE
  5
17A
330
1F
100
AcDbEntity
  8
0
  6
Continuous
 62
     7
370
    15
100
AcDbLine
 10
161.6124005322
 20
251.5920995221
 30
0.0
 11
161.6124005322
 21
261.1390549122
 31
0.0
  0
ARC
  5
17B
330
1F
100
AcDbEntity
  8
0
  6
Continuous
 62
     7
370
    15
100
AcDbCircle
 10
163.6124005322
 20
251.5920995221
 30
0.0
 40
2.000000000000036
100
AcDbArc
 50
180.0
 51
255.5224878141
  0
ARC
  5
17C
330
1F
100
AcDbEntity
  8
0
  6
Continuous
 62
     7
370
    15
100
AcDbCircle
 10
157.6124005322
 20
228.3541994449
 30
0.0
 40
22.0
100
AcDbArc
 50
104.4775121859
 51
75.5224878141
  0
ARC
  5
17D
330
1F
100
AcDbEntity
  8
0
  6
Continuous
 62
     7
370
    15
100
AcDbCircle
 10
151.6124005322
 20
251.5920995221
 30
0.0
 40
2.000000000000008
100
AcDbArc
 50
284.4775121859
 51
0.0
  0
LINE
  5
17E
330
1F
100
AcDbEntity
  8
0
  6
Continuous
 62
     7
370
    15
100
AcDbLine
 10
153.6124005322
 20
261.1390549122
 30
0.0
 11
153.6124005322
 21
251.5920995221
 31
0.0
  0
ARC
  5
17F
330
1F
100
AcDbEntity
  8
0
  6
Continuous
 62
     7
370
    15
100
AcDbCircle
 10
154.8624005322
 20
261.1390549122
 30
0.0
 40
1.25
100
AcDbArc
 50
90.0
 51
180.0
  0
LINE
  5
180
330
1F
100
AcDbEntity
  8
0
  6
Continuous
 62
     7
370
    15
100
AcDbLine
 10
155.1124005322
 20
259.6390549122
 30
0.0
 11
155.1124005322
 21
262.3890549122
 31
0.0
  0
LINE
  5
181
330
1F
100
AcDbEntity
  8
0
  6
Continuous
 62
     7
370
    15
100
AcDbLine
 10
155.1124005322
 20
254.1390549122
 30
0.0
 11
155.1124005322
 21
259.6390549122
 31
0.0
  0
LINE
  5
182
330
1F
100
AcDbEntity
  8
0
  6
Continuous
 62
     7
370
    15
100
AcDbLine
 10
155.1124005322
 20
251.4572295492
 30
0.0
 11
155.1124005322
 21
254.1390549122
 31
0.0
  0
LINE
  5
183
330
1F
100
AcDbEntity
  8
0
  6
Continuous
 62
     7
370
    15
100
AcDbLine
 10
155.1124005322
 20
262.3890549122
 30
0.0
 11
154.8624005322
 21
262.3890549122
 31
0.0
  0
LINE
  5
184
330
1F
100
AcDbEntity
  8
0
  6
Continuous
 62
     7
370
    15
100
AcDbLine
 10
160.1124005322
 20
262.3890549122
 30
0.0
 11
160.1124005322
 21
259.6390549122
 31
0.0
  0
LINE
  5
185
330
1F
100
AcDbEntity
  8
0
  6
Continuous
 62
     7
370
    15
100
AcDbLine
 10
160.1124005322
 20
258.8890549122
 30
0.0
 11
159.1213989967
 21
258.8890549122
 31
0.0
  0
LINE
  5
186
330
1F
100
AcDbEntity
  8
0
  6
Continuous
 62
     7
370
    15
100
AcDbLine
 10
155.1124005322
 20
260.3890549122
 30
0.0
 11
156.1124005322
 21
260.3890549122
 31
0.0
  0
LINE
  5
187
330
1F
100
AcDbEntity
  8
0
  6
Continuous
 62
     7
370
    15
100
AcDbLine
 10
156.1124005322
 20
260.3890549122
 30
0.0
 11
156.1124005322
 21
259.6390549122
 31
0.0
  0
LINE
  5
188
330
1F
100
AcDbEntity
  8
0
  6
Continuous
 62
     7
370
    15
100
AcDbLine
 10
156.1124005322
 20
258.8890549122
 30
0.0
 11
155.1124005322
 21
258.8890549122
 31
0.0
  0
LINE
  5
189
330
1F
100
AcDbEntity
  8
0
  6
Continuous
 62
     7
370
    15
100
AcDbLine
 10
156.1124005322
 20
259.6390549122
 30
0.0
 11
156.1124005322
 21
258.8890549122
 31
0.0
  0
LINE
  5
18A
330
1F
100
AcDbEntity
  8
0
  6
Continuous
 62
     7
370
    15
100
AcDbLine
 10
159.1213989967
 20
260.3890549122
 30
0.0
 11
160.1124005322
 21
260.3890549122
 31
0.0
  0
LINE
  5
18B
330
1F
100
AcDbEntity
  8
0
  6
Continuous
 62
     7
370
    15
100
AcDbLine
 10
159.1213989967
 20
254.8890549122
 30
0.0
 11
160.1124005322
 21
254.8890549122
 31
0.0
  0
LINE
  5
18C
330
1F
100
AcDbEntity
  8
0
  6
Continuous
 62
     7
370
    15
100
AcDbLine
 10
155.1124005322
 20
254.8890549122
 30
0.0
 11
156.1124005322
 21
254.8890549122
 31
0.0
  0
LINE
  5
18D
330
1F
100
AcDbEntity
  8
0
  6
Continuous
 62
     7
370
    15
100
AcDbLine
 10
156.1124005322
 20
254.8890549122
 30
0.0
 11
156.1124005322
 21
254.1390549122
 31
0.0
  0
LINE
  5
18E
330
1F
100
AcDbEntity
  8
0
  6
Continuous
 62
     7
370
    15
100
AcDbLine
 10
156.1124005322
 20
253.3890549122
 30
0.0
 11
155.1124005322
 21
253.3890549122
 31
0.0
  0
LINE
  5
18F
330
1F
100
AcDbEntity
  8
0
  6
Continuous
 62
     7
370
    15
100
AcDbLine
 10
156.1124005322
 20
254.1390549122
 30
0.0
 11
156.1124005322
 21
253.3890549122
 31
0.0
  0
LINE
  5
190
330
1F
100
AcDbEntity
  8
0
  6
Continuous
 62
     7
370
    15
100
AcDbLine
 10
160.1124005322
 20
253.3890549122
 30
0.0
 11
159.1213989967
 21
253.3890549122
 31
0.0
  0
LINE
  5
191
330
1F
100
AcDbEntity
  8
0
  6
Continuous
 62
     7
370
    15
100
AcDbLine
 10
166.8713989967
 20
267.8561098335
 30
0.0
 11
164.6138004942
 21
267.8561098335
 31
0.0
  0
ARC
  5
192
330
1F
100
AcDbEntity
  8
0
  6
Continuous
 62
     7
370
    15
100
AcDbCircle
 10
164.6138004942
 20
266.8561098335
 30
0.0
 40
1.000000000000037
100
AcDbArc
 50
90.0
 51
142.4314079712
  0
LINE
  5
193
330
1F
100
AcDbEntity
  8
0
  6
Continuous
 62
     7
370
    15
100
AcDbLine
 10
159.3287750076
 20
261.6256986477
 30
0.0
 11
163.8211765051
 21
267.4658205943
 31
0.0
  0
ARC
  5
194
330
1F
100
AcDbEntity
  8
0
  6
Continuous
 62
     7
370
    15
100
AcDbCircle
 10
160.1213989967
 20
261.0159878868
 30
0.0
 40
1.0
100
AcDbArc
 50
142.4314079712
 51
180.0
  0
LINE
  5
195
330
1F
100
AcDbEntity
  8
0
  6
Continuous
 62
     7
370
    15
100
AcDbLine
 10
159.1213989967
 20
252.8561098335
 30
0.0
 11
159.1213989967
 21
261.0159878868
 31
0.0
  0
LINE
  5
196
330
1F
100
AcDbEntity
  8
0
  6
Continuous
 62
     7
370
    15
100
AcDbLine
 10
156.1213989967
 20
252.8561098335
 30
0.0
 11
159.1213989967
 21
252.8561098335
 31
0.0
  0
LINE
  5
197
330
1F
100
AcDbEntity
  8
0
  6
Continuous
 62
     7
370
    15
100
AcDbLine
 10
156.1213989967
 20
261.0159878868
 30
0.0
 11
156.1213989967
 21
252.8561098335
 31
0.0
  0
ARC
  5
198
330
1F
100
AcDbEntity
  8
0
  6
Continuous
 62
     7
370
    15
100
AcDbCircle
 10
155.1213989967
 20
261.0159878868
 30
0.0
 40
1.000000000000002
100
AcDbArc
 50
0.0
 51
37.5685920288
  0
LINE
  5
199
330
1F
100
AcDbEntity
  8
0
  6
Continuous
 62
     7
370
    15
100
AcDbLine
 10
151.4216214884
 20
267.4658205943
 30
0.0
 11
155.9140229859
 21
261.6256986477
 31
0.0
  0
ARC
  5
19A
330
1F
100
AcDbEntity
  8
0
  6
Continuous
 62
     7
370
    15
100
AcDbCircle
 10
150.6289974993
 20
266.8561098335
 30
0.0
 40
1.000000000000037
100
AcDbArc
 50
37.5685920288
 51
90.0
  0
LINE
  5
19B
330
1F
100
AcDbEntity
  8
0
  6
Continuous
 62
     7
370
    15
100
AcDbLine
 10
150.6289974993
 20
267.8561098335
 30
0.0
 11
148.3713989967
 21
267.8561098335
 31
0.0
  0
LINE
  5
19C
330
1F
100
AcDbEntity
  8
0
  6
Continuous
 62
     7
370
    15
100
AcDbLine
 10
166.8713989967
 20
269.3561098335
 30
0.0
 11
148.3713989967
 21
269.3561098335
 31
0.0
  0
LINE
  5
19D
330
1F
100
AcDbEntity
  8
0
  6
Continuous
 62
     7
370
    15
100
AcDbLine
 10
148.3713989967
 20
269.3561098335
 30
0.0
 11
141.8713989967
 21
269.3561098335
 31
0.0
  0
LINE
  5
19E
330
1F
100
AcDbEntity
  8
0
  6
Continuous
 62
     7
370
    15
100
AcDbLine
 10
148.3713989967
 20
267.8561098335
 30
0.0
 11
141.8713989967
 21
267.8561098335
 31
0.0
  0
LINE
  5
19F
330
1F
100
AcDbEntity
  8
0
  6
Continuous
 62
     7
370
    15
100
AcDbLine
 10
173.3713989967
 20
269.3561098335
 30
0.0
 11
166.8713989967
 21
269.3561098335
 31
0.0
  0
LINE
  5
1A0
330
1F
100
AcDbEntity
  8
0
  6
Continuous
 62
     7
370
    15
100
AcDbLine
 10
173.3713989967
 20
267.8561098335
 30
0.0
 11
166.8713989967
 21
267.8561098335
 31
0.0
  0
LINE
  5
1A1
330
1F
100
AcDbEntity
  8
0
  6
Continuous
 62
     7
370
    15
100
AcDbLine
 10
150.7463989967
 20
267.4811098335
 30
0.0
 11
145.9963989967
 21
267.4811098335
 31
0.0
  0
LINE
  5
1A2
330
1F
100
AcDbEntity
  8
0
  6
Continuous
 62
     7
370
    15
100
AcDbLine
 10
169.2463987107
 20
267.4811098335
 30
0.0
 11
164.4963989967
 21
267.4811098335
 31
0.0
  0
CIRCLE
  5
1A3
330
1F
100
AcDbEntity
  8
0
  6
Continuous
 62
     7
370
    15
100
AcDbCircle
 10
157.6124005322
 20
228.3541994449
 30
0.0
 40
19.03749999999999
  0
CIRCLE
  5
1A4
330
1F
100
AcDbEntity
  8
0
  6
Continuous
 62
     7
370
    15
100
AcDbCircle
 10
157.6124005322
 20
228.3541994449
 30
0.0
 40
19.88749999999996
  0
LINE
  5
1A5
330
1F
100
AcDbEntity
  8
0
  6
CENTERX2
 62
     7
370
     0
100
AcDbLine
 10
148.3713989967
 20
267.4811098335
 30
0.0
 11
148.3713989967
 21
269.6827865528
 31
0.0
  0
LINE
  5
1A6
330
1F
100
AcDbEntity
  8
0
  6
CENTERX2
 62
     7
370
     0
100
AcDbLine
 10
166.8713989967
 20
267.4811098335
 30
0.0
 11
166.8713989967
 21
269.6827865528
 31
0.0
  0
LINE
  5
1A7
330
1F
100
AcDbEntity
  8
0
  6
CENTERX2
 62
     7
370
     0
100
AcDbLine
 10
157.6213989967
 20
271.9912114334
 30
0.0
 11
157.6213989967
 21
204.4784608458
 31
0.0
  0
LINE
  5
1A8
330
1F
100
AcDbEntity
  8
0
  6
CENTERX2
 62
     7
370
     0
100
AcDbLine
 10
157.6124005322
 20
228.3541994449
 30
0.0
 11
181.4688427446
 21
228.3541994449
 31
0.0
  0
LINE
  5
1A9
330
1F
100
AcDbEntity
  8
0
  6
CENTERX2
 62
     7
370
     0
100
AcDbLine
 10
132.8285325229
 20
228.3541994449
 30
0.0
 11
157.6124005322
 21
228.3541994449
 31
0.0
  0
LINE
  5
1AA
330
1F
100
AcDbEntity
  8
0
  6
Continuous
 62
     7
370
    15
100
AcDbLine
 10
41.3528460666
 20
251.6987157433
 30
0.0
 11
41.1300091292
 21
251.9540743172
 31
0.0
  0
LINE
  5
1AB
330
1F
100
AcDbEntity
  8
0
  6
Continuous
 62
     7
370
    15
100
AcDbLine
 10
41.844772278
 20
251.0649152266
 30
0.0
 11
41.6522995039
 21
251.323354147
 31
0.0
  0
LINE
  5
1AC
330
1F
100
AcDbEntity
  8
0
  6
Continuous
 62
     7
370
    15
100
AcDbLine
 10
41.8575870438
 20
250.7862570776
 30
0.0
 11
41.8461961083
 21
251.0645245582
 31
0.0
  0
LINE
  5
1AD
330
1F
100
AcDbEntity
  8
0
  6
Continuous
 62
     7
370
    15
100
AcDbLine
 10
41.84618971
 20
250.1081592632
 30
0.0
 11
41.8626203382
 21
250.4269643286
 31
0.0
  0
LINE
  5
1AE
330
1F
100
AcDbEntity
  8
0
  6
Continuous
 62
     7
370
    15
100
AcDbLine
 10
41.0032059298
 20
249.7441486957
 30
0.0
 11
41.3141850238
 21
249.7913563226
 31
0.0
  0
LINE
  5
1AF
330
1F
100
AcDbEntity
  8
0
  6
Continuous
 62
     7
370
    15
100
AcDbLine
 10
40.5916479502
 20
249.7267232168
 30
0.0
 11
40.8302351487
 21
249.7382838471
 31
0.0
  0
LINE
  5
1B0
330
1F
100
AcDbEntity
  8
0
  6
Continuous
 62
     7
370
    15
100
AcDbLine
 10
41.3421117269
 20
249.7877513741
 30
0.0
 11
41.8372661417
 21
250.0735979334
 31
0.0
  0
SPLINE
  5
1B1
330
1F
100
AcDbEntity
  8
0
  6
Continuous
 62
     7
370
    15
100
AcDbSpline
210
0.0
220
0.0
230
1.0
 70
     8
 71
     3
 72
    11
 73
     7
 74
     0
 42
0.00000001
 43
0.00000001
 40
0.0
 40
0.0
 40
0.0
 40
0.0
 40
0.1606074039400769
 40
0.494320145291163
 40
0.8209774939793983
 40
0.9999999999999999
 40
0.9999999999999999
 40
0.9999999999999999
 40
0.9999999999999999
 10
41.83809747524994
 20
250.0743045207944
 30
0.0
 10
41.83925047850975
 20
250.075029867615
 30
0.0
 10
41.84279921116426
 20
250.0772623521515
 30
0.0
 10
41.84745115854223
 20
250.0833851969205
 30
0.0
 10
41.8499048857124
 20
250.0906298960332
 30
0.0
 10
41.84995739405558
 20
250.0950721860087
 30
0.0
 10
41.84997598323824
 20
250.0966448606495
 30
0.0
  0
SPLINE
  5
1B2
330
1F
100
AcDbEntity
  8
0
  6
Continuous
 62
     7
370
    15
100
AcDbSpline
210
0.0
220
0.0
230
1.0
 70
     8
 71
     3
 72
    11
 73
     7
 74
     0
 42
0.00000001
 43
0.00000001
 40
0.0
 40
0.0
 40
0.0
 40
0.0
 40
0.1860166215158203
 40
0.5096275586646242
 40
0.8263966766690864
 40
1.0
 40
1.0
 40
1.0
 40
1.0
 10
39.88034973281578
 20
251.6151356024685
 30
0.0
 10
39.87896896460862
 20
251.614276404623
 30
0.0
 10
39.87518609012803
 20
251.6119224703517
 30
0.0
 10
39.87033320270194
 20
251.6056136074435
 30
0.0
 10
39.86788608750869
 20
251.5983560498387
 30
0.0
 10
39.86783304621382
 20
251.5939147963088
 30
0.0
 10
39.8678142683538
 20
251.5923424885943
 30
0.0
  0
LINE
  5
1B3
330
1F
100
AcDbEntity
  8
0
  6
Continuous
 62
     7
370
    15
100
AcDbLine
 10
39.8716005416
 20
251.580828086
 30
0.0
 11
39.8551699134
 21
251.2620230206
 31
0.0
  0
LINE
  5
1B4
330
1F
100
AcDbEntity
  8
0
  6
Continuous
 62
     7
370
    15
100
AcDbLine
 10
40.3560335532
 20
251.8898951745
 30
0.0
 11
39.8807037778
 21
251.615493136
 31
0.0
  0
LINE
  5
1B5
330
1F
100
AcDbEntity
  8
0
  6
Continuous
 62
     7
370
    15
100
AcDbLine
 10
40.3758581926
 20
251.9013396952
 30
0.0
 11
40.3560335532
 21
251.8898951745
 31
0.0
  0
LINE
  5
1B6
330
1F
100
AcDbEntity
  8
0
  6
Continuous
 62
     7
370
    15
100
AcDbLine
 10
40.4347169205
 20
249.9103159826
 30
0.0
 11
40.5877811224
 21
249.7349130321
 31
0.0
  0
SPLINE
  5
1B7
330
1F
100
AcDbEntity
  8
0
  6
Continuous
 62
     7
370
    15
100
AcDbSpline
210
0.0
220
0.0
230
1.0
 70
     8
 71
     3
 72
    13
 73
     9
 74
     0
 42
0.00000001
 43
0.00000001
 40
0.0
 40
0.0
 40
0.0
 40
0.0
 40
0.0217059248227439
 40
0.2401608725190061
 40
0.4688935623114787
 40
0.7260893694279018
 40
0.9348417286865233
 40
1.0
 40
1.0
 40
1.0
 40
1.0
 10
40.58914359641305
 20
249.7296889154835
 30
0.0
 10
40.58924577181266
 20
249.7295031518218
 30
0.0
 10
40.59037627112654
 20
249.7274478068676
 30
0.0
 10
40.59468677234914
 20
249.7239215096518
 30
0.0
 10
40.60175023280346
 20
249.720132747391
 30
0.0
 10
40.60998261355937
 20
249.7192623311171
 30
0.0
 10
40.61617281849298
 20
249.7207121711507
 30
0.0
 10
40.61885096845266
 20
249.7220276835113
 30
0.0
 10
40.61948805077885
 20
249.7223406195633
 30
0.0
  0
SPLINE
  5
1B8
330
1F
100
AcDbEntity
  8
0
  6
Continuous
 62
     7
370
    15
100
AcDbSpline
210
0.0
220
0.0
230
1.0
 70
     8
 71
     3
 72
     9
 73
     5
 74
     0
 42
0.00000001
 43
0.00000001
 40
0.0
 40
0.0
 40
0.0
 40
0.0
 40
0.5000476193723837
 40
1.0
 40
1.0
 40
1.0
 40
1.0
 10
39.55183003200315
 20
250.2744593424314
 30
0.0
 10
39.55386312122133
 20
250.2682702901107
 30
0.0
 10
39.55792891243686
 20
250.2558933642322
 30
0.0
 10
39.56176426670623
 20
250.2441416464022
 30
0.0
 10
39.56368176120376
 20
250.2382663470966
 30
0.0
  0
SPLINE
  5
1B9
330
1F
100
AcDbEntity
  8
0
  6
Continuous
 62
     7
370
    15
100
AcDbSpline
210
0.0
220
0.0
230
1.0
 70
     8
 71
     3
 72
     9
 73
     5
 74
     0
 42
0.00000001
 43
0.00000001
 40
0.0
 40
0.0
 40
0.0
 40
0.0
 40
0.1691392587687955
 40
1.0
 40
1.0
 40
1.0
 40
1.0
 10
39.73684530730487
 20
249.9429976414703
 30
0.0
 10
39.73774340339853
 20
249.9419966387768
 30
0.0
 10
39.74305320610313
 20
249.9360784226231
 30
0.0
 10
39.74775328146237
 20
249.9308237779065
 30
0.0
 10
39.75165838955918
 20
249.9264578999024
 30
0.0
  0
LINE
  5
1BA
330
1F
100
AcDbEntity
  8
0
  6
Continuous
 62
     7
370
    15
100
AcDbLine
 10
39.6715151632
 20
250.8518353693
 30
0.0
 11
39.6502637662
 21
250.839567199
 31
0.0
  0
LINE
  5
1BB
330
1F
100
AcDbEntity
  8
0
  6
Continuous
 62
     7
370
    15
100
AcDbLine
 10
39.8129396354
 20
250.9334779793
 30
0.0
 11
39.791723316
 21
250.9212300588
 31
0.0
  0
LINE
  5
1BC
330
1F
100
AcDbEntity
  8
0
  6
Continuous
 62
     7
370
    15
100
AcDbLine
 10
39.9543218969
 20
251.0150962216
 30
0.0
 11
39.9331477882
 21
251.0028726688
 31
0.0
  0
LINE
  5
1BD
330
1F
100
AcDbEntity
  8
0
  6
Continuous
 62
     7
370
    15
100
AcDbLine
 10
40.0957711875
 20
251.0967531589
 30
0.0
 11
40.0745300497
 21
251.0844909111
 31
0.0
  0
LINE
  5
1BE
330
1F
100
AcDbEntity
  8
0
  6
Continuous
 62
     7
370
    15
100
AcDbLine
 10
40.2372076497
 20
251.1784026905
 30
0.0
 11
40.2159793403
 21
251.1661478484
 31
0.0
  0
LINE
  5
1BF
330
1F
100
AcDbEntity
  8
0
  6
Continuous
 62
     7
370
    15
100
AcDbLine
 10
40.8866147997
 20
250.1676943451
 30
0.0
 11
40.9043123044
 21
250.1779108971
 31
0.0
  0
LINE
  5
1C0
330
1F
100
AcDbEntity
  8
0
  6
Continuous
 62
     7
370
    15
100
AcDbLine
 10
40.7452331207
 20
250.0860764391
 30
0.0
 11
40.7664066469
 21
250.0982996556
 31
0.0
  0
LINE
  5
1C1
330
1F
100
AcDbEntity
  8
0
  6
Continuous
 62
     7
370
    15
100
AcDbLine
 10
40.6038028278
 20
250.0044304689
 30
0.0
 11
40.6250249679
 21
250.0166817496
 31
0.0
  0
LINE
  5
1C2
330
1F
100
AcDbEntity
  8
0
  6
Continuous
 62
     7
370
    15
100
AcDbLine
 10
40.4623480174
 20
249.922770345
 30
0.0
 11
40.483594675
 21
249.9350357794
 31
0.0
  0
LINE
  5
1C3
330
1F
100
AcDbEntity
  8
0
  6
Continuous
 62
     7
370
    15
100
AcDbLine
 10
40.3209647859
 20
249.8411515428
 30
0.0
 11
40.3421398646
 21
249.8533756555
 31
0.0
  0
LINE
  5
1C4
330
1F
100
AcDbEntity
  8
0
  6
Continuous
 62
     7
370
    15
100
AcDbLine
 10
40.1689212519
 20
249.7533786789
 30
0.0
 11
40.2007566331
 21
249.7717568533
 31
0.0
  0
LINE
  5
1C5
330
1F
100
AcDbEntity
  8
0
  6
Continuous
 62
     7
370
    15
100
AcDbLine
 10
59.1439846086
 20
245.6952189928
 30
0.0
 11
59.1439846086
 21
248.3081495908
 31
0.0
  0
LINE
  5
1C6
330
1F
100
AcDbEntity
  8
0
  6
Continuous
 62
     7
370
    15
100
AcDbLine
 10
41.5439846086
 20
248.3081495908
 30
0.0
 11
41.5439846086
 21
245.6952189928
 31
0.0
  0
LINE
  5
1C7
330
1F
100
AcDbEntity
  8
0
  6
Continuous
 62
     7
370
    15
100
AcDbLine
 10
42.3889846086
 20
252.2376504422
 30
0.0
 11
42.2559614987
 21
252.1608578354
 31
0.0
  0
LINE
  5
1C8
330
1F
100
AcDbEntity
  8
0
  6
Continuous
 62
     7
370
    15
100
AcDbLine
 10
39.7932097008
 20
253.212289519
 30
0.0
 11
39.7932097008
 21
250.9220881305
 31
0.0
  0
LINE
  5
1C9
330
1F
100
AcDbEntity
  8
0
  6
Continuous
 62
     7
370
    15
100
AcDbLine
 10
40.9210393503
 20
253.1863215286
 30
0.0
 11
40.7003265801
 21
253.0589067584
 31
0.0
  0
LINE
  5
1CA
330
1F
100
AcDbEntity
  8
0
  6
Continuous
 62
     7
370
    15
100
AcDbLine
 10
34.833248765
 20
250.0069105793
 30
0.0
 11
35.2575128337
 21
249.7619881457
 31
0.0
  0
SPLINE
  5
1CB
330
1F
100
AcDbEntity
  8
0
  6
Continuous
 62
     7
370
    15
100
AcDbSpline
210
0.0
220
0.0
230
1.0
 70
     8
 71
     3
 72
    19
 73
    15
 74
     0
 42
0.00000001
 43
0.00000001
 40
0.0
 40
0.0
 40
0.0
 40
0.0
 40
0.0013137457794118
 40
0.0867699905613952
 40
0.1711210865557787
 40
0.2580644831245688
 40
0.3492957220869327
 40
0.4433089628240472
 40
0.5377960025948754
 40
0.6319883659463995
 40
0.7260318975220822
 40
0.8202644112851123
 40
0.9149772407295585
 40
1.0
 40
1.0
 40
1.0
 40
1.0
 10
36.00687049651373
 20
251.0618584732007
 30
0.0
 10
36.00747671158744
 20
251.0613534255253
 30
0.0
 10
36.04751587064598
 20
251.0279961484077
 30
0.0
 10
36.15251912953172
 20
251.002131175234
 30
0.0
 10
36.3084832765194
 20
250.9907850769961
 30
0.0
 10
36.47503401255928
 20
251.0285882208748
 30
0.0
 10
36.64524301339117
 20
251.1083857022546
 30
0.0
 10
36.81441338588348
 20
251.2307121338845
 30
0.0
 10
36.97340304886444
 20
251.3894487633971
 30
0.0
 10
37.1141129296138
 20
251.5762555973322
 30
0.0
 10
37.23050999079058
 20
251.7823529262543
 30
0.0
 10
37.31663932962707
 20
251.9985159373838
 30
0.0
 10
37.36963956423341
 20
252.2092045355732
 30
0.0
 10
37.37610173846274
 20
252.339753633516
 30
0.0
 10
37.37915862824063
 20
252.4015090410384
 30
0.0
  0
SPLINE
  5
1CC
330
1F
100
AcDbEntity
  8
0
  6
Continuous
 62
     7
370
    15
100
AcDbSpline
210
0.0
220
0.0
230
1.0
 70
     8
 71
     3
 72
    12
 73
     8
 74
     0
 42
0.00000001
 43
0.00000001
 40
0.0
 40
0.0
 40
0.0
 40
0.0
 40
0.149964741573633
 40
0.4332943964832107
 40
0.6815189068982871
 40
0.9201802764635186
 40
1.0
 40
1.0
 40
1.0
 40
1.0
 10
37.37915862824063
 20
252.4015090410384
 30
0.0
 10
37.37800522057918
 20
252.4373959258762
 30
0.0
 10
37.37467267006547
 20
252.5410842058296
 30
0.0
 10
37.3393476361971
 20
252.6911127933004
 30
0.0
 10
37.26138133937085
 20
252.8337293929672
 30
0.0
 10
37.18249136352643
 20
252.924793767663
 30
0.0
 10
37.12329049844428
 20
252.9523544675174
 30
0.0
 10
37.10845320735753
 20
252.9592619024971
 30
0.0
  0
LINE
  5
1CD
330
1F
100
AcDbEntity
  8
0
  6
Continuous
 62
     7
370
    15
100
AcDbLine
 10
39.256544989
 20
253.6396338973
 30
0.0
 11
39.256544989
 21
253.312850559
 31
0.0
  0
LINE
  5
1CE
330
1F
100
AcDbEntity
  8
0
  6
Continuous
 62
     7
370
    15
100
AcDbLine
 10
39.2565449896
 20
253.3128505602
 30
0.0
 11
38.890859564
 21
253.1017448575
 31
0.0
  0
SPLINE
  5
1CF
330
1F
100
AcDbEntity
  8
0
  6
Continuous
 62
     7
370
    15
100
AcDbSpline
210
0.0
220
0.0
230
1.0
 70
     8
 71
     3
 72
     9
 73
     5
 74
     0
 42
0.00000001
 43
0.00000001
 40
0.0
 40
0.0
 40
0.0
 40
0.0
 40
0.5076427128955909
 40
0.9999999999999999
 40
0.9999999999999999
 40
0.9999999999999999
 40
0.9999999999999999
 10
42.18480582552387
 20
254.3986480941247
 30
0.0
 10
42.22357519906171
 20
254.4421476475439
 30
0.0
 10
42.29994657710574
 20
254.5278369568047
 30
0.0
 10
42.35960925459698
 20
254.6303260521235
 30
0.0
 10
42.38898460862794
 20
254.6807873050524
 30
0.0
  0
LINE
  5
1D0
330
1F
100
AcDbEntity
  8
0
  6
Continuous
 62
     7
370
    15
100
AcDbLine
 10
42.3889846086
 20
255.9461074569
 30
0.0
 11
42.3405340565
 21
255.9862819164
 31
0.0
  0
LINE
  5
1D1
330
1F
100
AcDbEntity
  8
0
  6
Continuous
 62
     7
370
    15
100
AcDbLine
 10
58.2989846086
 20
225.6068296323
 30
0.0
 11
58.2989846086
 21
243.5230536312
 31
0.0
  0
LINE
  5
1D2
330
1F
100
AcDbEntity
  8
0
  6
Continuous
 62
     7
370
    15
100
AcDbLine
 10
58.2989846086
 20
247.8189940531
 30
0.0
 11
58.2989846086
 21
266.4338702266
 31
0.0
  0
LINE
  5
1D3
330
1F
100
AcDbEntity
  8
0
  6
Continuous
 62
     7
370
    15
100
AcDbLine
 10
42.3889846086
 20
266.4338702266
 30
0.0
 11
42.3889846086
 21
247.8189940531
 31
0.0
  0
LINE
  5
1D4
330
1F
100
AcDbEntity
  8
0
  6
Continuous
 62
     7
370
    15
100
AcDbLine
 10
42.3889846086
 20
243.5230536312
 30
0.0
 11
42.3889846086
 21
225.6068296323
 31
0.0
  0
SPLINE
  5
1D5
330
1F
100
AcDbEntity
  8
0
  6
Continuous
 62
     7
370
    15
100
AcDbSpline
210
0.0
220
0.0
230
1.0
 70
     8
 71
     3
 72
    11
 73
     7
 74
     0
 42
0.00000001
 43
0.00000001
 40
0.0
 40
0.0
 40
0.0
 40
0.0
 40
0.1478904601816681
 40
0.652148952234714
 40
0.6665088222897076
 40
0.9999999999999999
 40
0.9999999999999999
 40
0.9999999999999999
 40
0.9999999999999999
 10
40.44989625099046
 20
249.9210531399339
 30
0.0
 10
40.4560052586351
 20
249.915921981531
 30
0.0
 10
40.48294400052387
 20
249.8932952375739
 30
0.0
 10
40.51119262558527
 20
249.8741116971081
 30
0.0
 10
40.54719370492603
 20
249.8504875270496
 30
0.0
 10
40.56192717010288
 20
249.8416249190868
 30
0.0
 10
40.57605241332163
 20
249.8331281743276
 30
0.0
  0
SPLINE
  5
1D6
330
1F
100
AcDbEntity
  8
0
  6
Continuous
 62
     7
370
    15
100
AcDbSpline
210
0.0
220
0.0
230
1.0
 70
     8
 71
     3
 72
    18
 73
    14
 74
     0
 42
0.00000001
 43
0.00000001
 40
0.0
 40
0.0
 40
0.0
 40
0.0
 40
0.085596740555254
 40
0.2118375435594874
 40
0.3295894533114103
 40
0.4652255677569175
 40
0.6088455325185302
 40
0.6806115446223061
 40
0.7164928433120659
 40
0.7523741177665263
 40
0.8228117297295335
 40
0.8932183292892638
 40
1.0
 40
1.0
 40
1.0
 40
1.0
 10
39.94002395957801
 20
251.4724254021048
 30
0.0
 10
39.93308396327335
 20
251.4617443596848
 30
0.0
 10
39.91590863907345
 20
251.4353105752412
 30
0.0
 10
39.89389465395276
 20
251.3886985262237
 30
0.0
 10
39.87392632851612
 20
251.3296124240182
 30
0.0
 10
39.86083279983841
 20
251.2608143098993
 30
0.0
 10
39.85704064112756
 20
251.1944398956256
 30
0.0
 10
39.85575791839801
 20
251.1461086552093
 30
0.0
 10
39.85541272772294
 20
251.1182620262502
 30
0.0
 10
39.855291584819
 20
251.0905437328251
 30
0.0
 10
39.8556199060517
 20
251.0558230371888
 30
0.0
 10
39.85657937542947
 20
251.0068756649289
 30
0.0
 10
39.8592602495898
 20
250.9708291862037
 30
0.0
 10
39.86087586568769
 20
250.949105946761
 30
0.0
  0
SPLINE
  5
1D7
330
1F
100
AcDbEntity
  8
0
  6
Continuous
 62
     7
370
    15
100
AcDbSpline
210
0.0
220
0.0
230
1.0
 70
     8
 71
     3
 72
    23
 73
    19
 74
     0
 42
0.00000001
 43
0.00000001
 40
0.0
 40
0.0
 40
0.0
 40
0.0
 40
0.0568848099644407
 40
0.1407803419916991
 40
0.2190344316423383
 40
0.3091737820957195
 40
0.4046189398155
 40
0.4523122974592963
 40
0.4761578416238502
 40
0.5000033696824089
 40
0.5468139157943469
 40
0.5936038520716626
 40
0.6867962036610129
 40
0.7801062174082093
 40
0.8582842669996763
 40
0.9421483225963948
 40
0.944536536098726
 40
1.0
 40
1.0
 40
1.0
 40
1.0
 10
40.57605241332163
 20
249.8331281743276
 30
0.0
 10
40.59053737779852
 20
249.8251695181414
 30
0.0
 10
40.6263852298713
 20
249.8054731819774
 30
0.0
 10
40.6818801449363
 20
249.7810817085291
 30
0.0
 10
40.74482164357144
 20
249.7600836904757
 30
0.0
 10
40.80863282775315
 20
249.7483306475716
 30
0.0
 10
40.86194918945614
 20
249.7480405743398
 30
0.0
 10
40.89939167176535
 20
249.7496796864498
 30
0.0
 10
40.92059866092504
 20
249.7511131032592
 30
0.0
 10
40.9414947875663
 20
249.7528302584454
 30
0.0
 10
40.96726130611794
 20
249.7554948727328
 30
0.0
 10
41.00772702299628
 20
249.760988861016
 30
0.0
 10
41.05731999342449
 20
249.7703011171191
 30
0.0
 10
41.10837864753193
 20
249.7920383532402
 30
0.0
 10
41.15198015393751
 20
249.8227236031732
 30
0.0
 10
41.17699998951231
 20
249.847152937816
 30
0.0
 10
41.1971241864639
 20
249.8701252954866
 30
0.0
 10
41.2047601391812
 20
249.8802714234708
 30
0.0
 10
41.21208086706492
 20
249.8899987024098
 30
0.0
  0
ARC
  5
1D8
330
1F
100
AcDbEntity
  8
0
  6
Continuous
 62
     7
370
    15
100
AcDbCircle
 10
40.7602990875
 20
250.3701457083
 30
0.0
 40
0.2728871426656987
100
AcDbArc
 50
270.9164388146
 51
10.518368232
  0
LWPOLYLINE
  5
1D9
330
1F
100
AcDbEntity
  8
0
  6
Continuous
 62
     7
370
    15
100
AcDbPolyline
 90
       11
 70
   128
 43
0.0
 10
40.1568374636
 20
251.1200681081
 10
40.1683204478
 20
251.1433323254
 10
40.2443110056
 20
251.2281711222
 10
40.3497782433
 20
251.2644102054
 10
40.4753509341
 20
251.2488295734
 10
40.6098713931
 20
251.1828136336
 10
40.7413868874
 20
251.0722281921
 10
40.8582116881
 20
250.9268992507
 10
40.949965399
 20
250.7597399234
 10
41.0084953003
 20
250.5856030503
 10
41.0286007533
 20
250.4199614565
  0
SPLINE
  5
1DA
330
1F
100
AcDbEntity
  8
0
  6
Continuous
 62
     7
370
    15
100
AcDbSpline
210
0.0
220
0.0
230
1.0
 70
     8
 71
     3
 72
    11
 73
     7
 74
     0
 42
0.00000001
 43
0.00000001
 40
0.0
 40
0.0
 40
0.0
 40
0.0
 40
0.2500000000001244
 40
0.5000000000000747
 40
0.7500000000000435
 40
1.0
 40
1.0
 40
1.0
 40
1.0
 10
41.83415835423443
 20
251.0618678236404
 30
0.0
 10
41.83518118045363
 20
251.060470997451
 30
0.0
 10
41.83722683289204
 20
251.0576773450722
 30
0.0
 10
41.83945803273274
 20
251.0529130936081
 30
0.0
 10
41.84094944699584
 20
251.0480826941655
 30
0.0
 10
41.84113609702948
 20
251.0451228189584
 30
0.0
 10
41.84122942204629
 20
251.0436428813548
 30
0.0
  0
SPLINE
  5
1DB
330
1F
100
AcDbEntity
  8
0
  6
Continuous
 62
     7
370
    15
100
AcDbSpline
210
0.0
220
0.0
230
1.0
 70
     8
 71
     3
 72
    16
 73
    12
 74
     0
 42
0.00000001
 43
0.00000001
 40
0.0
 40
0.0
 40
0.0
 40
0.0
 40
0.1213013264353578
 40
0.3155182991058567
 40
0.4116246004282506
 40
0.4595921198071801
 40
0.5075396632838887
 40
0.6016811294966925
 40
0.6959579744798174
 40
0.8855061983880977
 40
1.0
 40
1.0
 40
1.0
 40
1.0
 10
41.66101986698113
 20
251.3064328873301
 30
0.0
 10
41.64967133503976
 20
251.3251486232424
 30
0.0
 10
41.6201525358583
 20
251.3738303428502
 30
0.0
 10
41.57051077825999
 20
251.4296609723166
 30
0.0
 10
41.53246837276957
 20
251.4762458771558
 30
0.0
 10
41.51096026472521
 20
251.5026156159641
 30
0.0
 10
41.48987346201332
 20
251.5287330572649
 30
0.0
 10
41.46400826901002
 20
251.5612660202582
 30
0.0
 10
41.42314740439775
 20
251.6129661154129
 30
0.0
 10
41.38311842294423
 20
251.6682410964344
 30
0.0
 10
41.34793486391229
 20
251.7019769940163
 30
0.0
 10
41.33468571053978
 20
251.7146809982023
 30
0.0
  0
ARC
  5
1DC
330
1F
100
AcDbEntity
  8
0
  6
Continuous
 62
     7
370
    15
100
AcDbCircle
 10
40.4284658767
 20
250.9592798504
 30
0.0
 40
0.2861976453376616
100
AcDbArc
 50
55.5184985328
 51
115.6983565889
  0
ARC
  5
1DD
330
1F
100
AcDbEntity
  8
0
  6
Continuous
 62
     7
370
    15
100
AcDbCircle
 10
40.7752090202
 20
250.4021786982
 30
0.0
 40
0.2555043378213776
100
AcDbArc
 50
281.6680396621
 51
7.7615462175
  0
SPLINE
  5
1DE
330
1F
100
AcDbEntity
  8
0
  6
Continuous
 62
     7
370
    15
100
AcDbSpline
210
0.0
220
0.0
230
1.0
 70
     8
 71
     3
 72
    16
 73
    12
 74
     0
 42
0.00000001
 43
0.00000001
 40
0.0
 40
0.0
 40
0.0
 40
0.0
 40
0.1772792827591869
 40
0.2662875173998979
 40
0.35533495839847
 40
0.4006961229947788
 40
0.4460573182334367
 40
0.5367840257890277
 40
0.7183486241099948
 40
0.8898139212967342
 40
1.0
 40
1.0
 40
1.0
 40
1.0
 10
41.37529652323595
 20
251.6691290053785
 30
0.0
 10
41.39684727561828
 20
251.6451891932561
 30
0.0
 10
41.4292182118082
 20
251.6092297002016
 30
0.0
 10
41.47099878967364
 20
251.5588257548381
 30
0.0
 10
41.49705266543577
 20
251.5268308792456
 30
0.0
 10
41.51783367053477
 20
251.500821474026
 30
0.0
 10
41.53869269623415
 20
251.4744093310881
 30
0.0
 10
41.57487065226341
 20
251.4277232112917
 30
0.0
 10
41.62425863310076
 20
251.3609987007019
 30
0.0
 10
41.67153537545031
 20
251.2868654125999
 30
0.0
 10
41.69632491847032
 20
251.2397135448863
 30
0.0
 10
41.70602294508068
 20
251.2212670544671
 30
0.0
  0
SPLINE
  5
1DF
330
1F
100
AcDbEntity
  8
0
  6
Continuous
 62
     7
370
    15
100
AcDbSpline
210
0.0
220
0.0
230
1.0
 70
     8
 71
     3
 72
    11
 73
     7
 74
     0
 42
0.00000001
 43
0.00000001
 40
0.0
 40
0.0
 40
0.0
 40
0.0
 40
0.2499999999999235
 40
0.5000000000000022
 40
0.7500000000000152
 40
1.0
 40
1.0
 40
1.0
 40
1.0
 10
41.09931143139946
 20
251.9665818084374
 30
0.0
 10
41.10042758263548
 20
251.9665571690806
 30
0.0
 10
41.10265988510753
 20
251.9665078903672
 30
0.0
 10
41.10638249921133
 20
251.9648520880902
 30
0.0
 10
41.11010511331512
 20
251.9622098516093
 30
0.0
 10
41.11233741578717
 20
251.9596817687492
 30
0.0
 10
41.11345356702319
 20
251.9584177273191
 30
0.0
  0
LINE
  5
1E0
330
1F
100
AcDbEntity
  8
0
  6
Continuous
 62
     7
370
    15
100
AcDbLine
 10
41.0993114314
 20
251.9665818084
 30
0.0
 11
40.8468776763
 21
251.9440104268
 31
0.0
  0
LINE
  5
1E1
330
1F
100
AcDbEntity
  8
0
  6
Continuous
 62
     7
370
    15
100
AcDbLine
 10
40.6775072048
 20
251.9288661544
 30
0.0
 11
40.3786066442
 21
251.9021399402
 31
0.0
  0
SPLINE
  5
1E2
330
1F
100
AcDbEntity
  8
0
  6
Continuous
 62
     7
370
    15
100
AcDbSpline
210
0.0
220
0.0
230
1.0
 70
     8
 71
     3
 72
    15
 73
    11
 74
     0
 42
0.00000001
 43
0.00000001
 40
0.0
 40
0.0
 40
0.0
 40
0.0
 40
0.2190199807143893
 40
0.3299548501244676
 40
0.3853234412054696
 40
0.4406689742343586
 40
0.5493358474439934
 40
0.6581589874748559
 40
0.8769532515029458
 40
1.0
 40
1.0
 40
1.0
 40
1.0
 10
41.86082806564993
 20
250.4181016678904
 30
0.0
 10
41.86175452828735
 20
250.4422841312264
 30
0.0
 10
41.8631502495347
 20
250.4787151501666
 30
0.0
 10
41.8625269954336
 20
250.5264954362336
 30
0.0
 10
41.86246560541242
 20
250.5542768840888
 30
0.0
 10
41.8624192075945
 20
250.5821329198768
 30
0.0
 10
41.86255394993003
 20
250.6173384702354
 30
0.0
 10
41.86260208443949
 20
250.6747416342748
 30
0.0
 10
41.86463748925789
 20
250.7376701660068
 30
0.0
 10
41.85646584252713
 20
250.7870677381019
 30
0.0
 10
41.85352443256389
 20
250.8048485496699
 30
0.0
  0
SPLINE
  5
1E3
330
1F
100
AcDbEntity
  8
0
  6
Continuous
 62
     7
370
    15
100
AcDbSpline
210
0.0
220
0.0
230
1.0
 70
     8
 71
     3
 72
    15
 73
    11
 74
     0
 42
0.00000001
 43
0.00000001
 40
0.0
 40
0.0
 40
0.0
 40
0.0
 40
0.2430955393627363
 40
0.3651487453039005
 40
0.4872557132558525
 40
0.5494575486986351
 40
0.6116594261599606
 40
0.7360691009084288
 40
0.9850409112114304
 40
1.0
 40
1.0
 40
1.0
 40
1.0
 10
41.85562303500552
 20
250.7601789414871
 30
0.0
 10
41.85777497706096
 20
250.7316352720994
 30
0.0
 10
41.86100736439133
 20
250.6887604209581
 30
0.0
 10
41.86218378092568
 20
250.6331565071326
 30
0.0
 10
41.86249970309997
 20
250.5984408522379
 30
0.0
 10
41.86237281340612
 20
250.5707273379326
 30
0.0
 10
41.8620593925238
 20
250.5428556628999
 30
0.0
 10
41.86043000128729
 20
250.4947932644361
 30
0.0
 10
41.85976552717582
 20
250.4510708913557
 30
0.0
 10
41.85467010584944
 20
250.4248432122859
 30
0.0
 10
41.85438130730293
 20
250.4233566785709
 30
0.0
  0
LWPOLYLINE
  5
1E4
330
1F
100
AcDbEntity
  8
0
  6
Continuous
 62
     7
370
    15
100
AcDbPolyline
 90
        3
 70
   128
 43
0.0
 10
41.3421125396
 20
249.7877518433
 10
41.3407217263
 20
249.7871462661
 10
41.3391836074
 20
249.7868474091
  0
SPLINE
  5
1E5
330
1F
100
AcDbEntity
  8
0
  6
Continuous
 62
     7
370
    15
100
AcDbSpline
210
0.0
220
0.0
230
1.0
 70
     8
 71
     3
 72
    12
 73
     8
 74
     0
 42
0.00000001
 43
0.00000001
 40
0.0
 40
0.0
 40
0.0
 40
0.0
 40
0.0003712465839759
 40
0.1186470289655724
 40
0.4310193041508042
 40
0.6918099500875845
 40
1.0
 40
1.0
 40
1.0
 40
1.0
 10
41.33918360740385
 20
249.7868474090886
 30
0.0
 10
41.3391807787496
 20
249.7868457766862
 30
0.0
 10
41.33827676660164
 20
249.7863240757587
 30
0.0
 10
41.33486551086593
 20
249.7846493733239
 30
0.0
 10
41.32873887848289
 20
249.7836050168867
 30
0.0
 10
41.32064659557505
 20
249.785403527613
 30
0.0
 10
41.31547578601749
 20
249.7881962727009
 30
0.0
 10
41.31267500197109
 20
249.7897089712061
 30
0.0
  0
SPLINE
  5
1E6
330
1F
100
AcDbEntity
  8
0
  6
Continuous
 62
     7
370
    15
100
AcDbSpline
210
0.0
220
0.0
230
1.0
 70
     8
 71
     3
 72
    25
 73
    21
 74
     0
 42
0.00000001
 43
0.00000001
 40
0.0
 40
0.0
 40
0.0
 40
0.0
 40
0.0000044172638774
 40
0.0549687150534219
 40
0.3122803808285077
 40
0.4062358450648423
 40
0.45296708876998
 40
0.4996312253493052
 40
0.5233979373802835
 40
0.5471745501272766
 40
0.5948126618776213
 40
0.691082380828486
 40
0.7665481191796228
 40
0.7822055859583028
 40
0.852284647636544
 40
0.8603069586517116
 40
0.9397538671127875
 40
0.9436217284659055
 40
0.9999955734578782
 40
1.0
 40
1.0
 40
1.0
 40
1.0
 10
41.2128384863576
 20
249.8890958504829
 30
0.0
 10
41.21283792460806
 20
249.8890950348274
 30
0.0
 10
41.2058474773471
 20
249.8789449652646
 30
0.0
 10
41.16404408103563
 20
249.8241509587674
 30
0.0
 10
41.09913718363887
 20
249.7640504689448
 30
0.0
 10
41.02784632282799
 20
249.7498470369333
 30
0.0
 10
40.98839506288234
 20
249.7453005244779
 30
0.0
 10
40.96281658762516
 20
249.7428091324046
 30
0.0
 10
40.94161309166906
 20
249.740994934648
 30
0.0
 10
40.91975485066828
 20
249.7392979163009
 30
0.0
 10
40.8802737040729
 20
249.7367628930893
 30
0.0
 10
40.82266975344955
 20
249.7356230146268
 30
0.0
 10
40.77214965988362
 20
249.7472347438181
 30
0.0
 10
40.73026286113965
 20
249.7600207107635
 30
0.0
 10
40.70612918773221
 20
249.7688955679724
 30
0.0
 10
40.66561793111043
 20
249.7856591698453
 30
0.0
 10
40.64210922294118
 20
249.796621065737
 30
0.0
 10
40.60613544253025
 20
249.8151443325641
 30
0.0
 10
40.59060497420673
 20
249.8236893825557
 30
0.0
 10
40.57608408935229
 20
249.8321596498271
 30
0.0
 10
40.57608294924446
 20
249.8321603148705
 30
0.0
  0
SPLINE
  5
1E7
330
1F
100
AcDbEntity
  8
0
  6
Continuous
 62
     7
370
    15
100
AcDbSpline
210
0.0
220
0.0
230
1.0
 70
     8
 71
     3
 72
    14
 73
    10
 74
     0
 42
0.00000001
 43
0.00000001
 40
0.0
 40
0.0
 40
0.0
 40
0.0
 40
0.0002185435367724
 40
0.0698445250592914
 40
0.2537302354070994
 40
0.4072511365553562
 40
0.5886748759594442
 40
0.8936421787646686
 40
1.0
 40
1.0
 40
1.0
 40
1.0
 10
41.09931143139946
 20
251.9665818084374
 30
0.0
 10
41.0993142599248
 20
251.9665834408295
 30
0.0
 10
41.10021823087792
 20
251.9671051384763
 30
0.0
 10
41.10354877227948
 20
251.9687712250758
 30
0.0
 10
41.10928277302911
 20
251.9697945876441
 30
0.0
 10
41.11617045340466
 20
251.9678350802477
 30
0.0
 10
41.12281416609861
 20
251.962487451136
 30
0.0
 10
41.12698119680238
 20
251.9557525043503
 30
0.0
 10
41.12874782834088
 20
251.9504627610927
 30
0.0
 10
41.12920463263115
 20
251.9490949730952
 30
0.0
  0
SPLINE
  5
1E8
330
1F
100
AcDbEntity
  8
0
  6
Continuous
 62
     7
370
    15
100
AcDbSpline
210
0.0
220
0.0
230
1.0
 70
     8
 71
     3
 72
    15
 73
    11
 74
     0
 42
0.00000001
 43
0.00000001
 40
0.0
 40
0.0
 40
0.0
 40
0.0
 40
0.0110578855523653
 40
0.280516650103667
 40
0.4138555898669952
 40
0.4804062539655757
 40
0.5469292032776498
 40
0.6775421091935118
 40
0.8083428411046715
 40
1.0
 40
1.0
 40
1.0
 40
1.0
 10
40.90410498684726
 20
251.949127410727
 30
0.0
 10
40.90305805901511
 20
251.949372107862
 30
0.0
 10
40.87649957394275
 20
251.9555795894163
 30
0.0
 10
40.83748425140698
 20
251.9516448978385
 30
0.0
 10
40.79803928444612
 20
251.9497398151363
 30
0.0
 10
40.77617901774676
 20
251.9479812919658
 30
0.0
 10
40.75496934498499
 20
251.9461952514079
 30
0.0
 10
40.72944136724693
 20
251.9435915233707
 30
0.0
 10
40.69511118771273
 20
251.940170009503
 30
0.0
 10
40.67465523031785
 20
251.9345717777682
 30
0.0
 10
40.6624969585293
 20
251.9312443938843
 30
0.0
  0
SPLINE
  5
1E9
330
1F
100
AcDbEntity
  8
0
  6
Continuous
 62
     7
370
    15
100
AcDbSpline
210
0.0
220
0.0
230
1.0
 70
     8
 71
     3
 72
    11
 73
     7
 74
     0
 42
0.00000001
 43
0.00000001
 40
0.0
 40
0.0
 40
0.0
 40
0.0
 40
0.2499999999999697
 40
0.4999999999999516
 40
0.7499999999999152
 40
1.0
 40
1.0
 40
1.0
 40
1.0
 10
41.84122942204629
 20
250.0826511093938
 30
0.0
 10
41.84113609702948
 20
250.0812789225612
 30
0.0
 10
41.84094944699584
 20
250.0785345488958
 30
0.0
 10
41.83945803273274
 20
250.0754260997086
 30
0.0
 10
41.83722683289204
 20
250.0732379367469
 30
0.0
 10
41.83518118045363
 20
250.0728061444
 30
0.0
 10
41.83415835423443
 20
250.0725902482265
 30
0.0
  0
SPLINE
  5
1EA
330
1F
100
AcDbEntity
  8
0
  6
Continuous
 62
     7
370
    15
100
AcDbSpline
210
0.0
220
0.0
230
1.0
 70
     8
 71
     3
 72
     9
 73
     5
 74
     0
 42
0.00000001
 43
0.00000001
 40
0.0
 40
0.0
 40
0.0
 40
0.0
 40
0.5881147764364171
 40
1.0
 40
1.0
 40
1.0
 40
1.0
 10
39.87265218933538
 20
251.5767034283506
 30
0.0
 10
39.87096852000091
 20
251.5799431925575
 30
0.0
 10
39.86810569559668
 20
251.5854519203375
 30
0.0
 10
39.86794688257154
 20
251.5903271595086
 30
0.0
 10
39.86788146983319
 20
251.5923351984845
 30
0.0
  0
LINE
  5
1EB
330
1F
100
AcDbEntity
  8
0
  6
Continuous
 62
     7
370
    15
100
AcDbLine
 10
39.8802880472
 20
251.6152323018
 30
0.0
 11
39.8807029652
 21
251.6154926668
 31
0.0
  0
ARC
  5
1EC
330
1F
100
AcDbEntity
  8
0
  6
Continuous
 62
     7
370
    15
100
AcDbCircle
 10
40.6206944939
 20
251.0943806587
 30
0.0
 40
0.7796793700136356
100
AcDbArc
 50
150.9181541748
 51
194.6414996419
  0
SPLINE
  5
1ED
330
1F
100
AcDbEntity
  8
0
  6
Continuous
 62
     7
370
    15
100
AcDbSpline
210
0.0
220
0.0
230
1.0
 70
     8
 71
     3
 72
    10
 73
     6
 74
     0
 42
0.00000001
 43
0.00000001
 40
0.0
 40
0.0
 40
0.0
 40
0.0
 40
0.0000337374715353
 40
0.4198312611098725
 40
1.0
 40
1.0
 40
1.0
 40
1.0
 10
40.57607280757036
 20
249.8321661696302
 30
0.0
 10
40.57607167148366
 20
249.8321668185756
 30
0.0
 10
40.56193413561252
 20
249.840242336306
 30
0.0
 10
40.52777841186315
 20
249.8591252301233
 30
0.0
 10
40.49608361803204
 20
249.8873732640594
 30
0.0
 10
40.47769466906902
 20
249.9037624432137
 30
0.0
  0
SPLINE
  5
1EE
330
1F
100
AcDbEntity
  8
0
  6
Continuous
 62
     7
370
    15
100
AcDbSpline
210
0.0
220
0.0
230
1.0
 70
     8
 71
     3
 72
     9
 73
     5
 74
     0
 42
0.00000001
 43
0.00000001
 40
0.0
 40
0.0
 40
0.0
 40
0.0
 40
0.0976992866751766
 40
1.0
 40
1.0
 40
1.0
 40
1.0
 10
40.58919248306071
 20
249.7297081862023
 30
0.0
 10
40.58900740089638
 20
249.7298647687736
 30
0.0
 10
40.58711299439017
 20
249.7314674680013
 30
0.0
 10
40.5861121365805
 20
249.7350341657803
 30
0.0
 10
40.58520906186492
 20
249.7382523997306
 30
0.0
  0
SPLINE
  5
1EF
330
1F
100
AcDbEntity
  8
0
  6
Continuous
 62
     7
370
    15
100
AcDbSpline
210
0.0
220
0.0
230
1.0
 70
     8
 71
     3
 72
    16
 73
    12
 74
     0
 42
0.00000001
 43
0.00000001
 40
0.0
 40
0.0
 40
0.0
 40
0.0
 40
0.1050844684703135
 40
0.2141407458190071
 40
0.3231311869493148
 40
0.4365812705797101
 40
0.5529723449332289
 40
0.6707568400184928
 40
0.794532871136719
 40
0.9182261932436394
 40
0.9999999999999999
 40
0.9999999999999999
 40
0.9999999999999999
 40
0.9999999999999999
 10
39.52953437716534
 20
250.4689459431833
 30
0.0
 10
39.52994628132888
 20
250.4247460552665
 30
0.0
 10
39.53078565812805
 20
250.3346756851975
 30
0.0
 10
39.58017834342107
 20
250.1806300980272
 30
0.0
 10
39.6618825234647
 20
250.0308950139172
 30
0.0
 10
39.7704714194428
 20
249.898900066118
 30
0.0
 10
39.8957908270651
 20
249.8019882289338
 30
0.0
 10
40.02513396606662
 20
249.7504192834822
 30
0.0
 10
40.14306201794743
 20
249.7542778893372
 30
0.0
 10
40.22708614056037
 20
249.8064089179757
 30
0.0
 10
40.25935036287952
 20
249.86471923225
 30
0.0
 10
40.27219119194871
 20
249.8879261383753
 30
0.0
  0
SPLINE
  5
1F0
330
1F
100
AcDbEntity
  8
0
  6
Continuous
 62
     7
370
    15
100
AcDbSpline
210
0.0
220
0.0
230
1.0
 70
     8
 71
     3
 72
    12
 73
     8
 74
     0
 42
0.00000001
 43
0.00000001
 40
0.0
 40
0.0
 40
0.0
 40
0.0
 40
0.290892232575004
 40
0.5030165676473961
 40
0.7182732519379146
 40
0.9289543174207839
 40
1.0
 40
1.0
 40
1.0
 40
1.0
 10
40.27219119194871
 20
249.8879261383753
 30
0.0
 10
40.24831740217848
 20
249.8394508283196
 30
0.0
 10
40.20703437553782
 20
249.7556263691238
 30
0.0
 10
40.0864868924868
 20
249.7256863320846
 30
0.0
 10
39.96335447792228
 20
249.7571345458086
 30
0.0
 10
39.85775900684719
 20
249.8167617970867
 30
0.0
 10
39.80431593178991
 20
249.8763863074004
 30
0.0
 10
39.790838689133
 20
249.8914223806977
 30
0.0
  0
SPLINE
  5
1F1
330
1F
100
AcDbEntity
  8
0
  6
Continuous
 62
     7
370
    15
100
AcDbSpline
210
0.0
220
0.0
230
1.0
 70
     8
 71
     3
 72
    23
 73
    19
 74
     0
 42
0.00000001
 43
0.00000001
 40
0.0
 40
0.0
 40
0.0
 40
0.0
 40
0.0185205007140171
 40
0.0885502710678205
 40
0.1573632477444526
 40
0.22767174253959
 40
0.2965462814822284
 40
0.3664884886157019
 40
0.4362206376402312
 40
0.5052682596018582
 40
0.5755406231658928
 40
0.6442807457462619
 40
0.7144502704831565
 40
0.7837831766570055
 40
0.8532123683525233
 40
0.9233405747221375
 40
0.9920975192864042
 40
0.9999999999999999
 40
0.9999999999999999
 40
0.9999999999999999
 40
0.9999999999999999
 10
39.55572014459548
 20
250.274593902636
 30
0.0
 10
39.54923502539657
 20
250.2905592049649
 30
0.0
 10
39.51822835490545
 20
250.3668925541941
 30
0.0
 10
39.50283109772237
 20
250.5046897193959
 30
0.0
 10
39.51557453129963
 20
250.665096879008
 30
0.0
 10
39.57608659364932
 20
250.788829874817
 30
0.0
 10
39.67403902342811
 20
250.8629697303542
 30
0.0
 10
39.80162488209839
 20
250.8806482390296
 30
0.0
 10
39.94574828157492
 20
250.8398030435194
 30
0.0
 10
40.09191517689877
 20
250.7452785051744
 30
0.0
 10
40.22583830451074
 20
250.6084244273445
 30
0.0
 10
40.33387217096738
 20
250.4421240657148
 30
0.0
 10
40.40626002949703
 20
250.2663164947917
 30
0.0
 10
40.43508578401912
 20
250.0985975026861
 30
0.0
 10
40.41933112482213
 20
249.9557339499056
 30
0.0
 10
40.35905970530515
 20
249.8612167473627
 30
0.0
 10
40.29633860798437
 20
249.815694153514
 30
0.0
 10
40.25277943614037
 20
249.8206719472486
 30
0.0
 10
40.2482891139895
 20
249.8211850859637
 30
0.0
  0
SPLINE
  5
1F2
330
1F
100
AcDbEntity
  8
0
  6
Continuous
 62
     7
370
    15
100
AcDbSpline
210
0.0
220
0.0
230
1.0
 70
     8
 71
     3
 72
    19
 73
    15
 74
     0
 42
0.00000001
 43
0.00000001
 40
0.0
 40
0.0
 40
0.0
 40
0.0
 40
0.0477057887319207
 40
0.1395224580917963
 40
0.2326164005071154
 40
0.3237547602375606
 40
0.4169071563626336
 40
0.5085616702060228
 40
0.6009214506372192
 40
0.6937453287960127
 40
0.7850174380538791
 40
0.8782496612647018
 40
0.969548982470115
 40
0.9999999999999999
 40
0.9999999999999999
 40
0.9999999999999999
 40
0.9999999999999999
 10
39.74177441105052
 20
250.8714496514902
 30
0.0
 10
39.7556334365601
 20
250.8882508240093
 30
0.0
 10
39.79616615506771
 20
250.9373882756895
 30
0.0
 10
39.90090265303132
 20
250.9613461394835
 30
0.0
 10
40.03971347317562
 20
250.9412513740859
 30
0.0
 10
40.18706434574717
 20
250.8623287912771
 30
0.0
 10
40.32640608113103
 20
250.7380541499663
 30
0.0
 10
40.44412211698623
 20
250.5791626085648
 30
0.0
 10
40.52891845783569
 20
250.4041462617771
 30
0.0
 10
40.57230212450531
 20
250.2320946641478
 30
0.0
 10
40.57057470355375
 20
250.0790355577154
 30
0.0
 10
40.52405418452376
 20
249.9683970379909
 30
0.0
 10
40.46200618048044
 20
249.9086504441558
 30
0.0
 10
40.41191819027175
 20
249.9080121261735
 30
0.0
 10
40.39939066645764
 20
249.9078524762516
 30
0.0
  0
SPLINE
  5
1F3
330
1F
100
AcDbEntity
  8
0
  6
Continuous
 62
     7
370
    15
100
AcDbSpline
210
0.0
220
0.0
230
1.0
 70
     8
 71
     3
 72
    19
 73
    15
 74
     0
 42
0.00000001
 43
0.00000001
 40
0.0
 40
0.0
 40
0.0
 40
0.0
 40
0.014456918775876
 40
0.1053023700644507
 40
0.1981667540221962
 40
0.2892561014094766
 40
0.3815214202473569
 40
0.4737867390852375
 40
0.5648760864725205
 40
0.6577404704302625
 40
0.7485859217188384
 40
0.8411981475661295
 40
0.9329789976181703
 40
1.0
 40
1.0
 40
1.0
 40
1.0
 10
39.88493941072659
 20
250.9600647267968
 30
0.0
 10
39.88866907025462
 20
250.9657539122792
 30
0.0
 10
39.91583543910015
 20
251.0071932206354
 30
0.0
 10
40.00218102585121
 20
251.0363446631794
 30
0.0
 10
40.13430327103674
 20
251.0367474358544
 30
0.0
 10
40.28146742221973
 20
250.9746624718771
 30
0.0
 10
40.42484929964863
 20
250.8639340049515
 30
0.0
 10
40.5510942490066
 20
250.7144320558798
 30
0.0
 10
40.64727440091619
 20
250.5423010744233
 30
0.0
 10
40.70470468028753
 20
250.3677652346424
 30
0.0
 10
40.71736166125343
 20
250.2064856330593
 30
0.0
 10
40.68508258037964
 20
250.0803511166551
 30
0.0
 10
40.62080860227766
 20
250.0005133752918
 30
0.0
 10
40.55821249055134
 20
249.9912514825258
 30
0.0
 10
40.53179432168993
 20
249.9873425776383
 30
0.0
  0
SPLINE
  5
1F4
330
1F
100
AcDbEntity
  8
0
  6
Continuous
 62
     7
370
    15
100
AcDbSpline
210
0.0
220
0.0
230
1.0
 70
     8
 71
     3
 72
    19
 73
    15
 74
     0
 42
0.00000001
 43
0.00000001
 40
0.0
 40
0.0
 40
0.0
 40
0.0
 40
0.0842850664839399
 40
0.1756421344966996
 40
0.2665424384902648
 40
0.3567486205735237
 40
0.4484290152860922
 40
0.5381271995638692
 40
0.629750064256754
 40
0.7201158394624092
 40
0.8108466641446705
 40
0.9023077835587162
 40
0.9920718193047313
 40
0.9999999999999999
 40
0.9999999999999999
 40
0.9999999999999999
 40
0.9999999999999999
 10
40.01608521068499
 20
251.0341185496567
 30
0.0
 10
40.04441678327155
 20
251.0595362022224
 30
0.0
 10
40.10345711022792
 20
251.1125041944987
 30
0.0
 10
40.23160647821393
 20
251.1243787755373
 30
0.0
 10
40.37543331460765
 20
251.0822623438306
 30
0.0
 10
40.52158591698539
 20
250.9856864648701
 30
0.0
 10
40.65473132707035
 20
250.8474968931671
 30
0.0
 10
40.76157742760691
 20
250.6804414610223
 30
0.0
 10
40.83243786166828
 20
250.5046716749064
 30
0.0
 10
40.85953039265572
 20
250.3375964937289
 30
0.0
 10
40.84215733113628
 20
250.1960372615512
 30
0.0
 10
40.78028527224804
 20
250.1035171347401
 30
0.0
 10
40.71766844603764
 20
250.0594732437493
 30
0.0
 10
40.67496882400533
 20
250.0649169190206
 30
0.0
 10
40.67150354978571
 20
250.0653586987526
 30
0.0
  0
SPLINE
  5
1F5
330
1F
100
AcDbEntity
  8
0
  6
Continuous
 62
     7
370
    15
100
AcDbSpline
210
0.0
220
0.0
230
1.0
 70
     8
 71
     3
 72
    10
 73
     6
 74
     0
 42
0.00000001
 43
0.00000001
 40
0.0
 40
0.0
 40
0.0
 40
0.0
 40
0.2032965183462982
 40
0.6050857679402095
 40
1.0
 40
1.0
 40
1.0
 40
1.0
 10
40.25248586488028
 20
250.3429790466374
 30
0.0
 10
40.23368409902883
 20
250.3684253220092
 30
0.0
 10
40.17772307706246
 20
250.4441628663599
 30
0.0
 10
40.11138052171133
 20
250.5968547488774
 30
0.0
 10
40.08984426277829
 20
250.7146360633295
 30
0.0
 10
40.07916905505819
 20
250.7730185336198
 30
0.0
  0
SPLINE
  5
1F6
330
1F
100
AcDbEntity
  8
0
  6
Continuous
 62
     7
370
    15
100
AcDbSpline
210
0.0
220
0.0
230
1.0
 70
     8
 71
     3
 72
    19
 73
    15
 74
     0
 42
0.00000001
 43
0.00000001
 40
0.0
 40
0.0
 40
0.0
 40
0.0
 40
0.0516279900597331
 40
0.1434014863017183
 40
0.2362823847108467
 40
0.32727123444238
 40
0.4202882569408739
 40
0.5116841326412813
 40
0.6039860924120334
 40
0.6965660986131946
 40
0.7877328704916324
 40
0.8807977186126809
 40
0.9718830027142467
 40
1.0
 40
1.0
 40
1.0
 40
1.0
 10
40.16537140215925
 20
251.1158457238987
 30
0.0
 10
40.18061117108979
 20
251.1337830036374
 30
0.0
 10
40.22294102962203
 20
251.1836054463036
 30
0.0
 10
40.33006489520699
 20
251.2066224147971
 30
0.0
 10
40.46953122158317
 20
251.1841620014569
 30
0.0
 10
40.61682822812243
 20
251.1033152136056
 30
0.0
 10
40.75559414858197
 20
250.9775194430651
 30
0.0
 10
40.87222598252612
 20
250.8176483811753
 30
0.0
 10
40.95561825677861
 20
250.642432700489
 30
0.0
 10
40.9973128529517
 20
250.4707848921844
 30
0.0
 10
40.99390699548596
 20
250.3188375164865
 30
0.0
 10
40.94576033082609
 20
250.2100257317495
 30
0.0
 10
40.88348544731331
 20
250.1520860855644
 30
0.0
 10
40.83408649229048
 20
250.1522594081704
 30
0.0
 10
40.82243444781508
 20
250.1523002908715
 30
0.0
  0
SPLINE
  5
1F7
330
1F
100
AcDbEntity
  8
0
  6
Continuous
 62
     7
370
    15
100
AcDbSpline
210
0.0
220
0.0
230
1.0
 70
     8
 71
     3
 72
    12
 73
     8
 74
     0
 42
0.00000001
 43
0.00000001
 40
0.0
 40
0.0
 40
0.0
 40
0.0
 40
0.0303878352270404
 40
0.2778539749852099
 40
0.5245768972860374
 40
0.7688778589888187
 40
1.0
 40
1.0
 40
1.0
 40
1.0
 10
40.86928402268629
 20
250.3855598688104
 30
0.0
 10
40.86394045581039
 20
250.388381124636
 30
0.0
 10
40.8150810590822
 20
250.4141775375667
 30
0.0
 10
40.72364760912356
 20
250.5119165621052
 30
0.0
 10
40.61454430633675
 20
250.667343409683
 30
0.0
 10
40.53344306512771
 20
250.8459695772061
 30
0.0
 10
40.5136741831618
 20
250.9618670711597
 30
0.0
 10
40.50406374080157
 20
251.0182094676219
 30
0.0
  0
SPLINE
  5
1F8
330
1F
100
AcDbEntity
  8
0
  6
Continuous
 62
     7
370
    15
100
AcDbSpline
210
0.0
220
0.0
230
1.0
 70
     8
 71
     3
 72
    12
 73
     8
 74
     0
 42
0.00000001
 43
0.00000001
 40
0.0
 40
0.0
 40
0.0
 40
0.0
 40
0.1936592520893704
 40
0.4458452969458507
 40
0.6927337826927445
 40
0.9450781752299133
 40
1.0
 40
1.0
 40
1.0
 40
1.0
 10
41.00747762758182
 20
250.4712243123556
 30
0.0
 10
40.97373832673294
 20
250.4963109981393
 30
0.0
 10
40.89606319144546
 20
250.554065950469
 30
0.0
 10
40.78752014867992
 20
250.6968062446562
 30
0.0
 10
40.69905124211476
 20
250.8704928467854
 30
0.0
 10
40.65162512882253
 20
251.0107224516817
 30
0.0
 10
40.64894200390007
 20
251.0805383245068
 30
0.0
 10
40.64846241288573
 20
251.0930174547121
 30
0.0
  0
ARC
  5
1F9
330
1F
100
AcDbEntity
  8
0
  6
Continuous
 62
     7
370
    15
100
AcDbCircle
 10
39.6158905568
 20
250.0460562994
 30
0.0
 40
0.6750819739541057
100
AcDbArc
 50
346.4532632231
 51
27.7803901413
  0
SPLINE
  5
1FA
330
1F
100
AcDbEntity
  8
0
  6
Continuous
 62
     7
370
    15
100
AcDbSpline
210
0.0
220
0.0
230
1.0
 70
     8
 71
     3
 72
    12
 73
     8
 74
     0
 42
0.00000001
 43
0.00000001
 40
0.0
 40
0.0
 40
0.0
 40
0.0
 40
0.2173251260207483
 40
0.4472213505537821
 40
0.6774368416390271
 40
0.9099701475013572
 40
1.0
 40
1.0
 40
1.0
 40
1.0
 10
40.21316295188149
 20
250.3607011111766
 30
0.0
 10
40.23766709664143
 20
250.3061229204858
 30
0.0
 10
40.28809282013856
 20
250.1938094820979
 30
0.0
 10
40.31487710503954
 20
250.028258401783
 30
0.0
 10
40.29768715885324
 20
249.8895033513249
 30
0.0
 10
40.25521463941075
 20
249.8019374370651
 30
0.0
 10
40.20984910981261
 20
249.7834007879873
 30
0.0
 10
40.19718724241586
 20
249.7782270669995
 30
0.0
  0
SPLINE
  5
1FB
330
1F
100
AcDbEntity
  8
0
  6
Continuous
 62
     7
370
    15
100
AcDbSpline
210
0.0
220
0.0
230
1.0
 70
     8
 71
     3
 72
    17
 73
    13
 74
     0
 42
0.00000001
 43
0.00000001
 40
0.0
 40
0.0
 40
0.0
 40
0.0
 40
0.0973227078679006
 40
0.2017816865508328
 40
0.3040463423305573
 40
0.4085709108323639
 40
0.5114147335275944
 40
0.615049922723699
 40
0.7192058673349899
 40
0.8216206009680234
 40
0.9262347419557748
 40
1.0
 40
1.0
 40
1.0
 40
1.0
 10
39.67221281028342
 20
250.8503540208543
 30
0.0
 10
39.70745795895934
 20
250.8651901986549
 30
0.0
 10
39.78053263699042
 20
250.895950429686
 30
0.0
 10
39.92023683056603
 20
250.8706807831503
 30
0.0
 10
40.06665829862352
 20
250.7932518479559
 30
0.0
 10
40.20624573173595
 20
250.6685841216747
 30
0.0
 10
40.32391849762664
 20
250.5097550740124
 30
0.0
 10
40.40864346065232
 20
250.3348800054794
 30
0.0
 10
40.4523562990244
 20
250.1622001156463
 30
0.0
 10
40.44939374148655
 20
250.011493504377
 30
0.0
 10
40.41141319132488
 20
249.9030551681915
 30
0.0
 10
40.36004128229095
 20
249.8716448495645
 30
0.0
 10
40.33879744950154
 20
249.8586557360718
 30
0.0
  0
SPLINE
  5
1FC
330
1F
100
AcDbEntity
  8
0
  6
Continuous
 62
     7
370
    15
100
AcDbSpline
210
0.0
220
0.0
230
1.0
 70
     8
 71
     3
 72
    18
 73
    14
 74
     0
 42
0.00000001
 43
0.00000001
 40
0.0
 40
0.0
 40
0.0
 40
0.0
 40
0.0638779472151749
 40
0.1684826454474991
 40
0.2710878993622983
 40
0.3750177960893078
 40
0.4789476928163137
 40
0.5815529467311151
 40
0.6861576449634362
 40
0.7884881683871928
 40
0.8928088295977143
 40
0.9961930089141701
 40
1.0
 40
1.0
 40
1.0
 40
1.0
 10
39.81642199814482
 20
250.9271123003239
 30
0.0
 10
39.83772570409798
 20
250.9400047287934
 30
0.0
 10
39.89391574922789
 20
250.9740094291552
 30
0.0
 10
40.01549831938163
 20
250.9651523238167
 30
0.0
 10
40.16088046165337
 20
250.9058619639087
 30
0.0
 10
40.30474519259431
 20
250.7943755217079
 30
0.0
 10
40.43085137321876
 20
250.6450941845132
 30
0.0
 10
40.52710255601058
 20
250.4728406642029
 30
0.0
 10
40.5843850796131
 20
250.2985785152472
 30
0.0
 10
40.5975559024785
 20
250.1363380901354
 30
0.0
 10
40.56334673775957
 20
250.0138151976119
 30
0.0
 10
40.52021646953337
 20
249.9450665548501
 30
0.0
 10
40.48439551757921
 20
249.9363553989648
 30
0.0
 10
40.48312330416589
 20
249.9360460144075
 30
0.0
  0
SPLINE
  5
1FD
330
1F
100
AcDbEntity
  8
0
  6
Continuous
 62
     7
370
    15
100
AcDbSpline
210
0.0
220
0.0
230
1.0
 70
     8
 71
     3
 72
    18
 73
    14
 74
     0
 42
0.00000001
 43
0.00000001
 40
0.0
 40
0.0
 40
0.0
 40
0.0
 40
0.0306263677116202
 40
0.1348089030488688
 40
0.2384705500235024
 40
0.3413406284635737
 40
0.4458918817999995
 40
0.5481826454648464
 40
0.6526682922374992
 40
0.7557203688138424
 40
0.859188743557625
 40
0.9634899378998858
 40
1.0
 40
1.0
 40
1.0
 40
1.0
 10
39.95777572475728
 20
251.0095970658491
 30
0.0
 10
39.96711917520908
 20
251.0171344095788
 30
0.0
 10
40.0082464913165
 20
251.0503117373529
 30
0.0
 10
40.11239147890593
 20
251.0532193143691
 30
0.0
 10
40.25496143935111
 20
251.0133364202553
 30
0.0
 10
40.40145160912219
 20
250.916159968092
 30
0.0
 10
40.53449588870211
 20
250.7781529192261
 30
0.0
 10
40.64140542214269
 20
250.610974342456
 30
0.0
 10
40.7121103991809
 20
250.435520157099
 30
0.0
 10
40.73975652345044
 20
250.2673154511905
 30
0.0
 10
40.72031617606801
 20
250.1299757917082
 30
0.0
 10
40.67767316324232
 20
250.0446694948092
 30
0.0
 10
40.6331766615388
 20
250.0274004229394
 30
0.0
 10
40.62163944440518
 20
250.0229228342699
 30
0.0
  0
SPLINE
  5
1FE
330
1F
100
AcDbEntity
  8
0
  6
Continuous
 62
     7
370
    15
100
AcDbSpline
210
0.0
220
0.0
230
1.0
 70
     8
 71
     3
 72
    17
 73
    13
 74
     0
 42
0.00000001
 43
0.00000001
 40
0.0
 40
0.0
 40
0.0
 40
0.0
 40
0.1012500410434573
 40
0.2056591005832415
 40
0.3079412747632284
 40
0.4125033537978158
 40
0.5152430730634582
 40
0.6190013374473001
 40
0.7230721587379424
 40
0.8255543383479778
 40
0.9301701790101782
 40
1.0
 40
1.0
 40
1.0
 40
1.0
 10
40.09601100161023
 20
251.0962343585493
 30
0.0
 10
40.133010638676
 20
251.1110586498434
 30
0.0
 10
40.20816430777511
 20
251.1411697528402
 30
0.0
 10
40.34999975358791
 20
251.1136862202916
 30
0.0
 10
40.49643708289841
 20
251.0342124641802
 30
0.0
 10
40.63542948822555
 20
250.9080569586018
 30
0.0
 10
40.75202450883435
 20
250.7482367850076
 30
0.0
 10
40.8353387151861
 20
250.5731756445927
 30
0.0
 10
40.87738248756308
 20
250.4008586946978
 30
0.0
 10
40.872667688643
 20
250.2514147860826
 30
0.0
 10
40.83400332496604
 20
250.1456044077272
 30
0.0
 10
40.78319350322442
 20
250.1158932810247
 30
0.0
 10
40.76285455800135
 20
250.1040000494051
 30
0.0
  0
SPLINE
  5
1FF
330
1F
100
AcDbEntity
  8
0
  6
Continuous
 62
     7
370
    15
100
AcDbSpline
210
0.0
220
0.0
230
1.0
 70
     8
 71
     3
 72
    18
 73
    14
 74
     0
 42
0.00000001
 43
0.00000001
 40
0.0
 40
0.0
 40
0.0
 40
0.0
 40
0.0678108924063724
 40
0.1724250529584351
 40
0.2749455449208874
 40
0.3789713592796783
 40
0.482788778473722
 40
0.5854809833956313
 40
0.6900592986889219
 40
0.7923548515618082
 40
0.8967364528047941
 40
0.9999743612808151
 40
1.0
 40
1.0
 40
1.0
 40
1.0
 10
40.24048675169696
 20
251.1723063316825
 30
0.0
 10
40.26333332632226
 20
251.185613016645
 30
0.0
 10
40.32142608546307
 20
251.2194483752125
 30
0.0
 10
40.44512415381688
 20
251.2088921118852
 30
0.0
 10
40.59071510711858
 20
251.1474012747897
 30
0.0
 10
40.73416315106711
 20
251.0343013096394
 30
0.0
 10
40.85934872648919
 20
250.8838068642972
 30
0.0
 10
40.95429709463222
 20
250.7110991216401
 30
0.0
 10
41.00995429869604
 20
250.5370696847571
 30
0.0
 10
41.02143667412449
 20
250.37564145972
 30
0.0
 10
40.98547220774562
 20
250.2550765787455
 30
0.0
 10
40.94252766032285
 20
250.1879370803292
 30
0.0
 10
40.90785500194114
 20
250.1799620323023
 30
0.0
 10
40.90784639326387
 20
250.179960052223
 30
0.0
  0
SPLINE
  5
200
330
1F
100
AcDbEntity
  8
0
  6
Continuous
 62
     7
370
    15
100
AcDbSpline
210
0.0
220
0.0
230
1.0
 70
     8
 71
     3
 72
    15
 73
    11
 74
     0
 42
0.00000001
 43
0.00000001
 40
0.0
 40
0.0
 40
0.0
 40
0.0
 40
0.1471513764666033
 40
0.2931439418170002
 40
0.4345185932675882
 40
0.5739753468115054
 40
0.7060873453253497
 40
0.8384187117728269
 40
0.9616838469071132
 40
1.0
 40
1.0
 40
1.0
 40
1.0
 10
40.21316295188149
 20
250.3607011111766
 30
0.0
 10
40.17908069653445
 20
250.4187340957321
 30
0.0
 10
40.11118458221768
 20
250.5343430574455
 30
0.0
 10
39.9758906246845
 20
250.666890731924
 30
0.0
 10
39.83706838366815
 20
250.7495825675662
 30
0.0
 10
39.70975338674454
 20
250.7705826213934
 30
0.0
 10
39.60789506242777
 20
250.7327753408283
 30
0.0
 10
39.54353767413588
 20
250.6439919888373
 30
0.0
 10
39.52559503353635
 20
250.5450096021029
 30
0.0
 10
39.52877928749248
 20
250.4835257536138
 30
0.0
 10
39.52953437716535
 20
250.4689459431834
 30
0.0
  0
ARC
  5
201
330
1F
100
AcDbEntity
  8
0
  6
Continuous
 62
     7
370
    15
100
AcDbCircle
 10
45.0533474331
 20
248.3068859952
 30
0.0
 40
2.709121663381123
100
AcDbArc
 50
169.5705228964
 51
198.4216747747
  0
LINE
  5
202
330
1F
100
AcDbEntity
  8
0
  6
Continuous
 62
     7
370
    15
100
AcDbLine
 10
42.7936334052
 20
246.7816414241
 30
0.0
 11
42.8033633701
 21
246.8453138809
 31
0.0
  0
LINE
  5
203
330
1F
100
AcDbEntity
  8
0
  6
Continuous
 62
     7
370
    15
100
AcDbLine
 10
42.5466248884
 20
247.3984484859
 30
0.0
 11
42.4830505511
 21
247.4507819565
 31
0.0
  0
LWPOLYLINE
  5
204
330
1F
100
AcDbEntity
  8
0
  6
Continuous
 62
     7
370
    15
100
AcDbPolyline
 90
       11
 70
   128
 43
0.0
 10
47.6997083929
 20
243.9494246192
 10
47.0339394605
 20
244.1037032551
 10
46.3947889513
 20
244.2917928291
 10
45.7873967284
 20
244.5121807795
 10
45.2166472637
 20
244.7630948103
 10
44.6871303591
 20
245.0425171435
 10
44.2031042359
 20
245.3482007459
 10
43.7684612919
 20
245.6776873985
 10
43.3866967994
 20
246.0283274652
 10
43.0608807979
 20
246.3973012004
 10
42.7936334052
 20
246.7816414241
  0
LINE
  5
205
330
1F
100
AcDbEntity
  8
0
  6
Continuous
 62
     7
370
    15
100
AcDbLine
 10
48.8588193844
 20
243.7701289539
 30
0.0
 11
48.7681653319
 21
243.8068296376
 31
0.0
  0
LINE
  5
206
330
1F
100
AcDbEntity
  8
0
  6
Continuous
 62
     7
370
    15
100
AcDbLine
 10
47.8100042739
 20
243.9550416083
 30
0.0
 11
47.6997083929
 21
243.9494246192
 31
0.0
  0
ARC
  5
207
330
1F
100
AcDbEntity
  8
0
  6
Continuous
 62
     7
370
    15
100
AcDbCircle
 10
50.3825300351
 20
256.1009526863
 30
0.0
 40
12.42460897033204
100
AcDbArc
 50
262.955712535
 51
294.6303653307
  0
LINE
  5
208
330
1F
100
AcDbEntity
  8
0
  6
Continuous
 62
     7
370
    15
100
AcDbLine
 10
56.4091705878
 20
245.2966371206
 30
0.0
 11
56.3087865705
 21
245.2696653475
 31
0.0
  0
LINE
  5
209
330
1F
100
AcDbEntity
  8
0
  6
Continuous
 62
     7
370
    15
100
AcDbLine
 10
55.6073639942
 20
244.8647427132
 30
0.0
 11
55.5606424504
 21
244.8067922535
 31
0.0
  0
LWPOLYLINE
  5
20A
330
1F
100
AcDbEntity
  8
0
  6
Continuous
 62
     7
370
    15
100
AcDbPolyline
 90
       11
 70
   128
 43
0.0
 10
58.2989846086
 20
248.7973051285
 10
58.3063601012
 20
248.7555295098
 10
58.3437704215
 20
248.3419440948
 10
58.3168487843
 20
247.9280869142
 10
58.2258116854
 20
247.5172860875
 10
58.0713912189
 20
247.1128451557
 10
57.8548291894
 20
246.7180165155
 10
57.5778671259
 20
246.3359752644
 10
57.242732277
 20
245.9697936673
 10
56.8521196999
 20
245.6224164504
 10
56.4091705878
 20
245.2966371206
  0
LWPOLYLINE
  5
20B
330
1F
100
AcDbEntity
  8
0
  6
Continuous
 62
     7
370
    15
100
AcDbPolyline
 90
       52
 70
   128
 43
0.0
 10
42.3889846086
 20
250.4803149524
 10
42.1465975793
 20
250.1557269544
 10
41.9164253245
 20
249.7704370866
 10
41.7404946693
 20
249.3757356192
 10
41.6199379415
 20
248.9741629366
 10
41.5555310704
 20
248.5683036476
 10
41.5476885926
 20
248.1607699507
 10
41.5964609839
 20
247.7541848211
 10
41.7015343347
 20
247.351165129
 10
41.8622323701
 20
246.9543047964
 10
42.0775208027
 20
246.5661581025
 10
42.3460139894
 20
246.1892232438
 10
42.6659838498
 20
245.8259262546
 10
43.0353709886
 20
245.4786053932
 10
43.4517979499
 20
245.1494960921
 10
43.9125845196
 20
244.84071657
 10
44.4147649752
 20
244.5542541989
 10
44.9551071745
 20
244.2919527129
 10
45.5301333579
 20
244.0555003411
 10
46.1361425321
 20
243.8464189423
 10
46.7692342906
 20
243.6660542098
 10
47.4253339176
 20
243.51556701
 10
48.1002186135
 20
243.3959259113
 10
48.789544674
 20
243.3079009497
 10
49.4888754471
 20
243.252058673
 10
50.1937098883
 20
243.2287584941
 10
50.8995115301
 20
243.2381503781
 10
51.6017376803
 20
243.2801738767
 10
52.2958686588
 20
243.3545585177
 10
52.9774368881
 20
243.4608255453
 10
53.6420556474
 20
243.5982910018
 10
54.2854473061
 20
243.7660701299
 10
54.903470856
 20
243.9630830666
 10
55.4921485633
 20
244.188061794
 10
56.0476915708
 20
244.4395583
 10
56.5665242831
 20
244.7159538988
 10
57.0453073803
 20
245.0154696482
 10
57.4809593105
 20
245.3361778
 10
57.8706761235
 20
245.6760142068
 10
58.2119495173
 20
246.0327916079
 10
58.5025829823
 20
246.4042137065
 10
58.7407059385
 20
246.7878899495
 10
58.9247857749
 20
247.1813509133
 10
59.0536377137
 20
247.5820641977
 10
59.1264324359
 20
247.9874507253
 10
59.142701419
 20
248.3949013403
 10
59.1023399521
 20
248.8017936022
 10
59.0056078104
 20
249.2055086643
 10
58.853127583
 20
249.6034481286
 10
58.6458806658
 20
249.9930507706
 10
58.3852009447
 20
250.3718090232
 10
58.2989846086
 20
250.4803149524
  0
LINE
  5
20C
330
1F
100
AcDbEntity
  8
0
  6
Continuous
 62
     7
370
    15
100
AcDbLine
 10
39.9396563103
 20
253.0081874911
 30
0.0
 11
42.3889846086
 21
251.5942203615
 31
0.0
  0
ARC
  5
20D
330
1F
100
AcDbEntity
  8
0
  6
Continuous
 62
     7
370
    15
100
AcDbCircle
 10
40.0171198237
 20
253.212289519
 30
0.0
 40
0.2183076584171318
100
AcDbArc
 50
110.7834207995
 51
249.2165792005
  0
LINE
  5
20E
330
1F
100
AcDbEntity
  8
0
  6
Continuous
 62
     7
370
    15
100
AcDbLine
 10
40.0103669884
 20
253.4572119526
 30
0.0
 11
39.9396563103
 21
253.416391547
 31
0.0
  0
LINE
  5
20F
330
1F
100
AcDbEntity
  8
0
  6
Continuous
 62
     7
370
    15
100
AcDbLine
 10
40.7881844477
 20
253.0081874911
 30
0.0
 11
40.0103669884
 21
253.4572119526
 31
0.0
  0
LINE
  5
210
330
1F
100
AcDbEntity
  8
0
  6
Continuous
 62
     7
370
    15
100
AcDbLine
 10
42.3438193663
 20
252.110138568
 30
0.0
 11
40.7881844477
 21
253.0081874911
 31
0.0
  0
LINE
  5
211
330
1F
100
AcDbEntity
  8
0
  6
Continuous
 62
     7
370
    15
100
AcDbLine
 10
42.3889846086
 20
252.0840652286
 30
0.0
 11
42.3438193663
 21
252.110138568
 31
0.0
  0
LWPOLYLINE
  5
212
330
1F
100
AcDbEntity
  8
0
  6
Continuous
 62
     7
370
    15
100
AcDbPolyline
 90
       41
 70
   128
 43
0.0
 10
41.5439846086
 20
245.6952189928
 10
41.5476885926
 20
245.5478393527
 10
41.5964609839
 20
245.1412542231
 10
41.7015343347
 20
244.7382345309
 10
41.8622323701
 20
244.3413741983
 10
42.0775208027
 20
243.9532275045
 10
42.3460139894
 20
243.5762926457
 10
42.6659838498
 20
243.2129956566
 10
43.0353709886
 20
242.8656747952
 10
43.4517979499
 20
242.5365654941
 10
43.9125845196
 20
242.227785972
 10
44.4147649752
 20
241.9413236009
 10
44.9551071745
 20
241.6790221149
 10
45.5301333579
 20
241.4425697431
 10
46.1361425321
 20
241.2334883443
 10
46.7692342906
 20
241.0531236117
 10
47.4253339176
 20
240.902636412
 10
48.1002186135
 20
240.7829953133
 10
48.789544674
 20
240.6949703517
 10
49.4888754471
 20
240.6391280749
 10
50.1937098883
 20
240.6158278961
 10
50.8995115301
 20
240.62521978
 10
51.6017376803
 20
240.6672432787
 10
52.2958686588
 20
240.7416279197
 10
52.9774368881
 20
240.8478949472
 10
53.6420556474
 20
240.9853604038
 10
54.2854473061
 20
241.1531395319
 10
54.903470856
 20
241.3501524686
 10
55.4921485633
 20
241.5751311959
 10
56.0476915708
 20
241.826627702
 10
56.5665242831
 20
242.1030233008
 10
57.0453073803
 20
242.4025390502
 10
57.4809593105
 20
242.7232472019
 10
57.8706761235
 20
243.0630836088
 10
58.2119495173
 20
243.4198610099
 10
58.5025829823
 20
243.7912831085
 10
58.7407059385
 20
244.1749593514
 10
58.9247857749
 20
244.5684203152
 10
59.0536377137
 20
244.9691335997
 10
59.1264324359
 20
245.3745201273
 10
59.1439846086
 20
245.6952189928
  0
LINE
  5
213
330
1F
100
AcDbEntity
  8
0
  6
Continuous
 62
     7
370
    15
100
AcDbLine
 10
41.0289258386
 20
249.7664349792
 30
0.0
 11
41.7343817181
 21
249.3591839685
 31
0.0
  0
ARC
  5
214
330
1F
100
AcDbEntity
  8
0
  6
Continuous
 62
     7
370
    15
100
AcDbCircle
 10
40.8225943641
 20
252.7830873974
 30
0.0
 40
0.4610414422717337
100
AcDbArc
 50
2.6054784857
 51
57.39452166
  0
LINE
  5
215
330
1F
100
AcDbEntity
  8
0
  6
Continuous
 62
     7
370
    15
100
AcDbLine
 10
41.2831591945
 20
252.8040456531
 30
0.0
 11
41.2831591945
 21
252.7224446519
 31
0.0
  0
ARC
  5
216
330
1F
100
AcDbEntity
  8
0
  6
Continuous
 62
     7
370
    15
100
AcDbCircle
 10
40.9831511437
 20
253.0488047147
 30
0.0
 40
0.1508931707708056
100
AcDbArc
 50
54.3824225249
 51
114.307119046
  0
LINE
  5
217
330
1F
100
AcDbEntity
  8
0
  6
Continuous
 62
     7
370
    15
100
AcDbLine
 10
41.7899973669
 20
257.1574313126
 30
0.0
 11
41.1514520828
 21
256.7888069664
 31
0.0
  0
ARC
  5
218
330
1F
100
AcDbEntity
  8
0
  6
Continuous
 62
     7
370
    15
100
AcDbCircle
 10
41.2227084234
 20
256.6167275516
 30
0.0
 40
0.1862492713491488
100
AcDbArc
 50
112.4939500326
 51
186.4952195403
  0
LINE
  5
219
330
1F
100
AcDbEntity
  8
0
  6
Continuous
 62
     7
370
    15
100
AcDbLine
 10
41.4188475383
 20
254.9085477843
 30
0.0
 11
41.0376546308
 21
256.5956589754
 31
0.0
  0
ARC
  5
21A
330
1F
100
AcDbEntity
  8
0
  6
Continuous
 62
     7
370
    15
100
AcDbCircle
 10
41.6299396812
 20
254.9733604857
 30
0.0
 40
0.2208179772302674
100
AcDbArc
 50
197.0683250985
 51
243.8571682933
  0
LINE
  5
21B
330
1F
100
AcDbEntity
  8
0
  6
Continuous
 62
     7
370
    15
100
AcDbLine
 10
42.3889846086
 20
254.2807781916
 30
0.0
 11
41.5326449903
 21
254.7751325306
 31
0.0
  0
LINE
  5
21C
330
1F
100
AcDbEntity
  8
0
  6
Continuous
 62
     7
370
    15
100
AcDbLine
 10
40.6841168528
 20
254.2852876635
 30
0.0
 11
42.3889846086
 21
253.3010884574
 31
0.0
  0
ARC
  5
21D
330
1F
100
AcDbEntity
  8
0
  6
Continuous
 62
     7
370
    15
100
AcDbCircle
 10
40.4214482288
 20
253.8005926148
 30
0.0
 40
0.5512931128830786
100
AcDbArc
 50
61.5456051084
 51
86.7180164733
  0
LINE
  5
21E
330
1F
100
AcDbEntity
  8
0
  6
Continuous
 62
     7
370
    15
100
AcDbLine
 10
37.5305308564
 20
254.5710395157
 30
0.0
 11
40.453009814
 21
254.3509815342
 31
0.0
  0
ARC
  5
21F
330
1F
100
AcDbEntity
  8
0
  6
Continuous
 62
     7
370
    15
100
AcDbCircle
 10
37.4737163253
 20
253.9755459634
 30
0.0
 40
0.5981976777979535
100
AcDbArc
 50
84.5500510983
 51
117.6671643603
  0
LINE
  5
220
330
1F
100
AcDbEntity
  8
0
  6
Continuous
 62
     7
370
    15
100
AcDbLine
 10
37.1959524703
 20
254.505345645
 30
0.0
 11
36.5574071861
 21
254.1367212988
 31
0.0
  0
LINE
  5
221
330
1F
100
AcDbEntity
  8
0
  6
Continuous
 62
     7
370
    15
100
AcDbLine
 10
41.3657332982
 20
257.4023537461
 30
0.0
 11
36.1331431174
 21
254.3816437324
 31
0.0
  0
LINE
  5
222
330
1F
100
AcDbEntity
  8
0
  6
Continuous
 62
     7
370
    15
100
AcDbLine
 10
39.7932097008
 20
252.0233586546
 30
0.0
 11
38.890859564
 21
252.5442743006
 31
0.0
  0
LINE
  5
223
330
1F
100
AcDbEntity
  8
0
  6
Continuous
 62
     7
370
    15
100
AcDbLine
 10
38.890859564
 20
253.8507395996
 30
0.0
 11
39.8240156788
 21
253.312040041
 31
0.0
  0
LWPOLYLINE
  5
224
330
1F
100
AcDbEntity
  8
0
  6
Continuous
 62
     7
370
    15
100
AcDbPolyline
 90
       22
 70
   128
 43
0.0
 10
36.5574071861
 20
254.1367212988
 10
36.2833963137
 20
253.954825965
 10
36.0155063913
 20
253.729569424
 10
35.7597216373
 20
253.4659835347
 10
35.5217558602
 20
253.1699563704
 10
35.3069248224
 20
252.8481006887
 10
35.1200274943
 20
252.5076062137
 10
34.9652388533
 20
252.1560790293
 10
34.8460166219
 20
251.8013716719
 10
34.7650240276
 20
251.4514077178
 10
34.7240703114
 20
251.1140047834
 10
34.7240703114
 20
250.7966998927
 10
34.7650240276
 20
250.5065811126
 10
34.8460166219
 20
250.2501292173
 10
34.9652388533
 20
250.0330729184
 10
35.1200274943
 20
249.8602608948
 10
35.3069248224
 20
249.7355534817
 10
35.5217558602
 20
249.6617364365
 10
35.7597216373
 20
249.6404587102
 10
36.0155063913
 20
249.6721956118
 10
36.2833963137
 20
249.7562381916
 10
36.5574071861
 20
249.890709077
  0
LWPOLYLINE
  5
225
330
1F
100
AcDbEntity
  8
0
  6
Continuous
 62
     7
370
    15
100
AcDbPolyline
 90
       17
 70
   128
 43
0.0
 10
36.1331431174
 20
254.3816437324
 10
35.859132245
 20
254.1997483986
 10
35.5912423226
 20
253.9744918576
 10
35.3354575685
 20
253.7109059683
 10
35.0974917915
 20
253.414878804
 10
34.8826607537
 20
253.0930231222
 10
34.6957634256
 20
252.7525286472
 10
34.5409747846
 20
252.4010014628
 10
34.4217525532
 20
252.0462941054
 10
34.3407599589
 20
251.6963301513
 10
34.2998062427
 20
251.3589272169
 10
34.2998062427
 20
251.0416223262
 10
34.3407599589
 20
250.7515035461
 10
34.4217525532
 20
250.4950516509
 10
34.5409747846
 20
250.2779953519
 10
34.6957634256
 20
250.1051833284
 10
34.833248765
 20
250.0069105793
  0
LWPOLYLINE
  5
226
330
1F
100
AcDbEntity
  8
0
  6
Continuous
 62
     7
370
    15
100
AcDbPolyline
 90
       15
 70
   128
 43
0.0
 10
37.1107524728
 20
252.9643876682
 10
37.0218875647
 20
253.0023169583
 10
36.8654849434
 20
253.0163017095
 10
36.6924737705
 20
252.9762367618
 10
36.512181123
 20
252.8842820269
 10
36.3343266243
 20
252.7453948084
 10
36.1684984565
 20
252.5670625521
 10
36.0236364589
 20
252.3588991962
 10
35.9075501794
 20
252.1321268811
 10
35.8264978593
 20
251.898970961
 10
35.7848490502
 20
251.6720009318
 10
35.7848490502
 20
251.4634528066
 10
35.8264978593
 20
251.2845694688
 10
35.9075501794
 20
251.1449945655
 10
36.0070874826
 20
251.0612720822
  0
LINE
  5
227
330
1F
100
AcDbEntity
  8
0
  6
Continuous
 62
     7
370
    15
100
AcDbLine
 10
36.5574071861
 20
249.890709077
 30
0.0
 11
37.1959524703
 21
250.2593334232
 31
0.0
  0
ELLIPSE
  5
228
330
1F
100
AcDbEntity
  8
0
  6
Continuous
 62
     7
370
    15
100
AcDbEllipse
 10
40.2626467195
 20
253.7120829206
 30
0.0
 11
0.3248626326241819
 21
-0.03262349155917832
 31
0.0
210
0.0
220
0.0
230
1.0
 40
0.498302918
 41
0.9956095579898632
 42
1.620795405373534
  0
LINE
  5
229
330
1F
100
AcDbEntity
  8
0
  6
Continuous
 62
     7
370
    15
100
AcDbLine
 10
37.5854316603
 20
254.076981086
 30
0.0
 11
40.2626467195
 21
253.875391083
 31
0.0
  0
ELLIPSE
  5
22A
330
1F
100
AcDbEntity
  8
0
  6
Continuous
 62
     7
370
    15
100
AcDbEllipse
 10
37.5854316603
 20
253.9136729236
 30
0.0
 11
0.2493250963125178
 21
-0.032473268867534
 31
0.0
210
0.0
220
0.0
230
1.0
 40
0.6463532555
 41
1.654782375241925
 42
1.876003878303275
  0
SPLINE
  5
22B
330
1F
100
AcDbEntity
  8
0
  6
Continuous
 62
     7
370
    15
100
AcDbSpline
210
0.0
220
0.0
230
1.0
 70
     8
 71
     3
 72
    10
 73
     6
 74
     0
 42
0.00000001
 43
0.00000001
 40
0.0
 40
0.0
 40
0.0
 40
0.0
 40
0.005812712520978
 40
0.525353486274923
 40
1.0
 40
1.0
 40
1.0
 40
1.0
 10
40.68411685284946
 20
253.632055014016
 30
0.0
 10
40.6837721515136
 20
253.6325345545621
 30
0.0
 10
40.65261801343018
 20
253.675875472735
 30
0.0
 10
40.58433344269398
 20
253.7557170381007
 30
0.0
 10
40.49544640722121
 20
253.8061095474373
 30
0.0
 10
40.45300981400194
 20
253.830168021304
 30
0.0
  0
LWPOLYLINE
  5
22C
330
1F
100
AcDbEntity
  8
0
  6
Continuous
 62
     7
370
    15
100
AcDbPolyline
 90
       19
 70
   128
 43
0.0
 10
37.0170265939
 20
252.1565866075
 10
36.9957047155
 20
252.2839144518
 10
36.9343108135
 20
252.3712669622
 10
36.8402498986
 20
252.4081081367
 10
36.7248671053
 20
252.3899943858
 10
36.6020793013
 20
252.3191104954
 10
36.486696508
 20
252.2040061087
 10
36.3926355931
 20
252.0585645135
 10
36.3312416911
 20
251.9003281127
 10
36.3099198127
 20
251.7483825516
 10
36.3312416911
 20
251.6210547072
 10
36.3926355931
 20
251.5337021968
 10
36.486696508
 20
251.4968610224
 10
36.6020793013
 20
251.5149747732
 10
36.7248671053
 20
251.5858586637
 10
36.8402498986
 20
251.7009630504
 10
36.9343108135
 20
251.8464046455
 10
36.9957047155
 20
252.0046410463
 10
37.0170265939
 20
252.1565866075
  0
SPLINE
  5
22D
330
1F
100
AcDbEntity
  8
0
  6
Continuous
 62
     7
370
    15
100
AcDbSpline
210
0.0
220
0.0
230
1.0
 70
     8
 71
     3
 72
    11
 73
     7
 74
     0
 42
0.00000001
 43
0.00000001
 40
0.0
 40
0.0
 40
0.0
 40
0.0
 40
0.2437722265381637
 40
0.5898745343511634
 40
0.9957033098433982
 40
1.0
 40
1.0
 40
1.0
 40
1.0
 10
37.53053085635486
 20
254.0771352336445
 30
0.0
 10
37.4976473259522
 20
254.0709295733114
 30
0.0
 10
37.41807650092607
 20
254.0559132564353
 30
0.0
 10
37.30084618827281
 20
253.9762372465612
 30
0.0
 10
37.22919697833844
 20
253.8983724322232
 30
0.0
 10
37.1962971462041
 20
253.8525926089754
 30
0.0
 10
37.19595247025315
 20
253.852112995461
 30
0.0
  0
LINE
  5
22E
330
1F
100
AcDbEntity
  8
0
  6
Continuous
 62
     7
370
    15
100
AcDbLine
 10
39.3151236327
 20
253.2790416012
 30
0.0
 11
39.7393877015
 21
253.0341191677
 31
0.0
  0
LINE
  5
22F
330
1F
100
AcDbEntity
  8
0
  6
Continuous
 62
     7
370
    15
100
AcDbLine
 10
39.7932097008
 20
253.0030483888
 30
0.0
 11
39.7393877015
 21
253.0341191677
 31
0.0
  0
LINE
  5
230
330
1F
100
AcDbEntity
  8
0
  6
Continuous
 62
     7
370
    15
100
AcDbLine
 10
39.5264864324
 20
250.6646595252
 30
0.0
 11
37.5854316603
 21
250.8108178385
 31
0.0
  0
ELLIPSE
  5
231
330
1F
100
AcDbEntity
  8
0
  6
Continuous
 62
     7
370
    15
100
AcDbEllipse
 10
37.5854316603
 20
250.9741260008
 30
0.0
 11
0.2493250963125178
 21
-0.03247326886750557
 31
0.0
210
0.0
220
0.0
230
0.9999999999999999
 40
0.6463532555
 41
4.575153525770359
 42
4.796375028831641
  0
LINE
  5
232
330
1F
100
AcDbEntity
  8
0
  6
Continuous
 62
     7
370
    15
100
AcDbLine
 10
37.5305308564
 20
250.3250272939
 30
0.0
 11
39.5919209263
 21
250.1698079255
 31
0.0
  0
LINE
  5
233
330
1F
100
AcDbEntity
  8
0
  6
Continuous
 62
     7
370
    15
100
AcDbLine
 10
38.890859564
 20
252.5442743006
 30
0.0
 11
38.890859564
 21
253.8507395996
 31
0.0
  0
LWPOLYLINE
  5
234
330
1F
100
AcDbEntity
  8
0
  6
Continuous
 62
     7
370
    15
100
AcDbPolyline
 90
        9
 70
   128
 43
0.0
 10
42.3403170704
 20
255.9868683074
 10
42.3237680941
 20
255.9958877738
 10
42.1789060965
 20
256.0367970274
 10
42.0130779287
 20
256.0236681564
 10
41.83522343
 20
255.9572089416
 10
41.6549307825
 20
255.8410022166
 10
41.4819196096
 20
255.6813127159
 10
41.3255169883
 20
255.4867493419
 10
41.2975497663
 20
255.4453962525
  0
ARC
  5
235
330
1F
100
AcDbEntity
  8
0
  6
Continuous
 62
     7
370
    15
100
AcDbCircle
 10
42.729674808
 20
255.6048145528
 30
0.0
 40
1.814831258250159
100
AcDbArc
 50
100.8200796657
 51
121.1832384781
  0
LINE
  5
236
330
1F
100
AcDbEntity
  8
0
  6
Continuous
 62
     7
370
    15
100
AcDbLine
 10
39.7393877015
 20
253.0341191677
 30
0.0
 11
39.7393877015
 21
253.3608947325
 31
0.0
  0
SPLINE
  5
237
330
1F
100
AcDbEntity
  8
0
  6
Continuous
 62
     7
370
    15
100
AcDbSpline
210
0.0
220
0.0
230
1.0
 70
     8
 71
     3
 72
     9
 73
     5
 74
     0
 42
0.00000001
 43
0.00000001
 40
0.0
 40
0.0
 40
0.0
 40
0.0
 40
0.091748357963852
 40
1.0
 40
1.0
 40
1.0
 40
1.0
 10
41.15145208275412
 20
256.135574316917
 30
0.0
 10
41.15110703757858
 20
256.1356571767911
 30
0.0
 10
41.14734625991233
 20
256.1365602978498
 30
0.0
 10
41.14408739964989
 20
256.1371581239978
 30
0.0
 10
41.14112753446536
 20
256.1377011005785
 30
0.0
  0
SPLINE
  5
238
330
1F
100
AcDbEntity
  8
0
  6
Continuous
 62
     7
370
    15
100
AcDbSpline
210
0.0
220
0.0
230
1.0
 70
     8
 71
     3
 72
    11
 73
     7
 74
     0
 42
0.00000001
 43
0.00000001
 40
0.0
 40
0.0
 40
0.0
 40
0.0
 40
0.0042966901565942
 40
0.4101254656488348
 40
0.7562277734618332
 40
1.0
 40
1.0
 40
1.0
 40
1.0
 10
37.19595247025315
 20
250.9125660726723
 30
0.0
 10
37.1962971462041
 20
250.9124834619786
 30
0.0
 10
37.22919697833839
 20
250.9045981484088
 30
0.0
 10
37.30084618827283
 20
250.8840989471176
 30
0.0
 10
37.41807650092608
 20
250.8470794309196
 30
0.0
 10
37.4976473259522
 20
250.8271624784993
 30
0.0
 10
37.53053085635486
 20
250.8189315759011
 30
0.0
  0
ARC
  5
239
330
1F
100
AcDbEntity
  8
0
  6
Continuous
 62
     7
370
    15
100
AcDbCircle
 10
37.4737163253
 20
249.7295337416
 30
0.0
 40
0.5981976777978186
100
AcDbArc
 50
84.5500510982
 51
117.6671643603
  0
ELLIPSE
  5
23A
330
1F
100
AcDbEntity
  8
0
  6
Continuous
 62
     7
370
    15
100
AcDbEllipse
 10
39.456544989
 20
253.19737425
 30
0.0
 11
0.2000000010438328
 21
-0.1154763104051994
 31
0.0
210
0.0
220
0.0
230
1.0
 40
0.0000703729
 41
2.356235119646884
 42
3.141633283995898
  0
ARC
  5
23B
330
1F
100
AcDbEntity
  8
0
  6
Continuous
 62
     7
370
    15
100
AcDbCircle
 10
42.1892727363
 20
256.1393625806
 30
0.0
 40
1.507767850250559
100
AcDbArc
 50
82.3885010302
 51
123.1065531305
  0
LWPOLYLINE
  5
23C
330
1F
100
AcDbEntity
  8
0
  6
Continuous
 62
     7
370
    15
100
AcDbPolyline
 90
       16
 70
   128
 43
0.0
 10
41.8964195003
 20
254.565129976
 10
41.9574572861
 20
254.6065686774
 10
42.0728400794
 20
254.7216730641
 10
42.1669009943
 20
254.8671146593
 10
42.2282948963
 20
255.0253510601
 10
42.2496167747
 20
255.1772966212
 10
42.2282948963
 20
255.3046244656
 10
42.1669009943
 20
255.391976976
 10
42.0728400794
 20
255.4288181504
 10
41.9574572861
 20
255.4107043996
 10
41.8346694821
 20
255.3398205092
 10
41.7192866888
 20
255.2247161225
 10
41.6252257739
 20
255.0792745273
 10
41.5638318719
 20
254.9210381265
 10
41.5425099935
 20
254.7690925653
 10
41.5425099935
 20
254.7690925653
  0
LWPOLYLINE
  5
23D
330
1F
100
AcDbEntity
  8
0
  6
Continuous
 62
     7
370
    15
100
AcDbPolyline
 90
       11
 70
   128
 43
0.0
 10
55.969019053
 20
222.3595663675
 10
56.4199820164
 20
222.6426789636
 10
56.8283262236
 20
222.9465829469
 10
57.1911874334
 20
223.2691466492
 10
57.5060204351
 20
223.6081075181
 10
57.7706169014
 20
223.9610879865
 10
57.9831208782
 20
224.3256121501
 10
58.1420418027
 20
224.6991231338
 10
58.246264959
 20
225.0790010264
 10
58.2950592963
 20
225.4625812574
 10
58.2989846086
 20
225.6068296323
  0
LWPOLYLINE
  5
23E
330
1F
100
AcDbEntity
  8
0
  6
Continuous
 62
     7
370
    15
100
AcDbPolyline
 90
       30
 70
   128
 43
0.0
 10
42.3889846086
 20
225.6068296323
 10
42.3894207863
 20
225.5587398094
 10
42.4242891802
 20
225.17465379
 10
42.5147085472
 20
224.7935991737
 10
42.6600446605
 20
224.4182487846
 10
42.8592780916
 20
224.0512354363
 10
43.1110113612
 20
223.6951334635
 10
43.4134787412
 20
223.3524406658
 10
43.7645586403
 20
223.0255607869
 10
44.1617884852
 20
222.7167866544
 10
44.6023819941
 20
222.4282840968
 10
45.08324872
 20
222.1620767524
 10
45.6010157283
 20
221.9200318744
 10
46.1520512555
 20
221.7038472337
 10
46.7324901832
 20
221.5150392102
 10
47.3382611495
 20
221.3549321566
 10
47.9651151062
 20
221.2246491088
 10
48.6086551233
 20
221.1251039088
 10
49.2643672299
 20
221.0569947946
 10
49.9276520767
 20
221.0207995028
 10
50.5938571971
 20
221.0167719172
 10
51.2583096408
 20
221.0449402886
 10
51.9163487513
 20
221.105107036
 10
52.5633588572
 20
221.196850133
 10
53.1948016473
 20
221.3195260675
 10
53.8062480041
 20
221.4722743562
 10
54.3934090709
 20
221.6540235794
 10
54.9521663346
 20
221.863498897
 10
55.4786005145
 20
222.0992309901
 10
55.969019053
 20
222.3595663675
  0
LWPOLYLINE
  5
23F
330
1F
100
AcDbEntity
  8
0
  6
Continuous
 62
     7
370
    15
100
AcDbPolyline
 90
       76
 70
   128
 43
0.0
 10
55.969019053
 20
263.1866069618
 10
56.4199820164
 20
263.4697195579
 10
56.8283262236
 20
263.7736235411
 10
57.1911874334
 20
264.0961872435
 10
57.5060204351
 20
264.4351481124
 10
57.7706169014
 20
264.7881285808
 10
57.9831208782
 20
265.1526527444
 10
58.1420418027
 20
265.5261637281
 10
58.246264959
 20
265.9060416207
 10
58.2950592963
 20
266.2896218517
 10
58.2880825576
 20
266.6742138814
 10
58.2253836796
 20
267.0571200731
 10
58.1074024499
 20
267.4356546149
 10
57.934966422
 20
267.807162359
 10
57.7092851108
 20
268.1690374455
 10
57.4319415085
 20
268.5187415807
 10
57.1048809813
 20
268.8538218413
 10
56.7303976238
 20
269.17192788
 10
56.3111181675
 20
269.4708284117
 10
55.8499835568
 20
269.7484268636
 10
55.3502283194
 20
270.0027760823
 10
54.8153578794
 20
270.2320919907
 10
54.2491239686
 20
270.4347661024
 10
53.6554983111
 20
270.6093768042
 10
53.0386447642
 20
270.7546993275
 10
52.4028901124
 20
270.8697143391
 10
51.7526937179
 20
270.9536150914
 10
51.0926162411
 20
271.0058130809
 10
50.4272876513
 20
271.0259421762
 10
49.7613747505
 20
271.0138611862
 10
49.0995484392
 20
270.9696548504
 10
48.4464509536
 20
270.8936332443
 10
47.8066633032
 20
270.7863296051
 10
47.1846731386
 20
270.6484965905
 10
46.5848432741
 20
270.4811010002
 10
46.0113810851
 20
270.2853169939
 10
45.4683089968
 20
270.0625178558
 10
44.9594362698
 20
269.8142663618
 10
44.4883322806
 20
269.5423038177
 10
44.0583014852
 20
269.2485378454
 10
43.6723602406
 20
268.9350290021
 10
43.3332156475
 20
268.603976327
 10
43.0432465613
 20
268.2577019169
 10
42.804486907
 20
267.8986346379
 10
42.6186114119
 20
267.5292930889
 10
42.4869238592
 20
267.1522679357
 10
42.4103479423
 20
266.7702037387
 10
42.3894207863
 20
266.3857804037
 10
42.4242891802
 20
266.0016943843
 10
42.5147085472
 20
265.6206397679
 10
42.6600446605
 20
265.2452893789
 10
42.8592780916
 20
264.8782760306
 10
43.1110113612
 20
264.5221740578
 10
43.4134787412
 20
264.1794812601
 10
43.7645586403
 20
263.8526013812
 10
44.1617884852
 20
263.5438272487
 10
44.6023819941
 20
263.2553246911
 10
45.08324872
 20
262.9891173467
 10
45.6010157283
 20
262.7470724687
 10
46.1520512555
 20
262.530887828
 10
46.7324901832
 20
262.3420798045
 10
47.3382611495
 20
262.1819727509
 10
47.9651151062
 20
262.0516897031
 10
48.6086551233
 20
261.9521445031
 10
49.2643672299
 20
261.8840353889
 10
49.9276520767
 20
261.8478400971
 10
50.5938571971
 20
261.8438125115
 10
51.2583096408
 20
261.8719808829
 10
51.9163487513
 20
261.9321476303
 10
52.5633588572
 20
262.0238907272
 10
53.1948016473
 20
262.1465666618
 10
53.8062480041
 20
262.2993149504
 10
54.3934090709
 20
262.4810641737
 10
54.9521663346
 20
262.6905394913
 10
55.4786005145
 20
262.9262715844
 10
55.969019053
 20
263.1866069618
  0
LWPOLYLINE
  5
240
330
1F
100
AcDbEntity
  8
0
  6
Continuous
 62
     7
370
    15
100
AcDbPolyline
 90
       74
 70
   128
 43
0.0
 10
55.7286027474
 20
269.5423441124
 10
55.2457822184
 20
269.7980564178
 10
54.7266704949
 20
270.0288614657
 10
54.1751108985
 20
270.2330504562
 10
53.5951869834
 20
270.4091116456
 10
52.9911923035
 20
270.5557415382
 10
52.3675986239
 20
270.6718545378
 10
51.7290228142
 20
270.7565909843
 10
51.0801926662
 20
270.8093235187
 10
50.4259118913
 20
270.8296617278
 10
49.7710245554
 20
270.8174550345
 10
49.1203792154
 20
270.772793813
 10
48.4787930215
 20
270.6960087194
 10
47.8510160536
 20
270.5876682435
 10
47.2416961527
 20
270.4485745004
 10
46.6553445101
 20
270.2797572914
 10
46.0963022683
 20
270.0824664802
 10
45.5687083803
 20
269.8581627389
 10
45.0764689669
 20
269.6085067338
 10
44.6232283963
 20
269.3353468308
 10
44.2123423032
 20
269.0407054101
 10
43.8468527444
 20
268.7267638938
 10
43.5294656768
 20
268.395846595
 10
43.2625309232
 20
268.0504035095
 10
43.0480247751
 20
267.6929921773
 10
42.887535361
 20
267.3262587466
 10
42.7822508884
 20
266.9529183836
 10
42.7329508465
 20
266.5757351696
 10
42.7400002358
 20
266.1975016372
 10
42.803346865
 20
265.8210180951
 10
42.9225217378
 20
265.4490718958
 10
43.0966425251
 20
265.0844167988
 10
43.3244200977
 20
264.7297525828
 10
43.6041680699
 20
264.3877050576
 10
43.9338152857
 20
264.0608066235
 10
44.3109211525
 20
263.751477522
 10
44.7326937103
 20
263.4620079177
 10
45.1960103027
 20
263.1945409421
 10
45.6974406958
 20
262.9510568271
 10
46.2332724743
 20
262.7333582441
 10
46.7995385272
 20
262.5430569571
 10
47.3920464188
 20
262.3815618902
 10
48.006409428
 20
262.2500686965
 10
48.638079026
 20
262.1495509056
 10
49.2823785521
 20
262.0807527159
 10
49.934537838
 20
262.0441834853
 10
50.5897285245
 20
262.0401139595
 10
51.2430998091
 20
262.0685742678
 10
51.8898143592
 20
262.1293537002
 10
52.5250841268
 20
262.2220022669
 10
53.1442057966
 20
262.3458340303
 10
53.7425956085
 20
262.4999321835
 10
54.3158232935
 20
262.6831558376
 10
54.8596448746
 20
262.8941484688
 10
55.370034087
 20
263.1313479614
 10
55.8432121875
 20
263.3929981734
 10
56.275675931
 20
263.6771619382
 10
56.6642235072
 20
263.9817354067
 10
57.0059782459
 20
264.3044636234
 10
57.2984099146
 20
264.6429572217
 10
57.5393534514
 20
264.9947101132
 10
57.7270249948
 20
265.3571180427
 10
57.8600350902
 20
265.7274978686
 10
57.9373989775
 20
266.1031074284
 10
57.9585438815
 20
266.4811658402
 10
57.9233132528
 20
266.8588740918
 10
57.8319679265
 20
267.2334357634
 10
57.6851841916
 20
267.6020777316
 10
57.4840487834
 20
267.9620707002
 10
57.2300508382
 20
268.3107494071
 10
56.9250708678
 20
268.6455323572
 10
56.5713668373
 20
268.9639409347
 10
56.1715574475
 20
269.2636177539
 10
55.7286027474
 20
269.5423441124
  0
ENDSEC
  0
SECTION
  2
OBJECTS
  0
DICTIONARY
  5
C
330
0
100
AcDbDictionary
281
     1
  3
ACAD_GROUP
350
D
  3
ACAD_IMAGE_DICT
350
45
  3
ACAD_IMAGE_VARS
350
243
  3
ACAD_LAYOUT
350
1A
  3
ACAD_MLINESTYLE
350
17
  3
ACAD_PLOTSETTINGS
350
19
  3
ACAD_PLOTSTYLENAME
350
E
  3
ACAD_SCALELIST
350
5E
  3
AcDbVariableDictionary
350
241
  0
IMAGEDEF_REACTOR
  5
48
330
47
100
AcDbRasterImageDefReactor
 90
        2
330
47
  0
DICTIONARY
  5
D
102
{ACAD_REACTORS
330
C
102
}
330
C
100
AcDbDictionary
281
     1
  0
DICTIONARY
  5
45
102
{ACAD_REACTORS
330
C
102
}
330
C
100
AcDbDictionary
281
     1
  3
G:\Technical\Neil D\PMMA TYPHOON PROJECT\ASSEMBLIES SOLIDWORKS\Titanium\CAD Images\RP80 w RC80.2\Non Dimensioned\dxfAAA1.bmp
350
46
  0
RASTERVARIABLES
  5
243
102
{ACAD_REACTORS
330
C
102
}
330
C
100
AcDbRasterVariables
 90
        0
 70
     1
 71
     1
 72
     1
  0
DICTIONARY
  5
1A
102
{ACAD_REACTORS
330
C
102
}
330
C
100
AcDbDictionary
281
     1
  3
Layout1
350
1E
  3
Layout2
350
26
  3
Model
350
22
  0
DICTIONARY
  5
17
102
{ACAD_REACTORS
330
C
102
}
330
C
100
AcDbDictionary
281
     1
  3
Standard
350
18
  0
DICTIONARY
  5
19
102
{ACAD_REACTORS
330
C
102
}
330
C
100
AcDbDictionary
281
     1
  0
ACDBDICTIONARYWDFLT
  5
E
102
{ACAD_REACTORS
330
C
102
}
330
C
100
AcDbDictionary
281
     1
  3
Normal
350
F
100
AcDbDictionaryWithDefault
340
F
  0
DICTIONARY
  5
5E
102
{ACAD_REACTORS
330
C
102
}
330
C
100
AcDbDictionary
281
     1
  3
A0
350
5F
  3
A1
350
60
  3
A2
350
61
  3
A3
350
62
  3
A4
350
63
  3
A5
350
64
  3
A6
350
65
  3
A7
350
66
  3
A8
350
67
  3
A9
350
68
  3
B0
350
69
  3
B1
350
6A
  3
B2
350
6B
  3
B3
350
6C
  3
B4
350
6D
  3
B5
350
6E
  3
B6
350
6F
  3
B7
350
70
  3
B8
350
71
  3
B9
350
72
  3
C0
350
73
  3
C1
350
74
  3
C2
350
75
  3
C3
350
76
  3
C4
350
77
  3
C5
350
78
  3
C6
350
79
  3
C7
350
7A
  3
C8
350
7B
  3
C9
350
7C
  3
D0
350
7D
  3
D1
350
7E
  3
D2
350
7F
  0
DICTIONARY
  5
241
102
{ACAD_REACTORS
330
C
102
}
330
C
100
AcDbDictionary
281
     1
  3
CANNOSCALE
350
242
  0
IMAGEDEF
  5
46
102
{ACAD_REACTORS
330
45
330
48
102
}
330
45
100
AcDbRasterImageDef
 90
        0
  1
G:\Technical\Neil D\PMMA TYPHOON PROJECT\ASSEMBLIES SOLIDWORKS\Titanium\CAD Images\RP80 w RC80.2\Non Dimensioned\dxfAAA1.bmp
 10
897.0
 20
146.0
 11
0.2645502645502645
 21
0.2645502645502645
280
     1
281
     3
  0
LAYOUT
  5
1E
102
{ACAD_REACTORS
330
1A
102
}
330
1A
100
AcDbPlotSettings
  1

  2
none_device
  4

  6

 40
0.0
 41
0.0
 42
0.0
 43
0.0
 44
0.0
 45
0.0
 46
0.0
 47
0.0
 48
0.0
 49
0.0
140
0.0
141
0.0
142
1.0
143
1.0
 70
   688
 72
     0
 73
     0
 74
     5
  7

 75
    16
147
1.0
148
0.0
149
0.0
100
AcDbLayout
  1
Layout1
 70
     1
 71
     1
 10
0.0
 20
0.0
 11
420.0
 21
297.0
 12
0.0
 22
0.0
 32
0.0
 14
1.0000000000E+20
 24
1.0000000000E+20
 34
1.0000000000E+20
 15
-1.0000000000E+20
 25
-1.0000000000E+20
 35
-1.0000000000E+20
146
0.0
 13
0.0
 23
0.0
 33
0.0
 16
1.0
 26
0.0
 36
0.0
 17
0.0
 27
1.0
 37
0.0
 76
     0
330
1B
  0
LAYOUT
  5
26
102
{ACAD_REACTORS
330
1A
102
}
330
1A
100
AcDbPlotSettings
  1

  2
none_device
  4

  6

 40
0.0
 41
0.0
 42
0.0
 43
0.0
 44
0.0
 45
0.0
 46
0.0
 47
0.0
 48
0.0
 49
0.0
140
0.0
141
0.0
142
1.0
143
1.0
 70
   688
 72
     0
 73
     0
 74
     5
  7

 75
    16
147
1.0
148
0.0
149
0.0
100
AcDbLayout
  1
Layout2
 70
     1
 71
     2
 10
0.0
 20
0.0
 11
0.0
 21
0.0
 12
0.0
 22
0.0
 32
0.0
 14
0.0
 24
0.0
 34
0.0
 15
0.0
 25
0.0
 35
0.0
146
0.0
 13
0.0
 23
0.0
 33
0.0
 16
1.0
 26
0.0
 36
0.0
 17
0.0
 27
1.0
 37
0.0
 76
     0
330
23
  0
LAYOUT
  5
22
102
{ACAD_REACTORS
330
1A
102
}
330
1A
100
AcDbPlotSettings
  1

  2
none_device
  4

  6

 40
0.0
 41
0.0
 42
0.0
 43
0.0
 44
0.0
 45
0.0
 46
0.0
 47
0.0
 48
0.0
 49
0.0
140
0.0
141
0.0
142
1.0
143
1.0
 70
  1712
 72
     0
 73
     0
 74
     0
  7

 75
     0
147
1.0
148
0.0
149
0.0
100
AcDbLayout
  1
Model
 70
     1
 71
     0
 10
0.0
 20
0.0
 11
210.0
 21
297.0
 12
0.0
 22
0.0
 32
0.0
 14
0.0
 24
0.0
 34
0.0
 15
210.0
 25
297.0
 35
0.0
146
0.0
 13
0.0
 23
0.0
 33
0.0
 16
1.0
 26
0.0
 36
0.0
 17
0.0
 27
1.0
 37
0.0
 76
     0
330
1F
331
29
  0
MLINESTYLE
  5
18
102
{ACAD_REACTORS
330
17
102
}
330
17
100
AcDbMlineStyle
  2
Standard
 70
     0
  3

 62
   256
 51
90.0
 52
90.0
 71
     2
 49
0.5
 62
   256
  6
BYLAYER
 49
-0.5
 62
   256
  6
BYLAYER
  0
ACDBPLACEHOLDER
  5
F
102
{ACAD_REACTORS
330
E
102
}
330
E
  0
SCALE
  5
5F
102
{ACAD_REACTORS
330
5E
102
}
330
5E
100
AcDbScale
 70
     0
300
1:1
140
1.0
141
1.0
290
     1
  0
SCALE
  5
60
102
{ACAD_REACTORS
330
5E
102
}
330
5E
100
AcDbScale
 70
     0
300
1:2
140
1.0
141
2.0
290
     0
  0
SCALE
  5
61
102
{ACAD_REACTORS
330
5E
102
}
330
5E
100
AcDbScale
 70
     0
300
1:4
140
1.0
141
4.0
290
     0
  0
SCALE
  5
62
102
{ACAD_REACTORS
330
5E
102
}
330
5E
100
AcDbScale
 70
     0
300
1:5
140
1.0
141
5.0
290
     0
  0
SCALE
  5
63
102
{ACAD_REACTORS
330
5E
102
}
330
5E
100
AcDbScale
 70
     0
300
1:8
140
1.0
141
8.0
290
     0
  0
SCALE
  5
64
102
{ACAD_REACTORS
330
5E
102
}
330
5E
100
AcDbScale
 70
     0
300
1:10
140
1.0
141
10.0
290
     0
  0
SCALE
  5
65
102
{ACAD_REACTORS
330
5E
102
}
330
5E
100
AcDbScale
 70
     0
300
1:16
140
1.0
141
16.0
290
     0
  0
SCALE
  5
66
102
{ACAD_REACTORS
330
5E
102
}
330
5E
100
AcDbScale
 70
     0
300
1:20
140
1.0
141
20.0
290
     0
  0
SCALE
  5
67
102
{ACAD_REACTORS
330
5E
102
}
330
5E
100
AcDbScale
 70
     0
300
1:30
140
1.0
141
30.0
290
     0
  0
SCALE
  5
68
102
{ACAD_REACTORS
330
5E
102
}
330
5E
100
AcDbScale
 70
     0
300
1:40
140
1.0
141
40.0
290
     0
  0
SCALE
  5
69
102
{ACAD_REACTORS
330
5E
102
}
330
5E
100
AcDbScale
 70
     0
300
1:50
140
1.0
141
50.0
290
     0
  0
SCALE
  5
6A
102
{ACAD_REACTORS
330
5E
102
}
330
5E
100
AcDbScale
 70
     0
300
1:100
140
1.0
141
100.0
290
     0
  0
SCALE
  5
6B
102
{ACAD_REACTORS
330
5E
102
}
330
5E
100
AcDbScale
 70
     0
300
2:1
140
2.0
141
1.0
290
     0
  0
SCALE
  5
6C
102
{ACAD_REACTORS
330
5E
102
}
330
5E
100
AcDbScale
 70
     0
300
4:1
140
4.0
141
1.0
290
     0
  0
SCALE
  5
6D
102
{ACAD_REACTORS
330
5E
102
}
330
5E
100
AcDbScale
 70
     0
300
8:1
140
8.0
141
1.0
290
     0
  0
SCALE
  5
6E
102
{ACAD_REACTORS
330
5E
102
}
330
5E
100
AcDbScale
 70
     0
300
10:1
140
10.0
141
1.0
290
     0
  0
SCALE
  5
6F
102
{ACAD_REACTORS
330
5E
102
}
330
5E
100
AcDbScale
 70
     0
300
100:1
140
100.0
141
1.0
290
     0
  0
SCALE
  5
70
102
{ACAD_REACTORS
330
5E
102
}
330
5E
100
AcDbScale
 70
     0
300
1/128" = 1'-0"
140
0.0078125
141
12.0
290
     0
  0
SCALE
  5
71
102
{ACAD_REACTORS
330
5E
102
}
330
5E
100
AcDbScale
 70
     0
300
1/64" = 1'-0"
140
0.015625
141
12.0
290
     0
  0
SCALE
  5
72
102
{ACAD_REACTORS
330
5E
102
}
330
5E
100
AcDbScale
 70
     0
300
1/32" = 1'-0"
140
0.03125
141
12.0
290
     0
  0
SCALE
  5
73
102
{ACAD_REACTORS
330
5E
102
}
330
5E
100
AcDbScale
 70
     0
300
1/16" = 1'-0"
140
0.0625
141
12.0
290
     0
  0
SCALE
  5
74
102
{ACAD_REACTORS
330
5E
102
}
330
5E
100
AcDbScale
 70
     0
300
3/32" = 1'-0"
140
0.09375
141
12.0
290
     0
  0
SCALE
  5
75
102
{ACAD_REACTORS
330
5E
102
}
330
5E
100
AcDbScale
 70
     0
300
1/8" = 1'-0"
140
0.125
141
12.0
290
     0
  0
SCALE
  5
76
102
{ACAD_REACTORS
330
5E
102
}
330
5E
100
AcDbScale
 70
     0
300
3/16" = 1'-0"
140
0.1875
141
12.0
290
     0
  0
SCALE
  5
77
102
{ACAD_REACTORS
330
5E
102
}
330
5E
100
AcDbScale
 70
     0
300
1/4" = 1'-0"
140
0.25
141
12.0
290
     0
  0
SCALE
  5
78
102
{ACAD_REACTORS
330
5E
102
}
330
5E
100
AcDbScale
 70
     0
300
3/8" = 1'-0"
140
0.375
141
12.0
290
     0
  0
SCALE
  5
79
102
{ACAD_REACTORS
330
5E
102
}
330
5E
100
AcDbScale
 70
     0
300
1/2" = 1'-0"
140
0.5
141
12.0
290
     0
  0
SCALE
  5
7A
102
{ACAD_REACTORS
330
5E
102
}
330
5E
100
AcDbScale
 70
     0
300
3/4" = 1'-0"
140
0.75
141
12.0
290
     0
  0
SCALE
  5
7B
102
{ACAD_REACTORS
330
5E
102
}
330
5E
100
AcDbScale
 70
     0
300
1" = 1'-0"
140
1.0
141
12.0
290
     0
  0
SCALE
  5
7C
102
{ACAD_REACTORS
330
5E
102
}
330
5E
100
AcDbScale
 70
     0
300
1-1/2" = 1'-0"
140
1.5
141
12.0
290
     0
  0
SCALE
  5
7D
102
{ACAD_REACTORS
330
5E
102
}
330
5E
100
AcDbScale
 70
     0
300
3" = 1'-0"
140
3.0
141
12.0
290
     0
  0
SCALE
  5
7E
102
{ACAD_REACTORS
330
5E
102
}
330
5E
100
AcDbScale
 70
     0
300
6" = 1'-0"
140
6.0
141
12.0
290
     0
  0
SCALE
  5
7F
102
{ACAD_REACTORS
330
5E
102
}
330
5E
100
AcDbScale
 70
     0
300
1'-0" = 1'-0"
140
12.0
141
12.0
290
     0
  0
DICTIONARYVAR
  5
242
102
{ACAD_REACTORS
330
241
102
}
330
241
100
DictionaryVariables
280
     0
  1
1:1
  0
ENDSEC
  0
EOF
