  0
SECTION
  2
HEADER
  9
$ACADVER
  1
AC1021
  9
$ACADMAINTVER
 70
    53
  9
$DWGCODEPAGE
  3
ANSI_1252
  9
$LASTSAVEDBY
  1
Dallas Williams
  9
$INSBASE
 10
0.0
 20
0.0
 30
0.0
  9
$EXTMIN
 10
-352.9978835824382
 20
-284.828053151426
 30
0.0
  9
$EXTMAX
 10
600.7384769675089
 20
566.6925966486975
 30
0.0
  9
$LIMMIN
 10
0.0
 20
0.0
  9
$LIMMAX
 10
12.0
 20
9.0
  9
$ORTHOMODE
 70
     1
  9
$REGENMODE
 70
     1
  9
$FILLMODE
 70
     1
  9
$QTEXTMODE
 70
     0
  9
$MIRRTEXT
 70
     0
  9
$LTSCALE
 40
1.0
  9
$ATTMODE
 70
     1
  9
$TEXTSIZE
 40
2.0
  9
$TRACEWID
 40
0.05
  9
$TEXTSTYLE
  7
2mm
  9
$CLAYER
  8
0
  9
$CELTYPE
  6
ByLayer
  9
$CECOLOR
 62
   256
  9
$CELTSCALE
 40
1.0
  9
$DISPSILH
 70
     0
  9
$DIMSCALE
 40
1.0
  9
$DIMASZ
 40
2.5
  9
$DIMEXO
 40
0.0
  9
$DIMDLI
 40
50.0
  9
$DIMRND
 40
0.0
  9
$DIMDLE
 40
0.0
  9
$DIMEXE
 40
0.0
  9
$DIMTP
 40
0.0
  9
$DIMTM
 40
0.0
  9
$DIMTXT
 40
2.5
  9
$DIMCEN
 40
0.09
  9
$DIMTSZ
 40
0.0
  9
$DIMTOL
 70
     0
  9
$DIMLIM
 70
     0
  9
$DIMTIH
 70
     0
  9
$DIMTOH
 70
     0
  9
$DIMSE1
 70
     0
  9
$DIMSE2
 70
     0
  9
$DIMTAD
 70
     1
  9
$DIMZIN
 70
     0
  9
$DIMBLK
  1

  9
$DIMASO
 70
     1
  9
$DIMSHO
 70
     1
  9
$DIMPOST
  1

  9
$DIMAPOST
  1

  9
$DIMALT
 70
     0
  9
$DIMALTD
 70
     2
  9
$DIMALTF
 40
25.4
  9
$DIMLFAC
 40
1.0
  9
$DIMTOFL
 70
     0
  9
$DIMTVP
 40
0.0
  9
$DIMTIX
 70
     0
  9
$DIMSOXD
 70
     0
  9
$DIMSAH
 70
     0
  9
$DIMBLK1
  1

  9
$DIMBLK2
  1

  9
$DIMSTYLE
  2
3D 2.5mm
  9
$DIMCLRD
 70
     0
  9
$DIMCLRE
 70
     0
  9
$DIMCLRT
 70
     0
  9
$DIMTFAC
 40
1.0
  9
$DIMGAP
 40
1.0
  9
$DIMJUST
 70
     0
  9
$DIMSD1
 70
     0
  9
$DIMSD2
 70
     0
  9
$DIMTOLJ
 70
     1
  9
$DIMTZIN
 70
     0
  9
$DIMALTZ
 70
     0
  9
$DIMALTTZ
 70
     0
  9
$DIMUPT
 70
     0
  9
$DIMDEC
 70
     1
  9
$DIMTDEC
 70
     1
  9
$DIMALTU
 70
     2
  9
$DIMALTTD
 70
     2
  9
$DIMTXSTY
  7
Standard
  9
$DIMAUNIT
 70
     0
  9
$DIMADEC
 70
     3
  9
$DIMALTRND
 40
0.0
  9
$DIMAZIN
 70
     0
  9
$DIMDSEP
 70
    46
  9
$DIMATFIT
 70
     3
  9
$DIMFRAC
 70
     0
  9
$DIMLDRBLK
  1

  9
$DIMLUNIT
 70
     2
  9
$DIMLWD
 70
    -2
  9
$DIMLWE
 70
    -2
  9
$DIMTMOVE
 70
     0
  9
$DIMFXL
 40
1.0
  9
$DIMFXLON
 70
     1
  9
$DIMJOGANG
 40
0.7853981633974483
  9
$DIMTFILL
 70
     0
  9
$DIMTFILLCLR
 70
     0
  9
$DIMARCSYM
 70
     0
  9
$DIMLTYPE
  6

  9
$DIMLTEX1
  6

  9
$DIMLTEX2
  6

  9
$LUNITS
 70
     2
  9
$LUPREC
 70
     4
  9
$SKETCHINC
 40
0.1
  9
$FILLETRAD
 40
0.0
  9
$AUNITS
 70
     0
  9
$AUPREC
 70
     2
  9
$MENU
  1
.
  9
$ELEVATION
 40
0.0
  9
$PELEVATION
 40
0.0
  9
$THICKNESS
 40
0.0
  9
$LIMCHECK
 70
     0
  9
$CHAMFERA
 40
0.0
  9
$CHAMFERB
 40
0.0
  9
$CHAMFERC
 40
0.0
  9
$CHAMFERD
 40
0.0
  9
$SKPOLY
 70
     0
  9
$TDCREATE
 40
2456331.736540255
  9
$TDUCREATE
 40
2456331.236540254
  9
$TDUPDATE
 40
2456554.825168727
  9
$TDUUPDATE
 40
2456554.325168727
  9
$TDINDWG
 40
0.1889742014
  9
$TDUSRTIMER
 40
0.1889398380
  9
$USRTIMER
 70
     1
  9
$ANGBASE
 50
0.0
  9
$ANGDIR
 70
     0
  9
$PDMODE
 70
    35
  9
$PDSIZE
 40
0.0
  9
$PLINEWID
 40
0.0
  9
$SPLFRAME
 70
     0
  9
$SPLINETYPE
 70
     6
  9
$SPLINESEGS
 70
     8
  9
$HANDSEED
  5
AC24
  9
$SURFTAB1
 70
     6
  9
$SURFTAB2
 70
     6
  9
$SURFTYPE
 70
     6
  9
$SURFU
 70
     6
  9
$SURFV
 70
     6
  9
$UCSBASE
  2

  9
$UCSNAME
  2

  9
$UCSORG
 10
0.0
 20
0.0
 30
0.0
  9
$UCSXDIR
 10
1.0
 20
0.0
 30
0.0
  9
$UCSYDIR
 10
0.0
 20
1.0
 30
0.0
  9
$UCSORTHOREF
  2

  9
$UCSORTHOVIEW
 70
     0
  9
$UCSORGTOP
 10
0.0
 20
0.0
 30
0.0
  9
$UCSORGBOTTOM
 10
0.0
 20
0.0
 30
0.0
  9
$UCSORGLEFT
 10
0.0
 20
0.0
 30
0.0
  9
$UCSORGRIGHT
 10
0.0
 20
0.0
 30
0.0
  9
$UCSORGFRONT
 10
0.0
 20
0.0
 30
0.0
  9
$UCSORGBACK
 10
0.0
 20
0.0
 30
0.0
  9
$PUCSBASE
  2

  9
$PUCSNAME
  2

  9
$PUCSORG
 10
0.0
 20
0.0
 30
0.0
  9
$PUCSXDIR
 10
1.0
 20
0.0
 30
0.0
  9
$PUCSYDIR
 10
0.0
 20
1.0
 30
0.0
  9
$PUCSORTHOREF
  2

  9
$PUCSORTHOVIEW
 70
     0
  9
$PUCSORGTOP
 10
0.0
 20
0.0
 30
0.0
  9
$PUCSORGBOTTOM
 10
0.0
 20
0.0
 30
0.0
  9
$PUCSORGLEFT
 10
0.0
 20
0.0
 30
0.0
  9
$PUCSORGRIGHT
 10
0.0
 20
0.0
 30
0.0
  9
$PUCSORGFRONT
 10
0.0
 20
0.0
 30
0.0
  9
$PUCSORGBACK
 10
0.0
 20
0.0
 30
0.0
  9
$USERI1
 70
     0
  9
$USERI2
 70
     0
  9
$USERI3
 70
     0
  9
$USERI4
 70
     0
  9
$USERI5
 70
     0
  9
$USERR1
 40
0.0
  9
$USERR2
 40
0.0
  9
$USERR3
 40
0.0
  9
$USERR4
 40
0.0
  9
$USERR5
 40
0.0
  9
$WORLDVIEW
 70
     1
  9
$SHADEDGE
 70
     3
  9
$SHADEDIF
 70
    70
  9
$TILEMODE
 70
     1
  9
$MAXACTVP
 70
    64
  9
$PINSBASE
 10
0.0
 20
0.0
 30
0.0
  9
$PLIMCHECK
 70
     0
  9
$PEXTMIN
 10
0.0014770624390508
 20
0.0010420625153245
 30
0.0
  9
$PEXTMAX
 10
295.4110107424506
 20
208.4114610011634
 30
0.0
  9
$PLIMMIN
 10
-0.79376220703125
 20
-0.7937499880790711
  9
$PLIMMAX
 10
296.2062377929687
 20
209.2062500119209
  9
$UNITMODE
 70
     0
  9
$VISRETAIN
 70
     1
  9
$PLINEGEN
 70
     0
  9
$PSLTSCALE
 70
     1
  9
$TREEDEPTH
 70
  3020
  9
$CMLSTYLE
  2
Standard
  9
$CMLJUST
 70
     0
  9
$CMLSCALE
 40
1.0
  9
$PROXYGRAPHICS
 70
     1
  9
$MEASUREMENT
 70
     0
  9
$CELWEIGHT
370
    -1
  9
$ENDCAPS
280
     0
  9
$JOINSTYLE
280
     0
  9
$LWDISPLAY
290
     0
  9
$INSUNITS
 70
     4
  9
$HYPERLINKBASE
  1

  9
$STYLESHEET
  1

  9
$XEDIT
290
     1
  9
$CEPSNTYPE
380
     0
  9
$PSTYLEMODE
290
     1
  9
$FINGERPRINTGUID
  2
{B3F319F5-93A7-445B-B53A-98059AF014BB}
  9
$VERSIONGUID
  2
{9CA49DDE-4F73-43E0-9A9D-EEE1AEABBF76}
  9
$EXTNAMES
290
     1
  9
$PSVPSCALE
 40
0.0
  9
$OLESTARTUP
290
     0
  9
$SORTENTS
280
   127
  9
$INDEXCTL
280
     0
  9
$HIDETEXT
280
     0
  9
$XCLIPFRAME
290
     0
  9
$HALOGAP
280
     0
  9
$OBSCOLOR
 70
   257
  9
$OBSLTYPE
280
     0
  9
$INTERSECTIONDISPLAY
280
     0
  9
$INTERSECTIONCOLOR
 70
   257
  9
$DIMASSOC
280
     1
  9
$PROJECTNAME
  1

  9
$CAMERADISPLAY
290
     0
  9
$LENSLENGTH
 40
50.0
  9
$CAMERAHEIGHT
 40
0.0
  9
$STEPSPERSEC
 40
2.0
  9
$STEPSIZE
 40
6.0
  9
$3DDWFPREC
 40
2.0
  9
$PSOLWIDTH
 40
0.25
  9
$PSOLHEIGHT
 40
4.0
  9
$LOFTANG1
 40
1.570796326794896
  9
$LOFTANG2
 40
1.570796326794896
  9
$LOFTMAG1
 40
0.0
  9
$LOFTMAG2
 40
0.0
  9
$LOFTPARAM
 70
     7
  9
$LOFTNORMALS
280
     1
  9
$LATITUDE
 40
37.795
  9
$LONGITUDE
 40
-122.394
  9
$NORTHDIRECTION
 40
0.0
  9
$TIMEZONE
 70
 -8000
  9
$LIGHTGLYPHDISPLAY
280
     1
  9
$TILEMODELIGHTSYNCH
280
     1
  9
$CMATERIAL
347
217
  9
$SOLIDHIST
280
     0
  9
$SHOWHIST
280
     1
  9
$DWFFRAME
280
     2
  9
$DGNFRAME
280
     0
  9
$REALWORLDSCALE
290
     1
  9
$INTERFERECOLOR
 62
     1
  9
$INTERFEREOBJVS
345
224
  9
$INTERFEREVPVS
346
221
  9
$CSHADOW
280
     0
  9
$SHADOWPLANELOCATION
 40
0.0
  0
ENDSEC
  0
SECTION
  2
CLASSES
  0
CLASS
  1
ACDBDICTIONARYWDFLT
  2
AcDbDictionaryWithDefault
  3
ObjectDBX Classes
 90
        0
 91
        1
280
     0
281
     0
  0
CLASS
  1
MATERIAL
  2
AcDbMaterial
  3
ObjectDBX Classes
 90
     1153
 91
        3
280
     0
281
     0
  0
CLASS
  1
VISUALSTYLE
  2
AcDbVisualStyle
  3
ObjectDBX Classes
 90
     4095
 91
       16
280
     0
281
     0
  0
CLASS
  1
TABLESTYLE
  2
AcDbTableStyle
  3
ObjectDBX Classes
 90
     4095
 91
        2
280
     0
281
     0
  0
CLASS
  1
DICTIONARYVAR
  2
AcDbDictionaryVar
  3
ObjectDBX Classes
 90
        0
 91
        8
280
     0
281
     0
  0
CLASS
  1
SCALE
  2
AcDbScale
  3
ObjectDBX Classes
 90
     1153
 91
       85
280
     0
281
     0
  0
CLASS
  1
MLEADERSTYLE
  2
AcDbMLeaderStyle
  3
ACDB_MLEADERSTYLE_CLASS
 90
     4095
 91
        2
280
     0
281
     0
  0
CLASS
  1
CELLSTYLEMAP
  2
AcDbCellStyleMap
  3
ObjectDBX Classes
 90
     1152
 91
       13
280
     0
281
     0
  0
CLASS
  1
ACDB_TEXTOBJECTCONTEXTDATA_CLASS
  2
AcDbTextObjectContextData
  3
ObjectDBX Classes
 90
     1153
 91
        0
280
     0
281
     0
  0
CLASS
  1
ACDB_ALDIMOBJECTCONTEXTDATA_CLASS
  2
AcDbAlignedDimensionObjectContextData
  3
ObjectDBX Classes
 90
     1153
 91
        0
280
     0
281
     0
  0
CLASS
  1
MULTILEADER
  2
AcDbMLeader
  3
ACDB_MLEADER_CLASS
 90
     1025
 91
        0
280
     0
281
     1
  0
CLASS
  1
ACDB_MLEADEROBJECTCONTEXTDATA_CLASS
  2
AcDbMLeaderObjectContextData
  3
ObjectDBX Classes
 90
     1153
 91
        5
280
     0
281
     0
  0
CLASS
  1
SORTENTSTABLE
  2
AcDbSortentsTable
  3
ObjectDBX Classes
 90
        0
 91
        3
280
     0
281
     0
  0
CLASS
  1
AEC_REFEDIT_STATUS_TRACKER
  2
AecDbRefEditStatusTracker
  3
AecArchBase50|Product Desc: Autodesk Architectural Desktop 2007 |Company: Autodesk,Inc. |WEB Address: www.autodesk.com
 90
      129
 91
        0
280
     0
281
     0
  0
CLASS
  1
NPOCOLLECTION
  2
AcDbImpNonPersistentObjectsCollection
  3
ObjectDBX Classes
 90
     1153
 91
        1
280
     0
281
     0
  0
CLASS
  1
ACAD_EVALUATION_GRAPH
  2
AcDbEvalGraph
  3
ObjectDBX Classes
 90
     1153
 91
        0
280
     0
281
     0
  0
CLASS
  1
BLOCKPOLARPARAMETER
  2
AcDbBlockPolarParameter
  3
ObjectDBX Classes
 90
     1153
 91
        0
280
     0
281
     0
  0
CLASS
  1
BLOCKPOLARGRIP
  2
AcDbBlockPolarGrip
  3
ObjectDBX Classes
 90
     1153
 91
        0
280
     0
281
     0
  0
CLASS
  1
BLOCKGRIPLOCATIONCOMPONENT
  2
AcDbBlockGripExpr
  3
ObjectDBX Classes
 90
     1153
 91
        0
280
     0
281
     0
  0
CLASS
  1
BLOCKPOLARSTRETCHACTION
  2
AcDbBlockPolarStretchAction
  3
ObjectDBX Classes
 90
     1153
 91
        0
280
     0
281
     0
  0
CLASS
  1
ACDB_DYNAMICBLOCKPURGEPREVENTER_VERSION
  2
AcDbDynamicBlockPurgePreventer
  3
ObjectDBX Classes
 90
     1153
 91
        0
280
     0
281
     0
  0
CLASS
  1
BLOCKROTATIONPARAMETER
  2
AcDbBlockRotationParameter
  3
ObjectDBX Classes
 90
     1153
 91
        0
280
     0
281
     0
  0
CLASS
  1
BLOCKROTATIONGRIP
  2
AcDbBlockRotationGrip
  3
ObjectDBX Classes
 90
     1153
 91
        0
280
     0
281
     0
  0
CLASS
  1
BLOCKFLIPPARAMETER
  2
AcDbBlockFlipParameter
  3
ObjectDBX Classes
 90
     1153
 91
        0
280
     0
281
     0
  0
CLASS
  1
BLOCKFLIPGRIP
  2
AcDbBlockFlipGrip
  3
ObjectDBX Classes
 90
     1153
 91
        0
280
     0
281
     0
  0
CLASS
  1
BLOCKROTATEACTION
  2
AcDbBlockRotateAction
  3
ObjectDBX Classes
 90
     1153
 91
        0
280
     0
281
     0
  0
CLASS
  1
BLOCKFLIPACTION
  2
AcDbBlockFlipAction
  3
ObjectDBX Classes
 90
     1153
 91
        0
280
     0
281
     0
  0
CLASS
  1
BLOCKLINEARPARAMETER
  2
AcDbBlockLinearParameter
  3
ObjectDBX Classes
 90
     1153
 91
        0
280
     0
281
     0
  0
CLASS
  1
BLOCKLINEARGRIP
  2
AcDbBlockLinearGrip
  3
ObjectDBX Classes
 90
     1153
 91
        0
280
     0
281
     0
  0
CLASS
  1
BLOCKSTRETCHACTION
  2
AcDbBlockStretchAction
  3
ObjectDBX Classes
 90
     1153
 91
        0
280
     0
281
     0
  0
CLASS
  1
BLOCKVISIBILITYPARAMETER
  2
AcDbBlockVisibilityParameter
  3
ObjectDBX Classes
 90
     1153
 91
        0
280
     0
281
     0
  0
CLASS
  1
BLOCKVISIBILITYGRIP
  2
AcDbBlockVisibilityGrip
  3
ObjectDBX Classes
 90
     1153
 91
        0
280
     0
281
     0
  0
CLASS
  1
BLOCKPOINTPARAMETER
  2
AcDbBlockPointParameter
  3
ObjectDBX Classes
 90
     1153
 91
        0
280
     0
281
     0
  0
CLASS
  1
BLOCKMOVEACTION
  2
AcDbBlockMoveAction
  3
ObjectDBX Classes
 90
     1153
 91
        0
280
     0
281
     0
  0
CLASS
  1
ACDB_BLOCKREPRESENTATION_DATA
  2
AcDbBlockRepresentationData
  3
ObjectDBX Classes
 90
     1153
 91
        0
280
     0
281
     0
  0
CLASS
  1
ACDB_BLKREFOBJECTCONTEXTDATA_CLASS
  2
AcDbBlkRefObjectContextData
  3
ObjectDBX Classes
 90
     1153
 91
        0
280
     0
281
     0
  0
CLASS
  1
ACDB_MTEXTATTRIBUTEOBJECTCONTEXTDATA_CLASS
  2
AcDbMTextAttributeObjectContextData
  3
ObjectDBX Classes
 90
     1153
 91
        0
280
     0
281
     0
  0
CLASS
  1
AEC_VARS_DWG_SETUP
  2
AecDbVarsDwgSetup
  3
AecBase50|Product Desc: Autodesk Architectural Desktop 2007 |Company: Autodesk,Inc. |WEB Address: www.autodesk.com
 90
      129
 91
        1
280
     0
281
     0
  0
CLASS
  1
AEC_DISP_REP_CONFIG
  2
AecDbDispRepConfig
  3
AecBase50|Product Desc: Autodesk Architectural Desktop 2007 |Company: Autodesk,Inc. |WEB Address: www.autodesk.com
 90
      129
 91
        2
280
     0
281
     0
  0
CLASS
  1
AEC_DISP_REP_SET
  2
AecDbDispRepSet
  3
AecBase50|Product Desc: Autodesk Architectural Desktop 2007 |Company: Autodesk,Inc. |WEB Address: www.autodesk.com
 90
      129
 91
        9
280
     0
281
     0
  0
CLASS
  1
AEC_DISP_REP_2D_SECTION
  2
AecDbDispRep2dSection
  3
AecBase50|Product Desc: Autodesk Architectural Desktop 2007 |Company: Autodesk,Inc. |WEB Address: www.autodesk.com
 90
      129
 91
        1
280
     0
281
     0
  0
CLASS
  1
AEC_DISP_REP_ANCHOR_BUB_TO_GRID
  2
AecDbDispRepAnchorBubToGrid
  3
AecStructureBase50|Product Desc: Autodesk Architectural Desktop 2007 |Company: Autodesk,Inc. |WEB Address: www.autodesk.com
 90
      129
 91
        1
280
     0
281
     0
  0
CLASS
  1
AEC_DISP_REP_ANCHOR_BUB_TO_GRID_MODEL
  2
AecDbDispRepAnchorBubToGridMdl
  3
AecStructureBase50|Product Desc: Autodesk Architectural Desktop 2007 |Company: Autodesk,Inc. |WEB Address: www.autodesk.com
 90
      129
 91
        1
280
     0
281
     0
  0
CLASS
  1
AEC_DISP_REP_ANCHOR_ENT_TO_NODE
  2
AecDbDispRepAnchorEntToNode
  3
AecBaseEx50|Product Desc: Autodesk Architectural Desktop 2007 |Company: Autodesk,Inc. |WEB Address: www.autodesk.com
 90
      129
 91
        1
280
     0
281
     0
  0
CLASS
  1
AEC_DISP_REP_ANCHOR_TAG_TO_ENT
  2
AecDbDispRepAnchorTagToEnt
  3
AecScheduleData50|Product Desc: Autodesk Architectural Desktop 2007 |Company: Autodesk,Inc. |WEB Address: www.autodesk.com
 90
      129
 91
        1
280
     0
281
     0
  0
CLASS
  1
AEC_DISP_REP_BDG_ELEVLINE_MODEL
  2
AecDbDispRepBdgElevLineModel
  3
AecArchBase50|Product Desc: Autodesk Architectural Desktop 2007 |Company: Autodesk,Inc. |WEB Address: www.autodesk.com
 90
      129
 91
        1
280
     0
281
     0
  0
CLASS
  1
AEC_DISP_REP_BDG_SECTIONLINE_PLAN
  2
AecDbDispRepBdgElevLinePlan
  3
AecArchBase50|Product Desc: Autodesk Architectural Desktop 2007 |Company: Autodesk,Inc. |WEB Address: www.autodesk.com
 90
      129
 91
        1
280
     0
281
     0
  0
CLASS
  1
AEC_DISP_REP_BDG_SECTIONLINE_MODEL
  2
AecDbDispRepBdgSectionLineModel
  3
AecArchBase50|Product Desc: Autodesk Architectural Desktop 2007 |Company: Autodesk,Inc. |WEB Address: www.autodesk.com
 90
      129
 91
        1
280
     0
281
     0
  0
CLASS
  1
AEC_DISP_REP_BDG_SECTIONLINE_PLAN
  2
AecDbDispRepBdgSectionLinePlan
  3
AecArchBase50|Product Desc: Autodesk Architectural Desktop 2007 |Company: Autodesk,Inc. |WEB Address: www.autodesk.com
 90
      129
 91
        1
280
     0
281
     0
  0
CLASS
  1
AEC_DISP_REP_BDG_SECTION_SUBDIV
  2
AecDbDispRepBdgSectionSubDiv
  3
AecArchBase50|Product Desc: Autodesk Architectural Desktop 2007 |Company: Autodesk,Inc. |WEB Address: www.autodesk.com
 90
      129
 91
        1
280
     0
281
     0
  0
CLASS
  1
AEC_DISP_REP_CEILING_GRID
  2
AecDbDispRepCeilingGrid
  3
AecArchBase50|Product Desc: Autodesk Architectural Desktop 2007 |Company: Autodesk,Inc. |WEB Address: www.autodesk.com
 90
      893
 91
        1
280
     0
281
     0
  0
CLASS
  1
AEC_DISP_REP_CEILING_GRID_MODEL
  2
AecDbDispRepCeilingGridModel
  3
AecArchBase50|Product Desc: Autodesk Architectural Desktop 2007 |Company: Autodesk,Inc. |WEB Address: www.autodesk.com
 90
      129
 91
        1
280
     0
281
     0
  0
CLASS
  1
AEC_DISP_REP_CEILING_GRID_RCP
  2
AecDbDispRepCeilingGridRcp
  3
AecArchBase50|Product Desc: Autodesk Architectural Desktop 2007 |Company: Autodesk,Inc. |WEB Address: www.autodesk.com
 90
      129
 91
        1
280
     0
281
     0
  0
CLASS
  1
AEC_DISP_REP_CLIP_VOLUME_MODEL
  2
AecDbDispRepClipVolModel
  3
AecBase50|Product Desc: Autodesk Architectural Desktop 2007 |Company: Autodesk,Inc. |WEB Address: www.autodesk.com
 90
      129
 91
        1
280
     0
281
     0
  0
CLASS
  1
AEC_DISP_REP_CLIP_VOLUME_PLAN
  2
AecDbDispRepClipVolPlan
  3
AecBase50|Product Desc: Autodesk Architectural Desktop 2007 |Company: Autodesk,Inc. |WEB Address: www.autodesk.com
 90
      129
 91
        1
280
     0
281
     0
  0
CLASS
  1
AEC_DISP_REP_CLIP_VOLUME_RESULT_SUBDIV
  2
AecDbDispRepClipVolResSubDiv
  3
AecBase50|Product Desc: Autodesk Architectural Desktop 2007 |Company: Autodesk,Inc. |WEB Address: www.autodesk.com
 90
      129
 91
        1
280
     0
281
     0
  0
CLASS
  1
AEC_DISP_REP_CLIP_VOLUME_RESULT
  2
AecDbDispRepClipVolResult
  3
AecBase50|Product Desc: Autodesk Architectural Desktop 2007 |Company: Autodesk,Inc. |WEB Address: www.autodesk.com
 90
      129
 91
        1
280
     0
281
     0
  0
CLASS
  1
AEC_DISP_REP_COLUMN_GRID
  2
AecDbDispRepColumnGrid
  3
AecStructureBase50|Product Desc: Autodesk Architectural Desktop 2007 |Company: Autodesk,Inc. |WEB Address: www.autodesk.com
 90
      129
 91
        1
280
     0
281
     0
  0
CLASS
  1
AEC_DISP_REP_COLUMN_GRID_MODEL
  2
AecDbDispRepColumnGridModel
  3
AecStructureBase50|Product Desc: Autodesk Architectural Desktop 2007 |Company: Autodesk,Inc. |WEB Address: www.autodesk.com
 90
      129
 91
        1
280
     0
281
     0
  0
CLASS
  1
AEC_DISP_REP_CURTAIN_WALL_LAYOUT_MODEL
  2
AecDbDispRepCurtainWallLayoutModel
  3
AecArchBase50|Product Desc: Autodesk Architectural Desktop 2007 |Company: Autodesk,Inc. |WEB Address: www.autodesk.com
 90
      129
 91
        1
280
     0
281
     0
  0
CLASS
  1
AEC_DISP_REP_CURTAIN_WALL_LAYOUT_PLAN
  2
AecDbDispRepCurtainWallLayoutPlan
  3
AecArchBase50|Product Desc: Autodesk Architectural Desktop 2007 |Company: Autodesk,Inc. |WEB Address: www.autodesk.com
 90
      129
 91
        1
280
     0
281
     0
  0
CLASS
  1
AEC_DISP_REP_CURTAIN_WALL_UNIT_MODEL
  2
AecDbDispRepCurtainWallUnitModel
  3
AecArchBase50|Product Desc: Autodesk Architectural Desktop 2007 |Company: Autodesk,Inc. |WEB Address: www.autodesk.com
 90
      129
 91
        1
280
     0
281
     0
  0
CLASS
  1
AEC_DISP_REP_CURTAIN_WALL_UNIT_PLAN
  2
AecDbDispRepCurtainWallUnitPlan
  3
AecArchBase50|Product Desc: Autodesk Architectural Desktop 2007 |Company: Autodesk,Inc. |WEB Address: www.autodesk.com
 90
      129
 91
        1
280
     0
281
     0
  0
CLASS
  1
AEC_DB_DISP_REP_DIM_GROUP_PLAN
  2
AecDbDispRepDimGroupPlan
  3
AecArchDACHBase50|Product Desc: Autodesk Architectural Desktop 2007 |Company: Autodesk,Inc. |WEB Address: www.autodesk.com
 90
      129
 91
        1
280
     0
281
     0
  0
CLASS
  1
AEC_DISP_REP_DISPLAYTHEME
  2
AecDbDispRepDisplayTheme
  3
AecBase50|Product Desc: Autodesk Architectural Desktop 2007 |Company: Autodesk,Inc. |WEB Address: www.autodesk.com
 90
      129
 91
        1
280
     0
281
     0
  0
CLASS
  1
AEC_DISP_REP_DOOR_MODEL
  2
AecDbDispRepDoorModel
  3
AecArchBase50|Product Desc: Autodesk Architectural Desktop 2007 |Company: Autodesk,Inc. |WEB Address: www.autodesk.com
 90
      129
 91
        1
280
     0
281
     0
  0
CLASS
  1
AEC_DISP_REP_DOOR_NOMINAL
  2
AecDbDispRepDoorNominal
  3
AecArchBase50|Product Desc: Autodesk Architectural Desktop 2007 |Company: Autodesk,Inc. |WEB Address: www.autodesk.com
 90
      129
 91
        1
280
     0
281
     0
  0
CLASS
  1
AEC_DISP_REP_DOOR_PLAN
  2
AecDbDispRepDoorPlan
  3
AecArchBase50|Product Desc: Autodesk Architectural Desktop 2007 |Company: Autodesk,Inc. |WEB Address: www.autodesk.com
 90
      129
 91
        1
280
     0
281
     0
  0
CLASS
  1
AEC_DISP_REP_EDITINPLACEPROFILE
  2
AecDbDispRepEditInPlaceProfile
  3
AecBase50|Product Desc: Autodesk Architectural Desktop 2007 |Company: Autodesk,Inc. |WEB Address: www.autodesk.com
 90
      129
 91
        1
280
     0
281
     0
  0
CLASS
  1
AEC_DISP_REP_ENT_REF
  2
AecDbDispRepEntRef
  3
AecBase50|Product Desc: Autodesk Architectural Desktop 2007 |Company: Autodesk,Inc. |WEB Address: www.autodesk.com
 90
      129
 91
        1
280
     0
281
     0
  0
CLASS
  1
AEC_DISP_REP_LAYOUT_CURVE
  2
AecDbDispRepLayoutCurve
  3
AecBase50|Product Desc: Autodesk Architectural Desktop 2007 |Company: Autodesk,Inc. |WEB Address: www.autodesk.com
 90
      129
 91
        1
280
     0
281
     0
  0
CLASS
  1
AEC_DISP_REP_LAYOUT_GRID2D
  2
AecDbDispRepLayoutGrid2d
  3
AecBase50|Product Desc: Autodesk Architectural Desktop 2007 |Company: Autodesk,Inc. |WEB Address: www.autodesk.com
 90
      129
 91
        1
280
     0
281
     0
  0
CLASS
  1
AEC_DISP_REP_LAYOUT_GRID3D
  2
AecDbDispRepLayoutGrid3d
  3
AecBase50|Product Desc: Autodesk Architectural Desktop 2007 |Company: Autodesk,Inc. |WEB Address: www.autodesk.com
 90
      129
 91
        1
280
     0
281
     0
  0
CLASS
  1
AEC_DISP_REP_MASKBLOCK_REF
  2
AecDbDispRepMaskBlockRef
  3
AecBase50|Product Desc: Autodesk Architectural Desktop 2007 |Company: Autodesk,Inc. |WEB Address: www.autodesk.com
 90
      129
 91
        1
280
     0
281
     0
  0
CLASS
  1
AEC_DISP_REP_MASKBLOCK_REF_RCP
  2
AecDbDispRepMaskBlockRefRcp
  3
AecArchBase50|Product Desc: Autodesk Architectural Desktop 2007 |Company: Autodesk,Inc. |WEB Address: www.autodesk.com
 90
      129
 91
        1
280
     0
281
     0
  0
CLASS
  1
AEC_DISP_REP_MASS_ELEM_MODEL
  2
AecDbDispRepMassElemModel
  3
AecBaseEx50|Product Desc: Autodesk Architectural Desktop 2007 |Company: Autodesk,Inc. |WEB Address: www.autodesk.com
 90
      129
 91
        1
280
     0
281
     0
  0
CLASS
  1
AEC_DISP_REP_MASS_ELEM_SCHEM
  2
AecDbDispRepMassElemSchem
  3
AecBaseEx50|Product Desc: Autodesk Architectural Desktop 2007 |Company: Autodesk,Inc. |WEB Address: www.autodesk.com
 90
      129
 91
        1
280
     0
281
     0
  0
CLASS
  1
AEC_DISP_REP_MASS_GROUP_MODEL
  2
AecDbDispRepMassGroupModel
  3
AecBaseEx50|Product Desc: Autodesk Architectural Desktop 2007 |Company: Autodesk,Inc. |WEB Address: www.autodesk.com
 90
      129
 91
        1
280
     0
281
     0
  0
CLASS
  1
AEC_DISP_REP_MASS_GROUP_PLAN
  2
AecDbDispRepMassGroupPlan
  3
AecBaseEx50|Product Desc: Autodesk Architectural Desktop 2007 |Company: Autodesk,Inc. |WEB Address: www.autodesk.com
 90
      129
 91
        1
280
     0
281
     0
  0
CLASS
  1
AEC_DISP_REP_MATERIAL
  2
AecDbDispRepMaterial
  3
AecBase50|Product Desc: Autodesk Architectural Desktop 2007 |Company: Autodesk,Inc. |WEB Address: www.autodesk.com
 90
      129
 91
        1
280
     0
281
     0
  0
CLASS
  1
AEC_DISP_REP_MVBLOCK_REF
  2
AecDbDispRepMvBlockRef
  3
AecBase50|Product Desc: Autodesk Architectural Desktop 2007 |Company: Autodesk,Inc. |WEB Address: www.autodesk.com
 90
      129
 91
        2
280
     0
281
     0
  0
CLASS
  1
AEC_DISP_REP_MVBLOCK_REF_MODEL
  2
AecDbDispRepMvBlockRefModel
  3
AecBase50|Product Desc: Autodesk Architectural Desktop 2007 |Company: Autodesk,Inc. |WEB Address: www.autodesk.com
 90
      129
 91
        1
280
     0
281
     0
  0
CLASS
  1
AEC_DISP_REP_OPENING
  2
AecDbDispRepOpening
  3
AecArchBase50|Product Desc: Autodesk Architectural Desktop 2007 |Company: Autodesk,Inc. |WEB Address: www.autodesk.com
 90
      129
 91
        1
280
     0
281
     0
  0
CLASS
  1
AEC_DISP_REP_OPENING_MODEL
  2
AecDbDispRepOpeningModel
  3
AecArchBase50|Product Desc: Autodesk Architectural Desktop 2007 |Company: Autodesk,Inc. |WEB Address: www.autodesk.com
 90
      129
 91
        1
280
     0
281
     0
  0
CLASS
  1
AEC_DISP_REP_POLYGON_MODEL
  2
AecDbDispRepPolygonModel
  3
AecBaseEx50|Product Desc: Autodesk Architectural Desktop 2007 |Company: Autodesk,Inc. |WEB Address: www.autodesk.com
 90
      129
 91
        1
280
     0
281
     0
  0
CLASS
  1
AEC_DISP_REP_RAILING_MODEL
  2
AecDbDispRepRailingModel
  3
AecArchBase50|Product Desc: Autodesk Architectural Desktop 2007 |Company: Autodesk,Inc. |WEB Address: www.autodesk.com
 90
      129
 91
        1
280
     0
281
     0
  0
CLASS
  1
AEC_DISP_REP_RAILING_PLAN
  2
AecDbDispRepRailingPlan
  3
AecArchBase50|Product Desc: Autodesk Architectural Desktop 2007 |Company: Autodesk,Inc. |WEB Address: www.autodesk.com
 90
      129
 91
        1
280
     0
281
     0
  0
CLASS
  1
AEC_DISP_REP_ROOF_MODEL
  2
AecDbDispRepRoofModel
  3
AecArchBase50|Product Desc: Autodesk Architectural Desktop 2007 |Company: Autodesk,Inc. |WEB Address: www.autodesk.com
 90
      129
 91
        1
280
     0
281
     0
  0
CLASS
  1
AEC_DISP_REP_ROOF_PLAN
  2
AecDbDispRepRoofPlan
  3
AecArchBase50|Product Desc: Autodesk Architectural Desktop 2007 |Company: Autodesk,Inc. |WEB Address: www.autodesk.com
 90
      129
 91
        1
280
     0
281
     0
  0
CLASS
  1
AEC_DISP_REP_ROOFSLAB_MODEL
  2
AecDbDispRepRoofSlabModel
  3
AecArchBase50|Product Desc: Autodesk Architectural Desktop 2007 |Company: Autodesk,Inc. |WEB Address: www.autodesk.com
 90
      129
 91
        1
280
     0
281
     0
  0
CLASS
  1
AEC_DISP_REP_ROOFSLAB_PLAN
  2
AecDbDispRepRoofSlabPlan
  3
AecArchBase50|Product Desc: Autodesk Architectural Desktop 2007 |Company: Autodesk,Inc. |WEB Address: www.autodesk.com
 90
      129
 91
        1
280
     0
281
     0
  0
CLASS
  1
AEC_DISP_REP_SCHEDULE_TABLE
  2
AecDbDispRepScheduleTable
  3
AecSchedule50|Product Desc: Autodesk Architectural Desktop 2007 |Company: Autodesk,Inc. |WEB Address: www.autodesk.com
 90
      129
 91
        1
280
     0
281
     0
  0
CLASS
  1
AEC_DISP_REP_SLAB_MODEL
  2
AecDbDispRepSlabModel
  3
AecArchBase50|Product Desc: Autodesk Architectural Desktop 2007 |Company: Autodesk,Inc. |WEB Address: www.autodesk.com
 90
      129
 91
        1
280
     0
281
     0
  0
CLASS
  1
AEC_DISP_REP_SLAB_PLAN
  2
AecDbDispRepSlabPlan
  3
AecArchBase50|Product Desc: Autodesk Architectural Desktop 2007 |Company: Autodesk,Inc. |WEB Address: www.autodesk.com
 90
      129
 91
        1
280
     0
281
     0
  0
CLASS
  1
AEC_DISP_REP_SLICE
  2
AecDbDispRepSlice
  3
AecBase50|Product Desc: Autodesk Architectural Desktop 2007 |Company: Autodesk,Inc. |WEB Address: www.autodesk.com
 90
      129
 91
        1
280
     0
281
     0
  0
CLASS
  1
AEC_DISP_REP_SPACE_DECOMPOSED
  2
AecDbDispRepSpaceDecomposed
  3
AecArchBase50|Product Desc: Autodesk Architectural Desktop 2007 |Company: Autodesk,Inc. |WEB Address: www.autodesk.com
 90
      129
 91
        1
280
     0
281
     0
  0
CLASS
  1
AEC_DISP_REP_SPACE_MODEL
  2
AecDbDispRepSpaceModel
  3
AecArchBase50|Product Desc: Autodesk Architectural Desktop 2007 |Company: Autodesk,Inc. |WEB Address: www.autodesk.com
 90
      129
 91
        1
280
     0
281
     0
  0
CLASS
  1
AEC_DISP_REP_SPACE_PLAN
  2
AecDbDispRepSpacePlan
  3
AecArchBase50|Product Desc: Autodesk Architectural Desktop 2007 |Company: Autodesk,Inc. |WEB Address: www.autodesk.com
 90
      129
 91
        1
280
     0
281
     0
  0
CLASS
  1
AEC_DISP_REP_STAIR_MODEL
  2
AecDbDispRepStairModel
  3
AecArchBase50|Product Desc: Autodesk Architectural Desktop 2007 |Company: Autodesk,Inc. |WEB Address: www.autodesk.com
 90
      129
 91
        1
280
     0
281
     0
  0
CLASS
  1
AEC_DISP_REP_STAIR_PLAN
  2
AecDbDispRepStairPlan
  3
AecArchBase50|Product Desc: Autodesk Architectural Desktop 2007 |Company: Autodesk,Inc. |WEB Address: www.autodesk.com
 90
      129
 91
        1
280
     0
281
     0
  0
CLASS
  1
AEC_DISP_REP_WALL_GRAPH
  2
AecDbDispRepWallGraph
  3
AecArchBase50|Product Desc: Autodesk Architectural Desktop 2007 |Company: Autodesk,Inc. |WEB Address: www.autodesk.com
 90
      129
 91
        1
280
     0
281
     0
  0
CLASS
  1
AEC_DISP_REP_WALL_MODEL
  2
AecDbDispRepWallModel
  3
AecArchBase50|Product Desc: Autodesk Architectural Desktop 2007 |Company: Autodesk,Inc. |WEB Address: www.autodesk.com
 90
      129
 91
        1
280
     0
281
     0
  0
CLASS
  1
AEC_DISP_REP_WALL_PLAN
  2
AecDbDispRepWallPlan
  3
AecArchBase50|Product Desc: Autodesk Architectural Desktop 2007 |Company: Autodesk,Inc. |WEB Address: www.autodesk.com
 90
      129
 91
        1
280
     0
281
     0
  0
CLASS
  1
AEC_DISP_REP_WALL_SCHEM
  2
AecDbDispRepWallSchem
  3
AecArchBase50|Product Desc: Autodesk Architectural Desktop 2007 |Company: Autodesk,Inc. |WEB Address: www.autodesk.com
 90
      129
 91
        1
280
     0
281
     0
  0
CLASS
  1
AEC_DISP_REP_WINDOW_ASSEMBLY_MODEL
  2
AecDbDispRepWindowAssemblyModel
  3
AecArchBase50|Product Desc: Autodesk Architectural Desktop 2007 |Company: Autodesk,Inc. |WEB Address: www.autodesk.com
 90
      129
 91
        1
280
     0
281
     0
  0
CLASS
  1
AEC_DISP_REP_WINDOW_ASSEMBLY_PLAN
  2
AecDbDispRepWindowAssemblyPlan
  3
AecArchBase50|Product Desc: Autodesk Architectural Desktop 2007 |Company: Autodesk,Inc. |WEB Address: www.autodesk.com
 90
      129
 91
        1
280
     0
281
     0
  0
CLASS
  1
AEC_AECDBDISPREPWINDOWASSEMBLYPLAN100
  2
AecDbDispRepWindowAssemblyPlan100
  3
AecArchDACHBase50|Product Desc: Autodesk Architectural Desktop 2007 |Company: Autodesk,Inc. |WEB Address: www.autodesk.com
 90
      129
 91
        1
280
     0
281
     0
  0
CLASS
  1
AEC_DISP_REP_WINDOW_MODEL
  2
AecDbDispRepWindowModel
  3
AecArchBase50|Product Desc: Autodesk Architectural Desktop 2007 |Company: Autodesk,Inc. |WEB Address: www.autodesk.com
 90
      129
 91
        1
280
     0
281
     0
  0
CLASS
  1
AEC_DISP_REP_WINDOW_NOMINAL
  2
AecDbDispRepWindowNominal
  3
AecArchBase50|Product Desc: Autodesk Architectural Desktop 2007 |Company: Autodesk,Inc. |WEB Address: www.autodesk.com
 90
      129
 91
        1
280
     0
281
     0
  0
CLASS
  1
AEC_DISP_REP_WINDOW_PLAN
  2
AecDbDispRepWindowPlan
  3
AecArchBase50|Product Desc: Autodesk Architectural Desktop 2007 |Company: Autodesk,Inc. |WEB Address: www.autodesk.com
 90
      129
 91
        1
280
     0
281
     0
  0
CLASS
  1
AEC_DISP_REP_ZONE
  2
AecDbDispRepZone
  3
AecArchBase50|Product Desc: Autodesk Architectural Desktop 2007 |Company: Autodesk,Inc. |WEB Address: www.autodesk.com
 90
      129
 91
        1
280
     0
281
     0
  0
CLASS
  1
AECS_DISP_REP_MEMBER_LOGICAL
  2
AecsDbDispRepMemberLogical
  3
AecStructureBase50|Product Desc: Autodesk Architectural Desktop 2007 |Company: Autodesk,Inc. |WEB Address: www.autodesk.com
 90
      129
 91
        1
280
     0
281
     0
  0
CLASS
  1
AECS_DISP_REP_MEMBER_MODEL_DESIGN
  2
AecsDbDispRepMemberModelDesign
  3
AecStructureBase50|Product Desc: Autodesk Architectural Desktop 2007 |Company: Autodesk,Inc. |WEB Address: www.autodesk.com
 90
      129
 91
        1
280
     0
281
     0
  0
CLASS
  1
AECS_DISP_REP_MEMBER_PLAN_DESIGN
  2
AecsDbDispRepMemberPlanDesign
  3
AecStructureBase50|Product Desc: Autodesk Architectural Desktop 2007 |Company: Autodesk,Inc. |WEB Address: www.autodesk.com
 90
      129
 91
        1
280
     0
281
     0
  0
CLASS
  1
AEC_DISP_PROPS_ENT
  2
AecDbDispPropsEnt
  3
AecBase50|Product Desc: Autodesk Architectural Desktop 2007 |Company: Autodesk,Inc. |WEB Address: www.autodesk.com
 90
      129
 91
        7
280
     0
281
     0
  0
CLASS
  1
AEC_DISP_PROPS_ZONE
  2
AecDbDispPropsZone
  3
AecArchBase50|Product Desc: Autodesk Architectural Desktop 2007 |Company: Autodesk,Inc. |WEB Address: www.autodesk.com
 90
      129
 91
        3
280
     0
281
     0
  0
CLASS
  1
AEC_DISP_PROPS_GRID_ASSEMBLY_MODEL
  2
AecDbDispPropsGridAssemblyModel
  3
AecArchBase50|Product Desc: Autodesk Architectural Desktop 2007 |Company: Autodesk,Inc. |WEB Address: www.autodesk.com
 90
      129
 91
        3
280
     0
281
     0
  0
CLASS
  1
AEC_DISP_PROPS_2D_SECTION
  2
AecDbDispProps2dSection
  3
AecBase50|Product Desc: Autodesk Architectural Desktop 2007 |Company: Autodesk,Inc. |WEB Address: www.autodesk.com
 90
      129
 91
        1
280
     0
281
     0
  0
CLASS
  1
AEC_DISP_PROPS_OPENING
  2
AecDbDispPropsOpening
  3
AecArchBase50|Product Desc: Autodesk Architectural Desktop 2007 |Company: Autodesk,Inc. |WEB Address: www.autodesk.com
 90
      129
 91
        2
280
     0
281
     0
  0
CLASS
  1
AEC_DISP_PROPS_DOOR
  2
AecDbDispPropsDoor
  3
AecArchBase50|Product Desc: Autodesk Architectural Desktop 2007 |Company: Autodesk,Inc. |WEB Address: www.autodesk.com
 90
      129
 91
        4
280
     0
281
     0
  0
CLASS
  1
AEC_DISP_PROPS_WALL_SCHEM
  2
AecDbDispPropsWallSchem
  3
AecArchBase50|Product Desc: Autodesk Architectural Desktop 2007 |Company: Autodesk,Inc. |WEB Address: www.autodesk.com
 90
      129
 91
        1
280
     0
281
     0
  0
CLASS
  1
AEC_DISP_PROPS_MASKBLOCK
  2
AecDbDispPropsMaskBlock
  3
AecBase50|Product Desc: Autodesk Architectural Desktop 2007 |Company: Autodesk,Inc. |WEB Address: www.autodesk.com
 90
      129
 91
        2
280
     0
281
     0
  0
CLASS
  1
AEC_DISP_PROPS_SCHEDULE_TABLE
  2
AecDbDispPropsScheduleTable
  3
AecSchedule50|Product Desc: Autodesk Architectural Desktop 2007 |Company: Autodesk,Inc. |WEB Address: www.autodesk.com
 90
      129
 91
        1
280
     0
281
     0
  0
CLASS
  1
AECS_DISP_PROPS_MEMBER
  2
AecsDbDispPropsMember
  3
AecStructureBase50|Product Desc: Autodesk Architectural Desktop 2007 |Company: Autodesk,Inc. |WEB Address: www.autodesk.com
 90
      129
 91
        2
280
     0
281
     0
  0
CLASS
  1
AEC_DISP_PROPS_LAYOUT_GRID2D
  2
AecDbDispPropsLayoutGrid2d
  3
AecBase50|Product Desc: Autodesk Architectural Desktop 2007 |Company: Autodesk,Inc. |WEB Address: www.autodesk.com
 90
      129
 91
       11
280
     0
281
     0
  0
CLASS
  1
AEC_DISP_PROPS_EDITINPLACEPROFILE_MODEL
  2
AecDbDispPropsEditInPlaceProfile
  3
AecBase50|Product Desc: Autodesk Architectural Desktop 2007 |Company: Autodesk,Inc. |WEB Address: www.autodesk.com
 90
      129
 91
        1
280
     0
281
     0
  0
CLASS
  1
AEC_DISP_PROPS_ENT_REF
  2
AecDbDispPropsEntRef
  3
AecBase50|Product Desc: Autodesk Architectural Desktop 2007 |Company: Autodesk,Inc. |WEB Address: www.autodesk.com
 90
      129
 91
        1
280
     0
281
     0
  0
CLASS
  1
AEC_DISP_PROPS_ROOFSLAB
  2
AecDbDispPropsRoofSlab
  3
AecArchBase50|Product Desc: Autodesk Architectural Desktop 2007 |Company: Autodesk,Inc. |WEB Address: www.autodesk.com
 90
      129
 91
        1
280
     0
281
     0
  0
CLASS
  1
AEC_DISP_PROPS_LAYOUT_GRID3D
  2
AecDbDispPropsLayoutGrid3d
  3
AecBase50|Product Desc: Autodesk Architectural Desktop 2007 |Company: Autodesk,Inc. |WEB Address: www.autodesk.com
 90
      129
 91
        1
280
     0
281
     0
  0
CLASS
  1
AEC_DISP_PROPS_WALL_GRAPH
  2
AecDbDispPropsWallGraph
  3
AecArchBase50|Product Desc: Autodesk Architectural Desktop 2007 |Company: Autodesk,Inc. |WEB Address: www.autodesk.com
 90
      129
 91
        1
280
     0
281
     0
  0
CLASS
  1
AEC_DISP_PROPS_DIM
  2
AecDbDispPropsDimGroup
  3
AecArchDACHBase50|Product Desc: Autodesk Architectural Desktop 2007 |Company: Autodesk,Inc. |WEB Address: www.autodesk.com
 90
      129
 91
        3
280
     0
281
     0
  0
CLASS
  1
AEC_DISP_PROPS_CLIP_VOLUME
  2
AecDbDispPropsClipVol
  3
AecBase50|Product Desc: Autodesk Architectural Desktop 2007 |Company: Autodesk,Inc. |WEB Address: www.autodesk.com
 90
      129
 91
       12
280
     0
281
     0
  0
CLASS
  1
AEC_DISP_PROPS_STAIR_MODEL
  2
AecDbDispPropsStairModel
  3
AecArchBase50|Product Desc: Autodesk Architectural Desktop 2007 |Company: Autodesk,Inc. |WEB Address: www.autodesk.com
 90
      129
 91
        1
280
     0
281
     0
  0
CLASS
  1
AEC_DISP_PROPS_MASS_GROUP
  2
AecDbDispPropsMassGroup
  3
AecBaseEx50|Product Desc: Autodesk Architectural Desktop 2007 |Company: Autodesk,Inc. |WEB Address: www.autodesk.com
 90
      129
 91
        3
280
     0
281
     0
  0
CLASS
  1
AEC_DISP_PROPS_GRID_ASSEMBLY_PLAN
  2
AecDbDispPropsGridAssemblyPlan
  3
AecArchBase50|Product Desc: Autodesk Architectural Desktop 2007 |Company: Autodesk,Inc. |WEB Address: www.autodesk.com
 90
      129
 91
        9
280
     0
281
     0
  0
CLASS
  1
AEC_DISP_PROPS_SLAB_PLAN
  2
AecDbDispPropsSlabPlan
  3
AecArchBase50|Product Desc: Autodesk Architectural Desktop 2007 |Company: Autodesk,Inc. |WEB Address: www.autodesk.com
 90
      129
 91
        3
280
     0
281
     0
  0
CLASS
  1
AEC_DISP_PROPS_RAILING_MODEL
  2
AecDbDispPropsRailingModel
  3
AecArchBase50|Product Desc: Autodesk Architectural Desktop 2007 |Company: Autodesk,Inc. |WEB Address: www.autodesk.com
 90
      129
 91
        1
280
     0
281
     0
  0
CLASS
  1
AEC_DISP_PROPS_MASS_ELEM_MODEL
  2
AecDbDispPropsMassElem
  3
AecBaseEx50|Product Desc: Autodesk Architectural Desktop 2007 |Company: Autodesk,Inc. |WEB Address: www.autodesk.com
 90
      129
 91
        3
280
     0
281
     0
  0
CLASS
  1
AEC_DISP_PROPS_SPACE_PLAN
  2
AecDbDispPropsSpacePlan
  3
AecArchBase50|Product Desc: Autodesk Architectural Desktop 2007 |Company: Autodesk,Inc. |WEB Address: www.autodesk.com
 90
      129
 91
        4
280
     0
281
     0
  0
CLASS
  1
AECS_DISP_PROPS_MEMBER_PLAN
  2
AecsDbDispPropsMemberPlan
  3
AecStructureBase50|Product Desc: Autodesk Architectural Desktop 2007 |Company: Autodesk,Inc. |WEB Address: www.autodesk.com
 90
      129
 91
        2
280
     0
281
     0
  0
CLASS
  1
AEC_DISP_PROPS_ROOF
  2
AecDbDispPropsRoof
  3
AecArchBase50|Product Desc: Autodesk Architectural Desktop 2007 |Company: Autodesk,Inc. |WEB Address: www.autodesk.com
 90
      129
 91
        5
280
     0
281
     0
  0
CLASS
  1
AEC_DISP_PROPS_DISPLAYTHEME
  2
AecDbDispPropsDisplayTheme
  3
AecBase50|Product Desc: Autodesk Architectural Desktop 2007 |Company: Autodesk,Inc. |WEB Address: www.autodesk.com
 90
      129
 91
        1
280
     0
281
     0
  0
CLASS
  1
AEC_DISP_PROPS_ROOFSLAB_PLAN
  2
AecDbDispPropsRoofSlabPlan
  3
AecArchBase50|Product Desc: Autodesk Architectural Desktop 2007 |Company: Autodesk,Inc. |WEB Address: www.autodesk.com
 90
      129
 91
        3
280
     0
281
     0
  0
CLASS
  1
AEC_DISP_PROPS_WINDOW_NOMINAL
  2
AecDbDispPropsWindowNominal
  3
AecArchBase50|Product Desc: Autodesk Architectural Desktop 2007 |Company: Autodesk,Inc. |WEB Address: www.autodesk.com
 90
      129
 91
        1
280
     0
281
     0
  0
CLASS
  1
AEC_DISP_PROPS_STAIR_PLAN
  2
AecDbDispPropsStairPlan
  3
AecArchBase50|Product Desc: Autodesk Architectural Desktop 2007 |Company: Autodesk,Inc. |WEB Address: www.autodesk.com
 90
      129
 91
        2
280
     0
281
     0
  0
CLASS
  1
AECS_DISP_PROPS_MEMBER_LOGICAL
  2
AecsDbDispPropsMemberLogical
  3
AecStructureBase50|Product Desc: Autodesk Architectural Desktop 2007 |Company: Autodesk,Inc. |WEB Address: www.autodesk.com
 90
      129
 91
        1
280
     0
281
     0
  0
CLASS
  1
AEC_DISP_PROPS_POLYGON_MODEL
  2
AecDbDispPropsPolygonModel
  3
AecBaseEx50|Product Desc: Autodesk Architectural Desktop 2007 |Company: Autodesk,Inc. |WEB Address: www.autodesk.com
 90
      129
 91
        1
280
     0
281
     0
  0
CLASS
  1
AEC_DISP_PROPS_LAYOUT_CURVE
  2
AecDbDispPropsLayoutCurve
  3
AecBase50|Product Desc: Autodesk Architectural Desktop 2007 |Company: Autodesk,Inc. |WEB Address: www.autodesk.com
 90
      129
 91
        1
280
     0
281
     0
  0
CLASS
  1
AEC_DISP_PROPS_SPACE_DECOMPOSED
  2
AecDbDispPropsSpaceDecomposed
  3
AecArchBase50|Product Desc: Autodesk Architectural Desktop 2007 |Company: Autodesk,Inc. |WEB Address: www.autodesk.com
 90
      129
 91
        1
280
     0
281
     0
  0
CLASS
  1
AEC_DISP_PROPS_RAILING_PLAN
  2
AecDbDispPropsRailingPlan
  3
AecArchBase50|Product Desc: Autodesk Architectural Desktop 2007 |Company: Autodesk,Inc. |WEB Address: www.autodesk.com
 90
      129
 91
        1
280
     0
281
     0
  0
CLASS
  1
AEC_DISP_PROPS_SLICE
  2
AecDbDispPropsSlice
  3
AecBase50|Product Desc: Autodesk Architectural Desktop 2007 |Company: Autodesk,Inc. |WEB Address: www.autodesk.com
 90
      129
 91
        1
280
     0
281
     0
  0
CLASS
  1
AEC_DISP_PROPS_WINDOW
  2
AecDbDispPropsWindow
  3
AecArchBase50|Product Desc: Autodesk Architectural Desktop 2007 |Company: Autodesk,Inc. |WEB Address: www.autodesk.com
 90
      129
 91
        4
280
     0
281
     0
  0
CLASS
  1
AEC_DISP_PROPS_SPACE_MODEL
  2
AecDbDispPropsSpaceModel
  3
AecArchBase50|Product Desc: Autodesk Architectural Desktop 2007 |Company: Autodesk,Inc. |WEB Address: www.autodesk.com
 90
      129
 91
        1
280
     0
281
     0
  0
CLASS
  1
AEC_DISP_PROPS_WALL_PLAN
  2
AecDbDispPropsWallPlan
  3
AecArchBase50|Product Desc: Autodesk Architectural Desktop 2007 |Company: Autodesk,Inc. |WEB Address: www.autodesk.com
 90
      129
 91
        4
280
     0
281
     0
  0
CLASS
  1
AEC_DISP_PROPS_SLAB
  2
AecDbDispPropsSlab
  3
AecArchBase50|Product Desc: Autodesk Architectural Desktop 2007 |Company: Autodesk,Inc. |WEB Address: www.autodesk.com
 90
      129
 91
        1
280
     0
281
     0
  0
CLASS
  1
AEC_DISP_PROPS_CLIP_VOLUME_RESULT
  2
AecDbDispPropsClipVolResSubDiv
  3
AecBase50|Product Desc: Autodesk Architectural Desktop 2007 |Company: Autodesk,Inc. |WEB Address: www.autodesk.com
 90
      129
 91
        2
280
     0
281
     0
  0
CLASS
  1
AEC_DISP_PROPS_DOOR_NOMINAL
  2
AecDbDispPropsDoorNominal
  3
AecArchBase50|Product Desc: Autodesk Architectural Desktop 2007 |Company: Autodesk,Inc. |WEB Address: www.autodesk.com
 90
      129
 91
        1
280
     0
281
     0
  0
CLASS
  1
AEC_DISP_PROPS_MATERIAL
  2
AecDbDispPropsMaterial
  3
AecBase50|Product Desc: Autodesk Architectural Desktop 2007 |Company: Autodesk,Inc. |WEB Address: www.autodesk.com
 90
      129
 91
        1
280
     0
281
     0
  0
CLASS
  1
AEC_DISP_PROPS_WALL_MODEL
  2
AecDbDispPropsWallModel
  3
AecArchBase50|Product Desc: Autodesk Architectural Desktop 2007 |Company: Autodesk,Inc. |WEB Address: www.autodesk.com
 90
      129
 91
        1
280
     0
281
     0
  0
CLASS
  1
AEC_LAYERKEY_STYLE
  2
AecDbLayerKeyStyle
  3
AecBase50|Product Desc: Autodesk Architectural Desktop 2007 |Company: Autodesk,Inc. |WEB Address: www.autodesk.com
 90
      129
 91
        1
280
     0
281
     0
  0
CLASS
  1
AEC_VARS_ARCHBASE
  2
AecDbVarsArchBase
  3
AecArchBase50|Product Desc: Autodesk Architectural Desktop 2007 |Company: Autodesk,Inc. |WEB Address: www.autodesk.com
 90
      129
 91
        1
280
     0
281
     0
  0
CLASS
  1
AEC_VARS_MUNICH
  2
AecDbVarsMunich
  3
AecArchDACHBase50|Product Desc: Autodesk Architectural Desktop 2007 |Company: Autodesk,Inc. |WEB Address: www.autodesk.com
 90
      129
 91
        1
280
     0
281
     0
  0
CLASS
  1
AEC_NOTIFICATION_TRACKER
  2
AecDbNotificationTracker
  3
AecBase50|Product Desc: Autodesk Architectural Desktop 2007 |Company: Autodesk,Inc. |WEB Address: www.autodesk.com
 90
      129
 91
        0
280
     0
281
     0
  0
CLASS
  1
AEC_DISP_REP_DOOR_THRESHOLD_SYMBOL_PLAN
  2
AecDbDispRepDoorThresholdSymbolPlan
  3
AecArchDACHBase50|Product Desc: Autodesk Architectural Desktop 2007 |Company: Autodesk,Inc. |WEB Address: www.autodesk.com
 90
      129
 91
        1
280
     0
281
     0
  0
CLASS
  1
AEC_DISP_PROPS_DOOR_THRESHOLD_SYMBOL_PLAN
  2
AecDbDispPropsDoorThresholdSymbolPlan
  3
AecArchDACHBase50|Product Desc: Autodesk Architectural Desktop 2007 |Company: Autodesk,Inc. |WEB Address: www.autodesk.com
 90
      129
 91
        1
280
     0
281
     0
  0
CLASS
  1
AEC_DISP_REP_RAILING_PLAN_100
  2
AecDbDispRepRailingPlan100
  3
AecArchDACHBase50|Product Desc: Autodesk Architectural Desktop 2007 |Company: Autodesk,Inc. |WEB Address: www.autodesk.com
 90
      129
 91
        1
280
     0
281
     0
  0
CLASS
  1
AEC_DISP_ROPS_RAILING_PLAN_100
  2
AecDbDispPropsRailingPlan100
  3
AecArchDACHBase50|Product Desc: Autodesk Architectural Desktop 2007 |Company: Autodesk,Inc. |WEB Address: www.autodesk.com
 90
      129
 91
        1
280
     0
281
     0
  0
CLASS
  1
AEC_DISP_REP_STAIR_PLAN_50
  2
AecDbDispRepStairPlan50
  3
AecArchDACHBase50|Product Desc: Autodesk Architectural Desktop 2007 |Company: Autodesk,Inc. |WEB Address: www.autodesk.com
 90
      129
 91
        1
280
     0
281
     0
  0
CLASS
  1
AEC_DISP_ROPS_STAIR_PLAN_50
  2
AecDbDispPropsStairPlan50
  3
AecArchDACHBase50|Product Desc: Autodesk Architectural Desktop 2007 |Company: Autodesk,Inc. |WEB Address: www.autodesk.com
 90
      129
 91
        1
280
     0
281
     0
  0
CLASS
  1
AEC_DISP_REP_STAIR_PLAN_100
  2
AecDbDispRepStairPlan100
  3
AecArchDACHBase50|Product Desc: Autodesk Architectural Desktop 2007 |Company: Autodesk,Inc. |WEB Address: www.autodesk.com
 90
      129
 91
        1
280
     0
281
     0
  0
CLASS
  1
AEC_DISP_ROPS_STAIR_PLAN_100
  2
AecDbDispPropsStairPlan100
  3
AecArchDACHBase50|Product Desc: Autodesk Architectural Desktop 2007 |Company: Autodesk,Inc. |WEB Address: www.autodesk.com
 90
      129
 91
        1
280
     0
281
     0
  0
CLASS
  1
AEC_DISP_REP_DOOR_PLAN_HEKTO
  2
AecDbDispRepDoorPlanHekto
  3
AecArchDACHBase50|Product Desc: Autodesk Architectural Desktop 2007 |Company: Autodesk,Inc. |WEB Address: www.autodesk.com
 90
      129
 91
        1
280
     0
281
     0
  0
CLASS
  1
AEC_DISP_PROPS_DOOR_PLAN_100
  2
AecDbDispPropsDoorPlan100
  3
AecArchDACHBase50|Product Desc: Autodesk Architectural Desktop 2007 |Company: Autodesk,Inc. |WEB Address: www.autodesk.com
 90
      129
 91
        1
280
     0
281
     0
  0
CLASS
  1
AEC_DB_DISP_REP_DIM_GROUP_PLAN50
  2
AecDbDispRepDimGroupPlan50
  3
AecArchDACHBase50|Product Desc: Autodesk Architectural Desktop 2007 |Company: Autodesk,Inc. |WEB Address: www.autodesk.com
 90
      129
 91
        1
280
     0
281
     0
  0
CLASS
  1
AEC_DISPREPAECDBDISPREPMASSGROUPPLAN100
  2
AecDbDispRepMassGroupPlan100
  3
AecArchDACHBase50|Product Desc: Autodesk Architectural Desktop 2007 |Company: Autodesk,Inc. |WEB Address: www.autodesk.com
 90
      129
 91
        1
280
     0
281
     0
  0
CLASS
  1
AEC_DISPROPSMASSGROUPPLANCOMMON
  2
AecDbDispPropsMassGroupPlanCommon
  3
AecArchDACHBase50|Product Desc: Autodesk Architectural Desktop 2007 |Company: Autodesk,Inc. |WEB Address: www.autodesk.com
 90
      129
 91
        2
280
     0
281
     0
  0
CLASS
  1
AEC_DISP_REP_WINDOW_PLAN_100
  2
AecDbDispRepWindowPlan100
  3
AecArchDACHBase50|Product Desc: Autodesk Architectural Desktop 2007 |Company: Autodesk,Inc. |WEB Address: www.autodesk.com
 90
      129
 91
        1
280
     0
281
     0
  0
CLASS
  1
AEC_DISP_PROPS_WINDOW_PLAN_100
  2
AecDbDispPropsWindowPlan100
  3
AecArchDACHBase50|Product Desc: Autodesk Architectural Desktop 2007 |Company: Autodesk,Inc. |WEB Address: www.autodesk.com
 90
      129
 91
        1
280
     0
281
     0
  0
CLASS
  1
AEC_DISPREPAECDBDISPREPMASSELEMPLAN50
  2
AecDbDispRepMassElemPlan50
  3
AecArchDACHBase50|Product Desc: Autodesk Architectural Desktop 2007 |Company: Autodesk,Inc. |WEB Address: www.autodesk.com
 90
      129
 91
        1
280
     0
281
     0
  0
CLASS
  1
AEC_DISPROPSMASSELEMPLANCOMMON
  2
AecDbDispPropsMassElemPlanCommon
  3
AecArchDACHBase50|Product Desc: Autodesk Architectural Desktop 2007 |Company: Autodesk,Inc. |WEB Address: www.autodesk.com
 90
      129
 91
        2
280
     0
281
     0
  0
CLASS
  1
AEC_DB_DISP_REP_DIM_GROUP_PLAN100
  2
AecDbDispRepDimGroupPlan100
  3
AecArchDACHBase50|Product Desc: Autodesk Architectural Desktop 2007 |Company: Autodesk,Inc. |WEB Address: www.autodesk.com
 90
      129
 91
        1
280
     0
281
     0
  0
CLASS
  1
AEC_DISPREPAECDBDISPREPMASSELEMPLAN100
  2
AecDbDispRepMassElemPlan100
  3
AecArchDACHBase50|Product Desc: Autodesk Architectural Desktop 2007 |Company: Autodesk,Inc. |WEB Address: www.autodesk.com
 90
      129
 91
        1
280
     0
281
     0
  0
CLASS
  1
AEC_DISP_REP_DOOR_PLAN_50
  2
AecDbDispRepDoorPlan50
  3
AecArchDACHBase50|Product Desc: Autodesk Architectural Desktop 2007 |Company: Autodesk,Inc. |WEB Address: www.autodesk.com
 90
      129
 91
        1
280
     0
281
     0
  0
CLASS
  1
AEC_DISP_PROPS_DOOR_PLAN_50
  2
AecDbDispPropsDoorPlan50
  3
AecArchDACHBase50|Product Desc: Autodesk Architectural Desktop 2007 |Company: Autodesk,Inc. |WEB Address: www.autodesk.com
 90
      129
 91
        1
280
     0
281
     0
  0
CLASS
  1
AEC_DISPREPAECDBDISPREPOPENINGPLANREFLECTED
  2
AecDbDispRepOpeningPlanReflected
  3
AecArchDACHBase50|Product Desc: Autodesk Architectural Desktop 2007 |Company: Autodesk,Inc. |WEB Address: www.autodesk.com
 90
      129
 91
        1
280
     0
281
     0
  0
CLASS
  1
AEC_DISPROPSOPENINGPLANCOMMON
  2
AecDbDispPropsOpeningPlanCommon
  3
AecArchDACHBase50|Product Desc: Autodesk Architectural Desktop 2007 |Company: Autodesk,Inc. |WEB Address: www.autodesk.com
 90
      129
 91
        1
280
     0
281
     0
  0
CLASS
  1
AEC_DISPREPAECDBDISPREPMASSGROUPPLAN50
  2
AecDbDispRepMassGroupPlan50
  3
AecArchDACHBase50|Product Desc: Autodesk Architectural Desktop 2007 |Company: Autodesk,Inc. |WEB Address: www.autodesk.com
 90
      129
 91
        1
280
     0
281
     0
  0
CLASS
  1
AEC_DISPREPAECDBDISPREPOPENINGPLAN50
  2
AecDbDispRepOpeningPlan50
  3
AecArchDACHBase50|Product Desc: Autodesk Architectural Desktop 2007 |Company: Autodesk,Inc. |WEB Address: www.autodesk.com
 90
      129
 91
        1
280
     0
281
     0
  0
CLASS
  1
AEC_DISPROPSOPENINGPLANCOMMONHATCHED
  2
AecDbDispPropsOpeningPlanCommonHatched
  3
AecArchDACHBase50|Product Desc: Autodesk Architectural Desktop 2007 |Company: Autodesk,Inc. |WEB Address: www.autodesk.com
 90
      129
 91
        2
280
     0
281
     0
  0
CLASS
  1
AEC_DISPREPAECDBDISPREPOPENINGSILLPLAN
  2
AecDbDispRepOpeningSillPlan
  3
AecArchDACHBase50|Product Desc: Autodesk Architectural Desktop 2007 |Company: Autodesk,Inc. |WEB Address: www.autodesk.com
 90
      129
 91
        1
280
     0
281
     0
  0
CLASS
  1
AEC_DISPROPSOPENINGSILLPLAN
  2
AecDbDispPropsOpeningSillPlan
  3
AecArchDACHBase50|Product Desc: Autodesk Architectural Desktop 2007 |Company: Autodesk,Inc. |WEB Address: www.autodesk.com
 90
      129
 91
        1
280
     0
281
     0
  0
CLASS
  1
AEC_DISP_REP_WINDOW_PLAN_50
  2
AecDbDispRepWindowPlan50
  3
AecArchDACHBase50|Product Desc: Autodesk Architectural Desktop 2007 |Company: Autodesk,Inc. |WEB Address: www.autodesk.com
 90
      129
 91
        1
280
     0
281
     0
  0
CLASS
  1
AEC_DISP_PROPS_WINDOW_PLAN_50
  2
AecDbDispPropsWindowPlan50
  3
AecArchDACHBase50|Product Desc: Autodesk Architectural Desktop 2007 |Company: Autodesk,Inc. |WEB Address: www.autodesk.com
 90
      129
 91
        1
280
     0
281
     0
  0
CLASS
  1
AEC_DISP_REP_RAILING_PLAN_50
  2
AecDbDispRepRailingPlan50
  3
AecArchDACHBase50|Product Desc: Autodesk Architectural Desktop 2007 |Company: Autodesk,Inc. |WEB Address: www.autodesk.com
 90
      129
 91
        1
280
     0
281
     0
  0
CLASS
  1
AEC_DISP_ROPS_RAILING_PLAN_50
  2
AecDbDispPropsRailingPlan50
  3
AecArchDACHBase50|Product Desc: Autodesk Architectural Desktop 2007 |Company: Autodesk,Inc. |WEB Address: www.autodesk.com
 90
      129
 91
        1
280
     0
281
     0
  0
CLASS
  1
AEC_DISPREPAECDBDISPREPOPENINGPLAN100
  2
AecDbDispRepOpeningPlan100
  3
AecArchDACHBase50|Product Desc: Autodesk Architectural Desktop 2007 |Company: Autodesk,Inc. |WEB Address: www.autodesk.com
 90
      129
 91
        1
280
     0
281
     0
  0
CLASS
  1
AEC_AECDBDISPREPCURTAINWALLUNITPLAN100
  2
AecDbDispRepCurtainWallUnitPlan100
  3
AecArchDACHBase50|Product Desc: Autodesk Architectural Desktop 2007 |Company: Autodesk,Inc. |WEB Address: www.autodesk.com
 90
      129
 91
        1
280
     0
281
     0
  0
CLASS
  1
AEC_AECDBDISPREPSPACEPLAN100
  2
AecDbDispRepSpacePlan100
  3
AecArchDACHBase50|Product Desc: Autodesk Architectural Desktop 2007 |Company: Autodesk,Inc. |WEB Address: www.autodesk.com
 90
      129
 91
        1
280
     0
281
     0
  0
CLASS
  1
AEC_DISP_REP_COLUMN_GRID_RCP
  2
AecDbDispRepColumnGridRcp
  3
AecStructureBase50|Product Desc: Autodesk Architectural Desktop 2007 |Company: Autodesk,Inc. |WEB Address: www.autodesk.com
 90
      129
 91
        1
280
     0
281
     0
  0
CLASS
  1
AEC_AECDBDISPREPBDGELEVLINEPLAN100
  2
AecDbDispRepBdgElevLinePlan100
  3
AecArchDACHBase50|Product Desc: Autodesk Architectural Desktop 2007 |Company: Autodesk,Inc. |WEB Address: www.autodesk.com
 90
      129
 91
        1
280
     0
281
     0
  0
CLASS
  1
AEC_AECDBDISPREPROOFPLAN100
  2
AecDbDispRepRoofPlan100
  3
AecArchDACHBase50|Product Desc: Autodesk Architectural Desktop 2007 |Company: Autodesk,Inc. |WEB Address: www.autodesk.com
 90
      129
 91
        1
280
     0
281
     0
  0
CLASS
  1
AEC_AECDBDISPREPROOFSLABPLAN50
  2
AecDbDispRepRoofSlabPlan50
  3
AecArchDACHBase50|Product Desc: Autodesk Architectural Desktop 2007 |Company: Autodesk,Inc. |WEB Address: www.autodesk.com
 90
      129
 91
        1
280
     0
281
     0
  0
CLASS
  1
AEC_AECDBDISPREPCOLUMNGRIDPLAN50
  2
AecDbDispRepColumnGridPlan50
  3
AecArchDACHBase50|Product Desc: Autodesk Architectural Desktop 2007 |Company: Autodesk,Inc. |WEB Address: www.autodesk.com
 90
      129
 91
        1
280
     0
281
     0
  0
CLASS
  1
AEC_AECDBDISPREPZONE50
  2
AecDbDispRepZonePlan50
  3
AecArchDACHBase50|Product Desc: Autodesk Architectural Desktop 2007 |Company: Autodesk,Inc. |WEB Address: www.autodesk.com
 90
      129
 91
        1
280
     0
281
     0
  0
CLASS
  1
AEC_AECDBDISPREPCURTAINWALLLAYOUTPLAN50
  2
AecDbDispRepCurtainWallLayoutPlan50
  3
AecArchDACHBase50|Product Desc: Autodesk Architectural Desktop 2007 |Company: Autodesk,Inc. |WEB Address: www.autodesk.com
 90
      129
 91
        1
280
     0
281
     0
  0
CLASS
  1
AEC_AECDBDISPREPZONE100
  2
AecDbDispRepZonePlan100
  3
AecArchDACHBase50|Product Desc: Autodesk Architectural Desktop 2007 |Company: Autodesk,Inc. |WEB Address: www.autodesk.com
 90
      129
 91
        1
280
     0
281
     0
  0
CLASS
  1
AEC_AECDBDISPREPMVBLOCKREFPLAN100
  2
AecDbDispRepMvBlockRefPlan100
  3
AecArchDACHBase50|Product Desc: Autodesk Architectural Desktop 2007 |Company: Autodesk,Inc. |WEB Address: www.autodesk.com
 90
      129
 91
        1
280
     0
281
     0
  0
CLASS
  1
AECS_DISP_REP_MEMBER_PLAN_SKETCH
  2
AecsDbDispRepMemberPlanSketch
  3
AecStructureBase50|Product Desc: Autodesk Architectural Desktop 2007 |Company: Autodesk,Inc. |WEB Address: www.autodesk.com
 90
      129
 91
        1
280
     0
281
     0
  0
CLASS
  1
AECS_DISP_PROPS_MEMBER_PLAN_SKETCH
  2
AecsDbDispPropsMemberPlanSketch
  3
AecStructureBase50|Product Desc: Autodesk Architectural Desktop 2007 |Company: Autodesk,Inc. |WEB Address: www.autodesk.com
 90
      129
 91
        1
280
     0
281
     0
  0
CLASS
  1
AECS_DISP_REP_MEMBER_PLAN_DETAIL
  2
AecsDbDispRepMemberPlanDetail
  3
AecStructureBase50|Product Desc: Autodesk Architectural Desktop 2007 |Company: Autodesk,Inc. |WEB Address: www.autodesk.com
 90
      129
 91
        1
280
     0
281
     0
  0
CLASS
  1
AEC_AECDBDISPREPBDGSECTIONLINEPLAN50
  2
AecDbDispRepBdgSectionLinePlan50
  3
AecArchDACHBase50|Product Desc: Autodesk Architectural Desktop 2007 |Company: Autodesk,Inc. |WEB Address: www.autodesk.com
 90
      129
 91
        1
280
     0
281
     0
  0
CLASS
  1
AEC_AECDBDISPREPCEILINGGRIDPLAN50
  2
AecDbDispRepCeilingGridPlan50
  3
AecArchDACHBase50|Product Desc: Autodesk Architectural Desktop 2007 |Company: Autodesk,Inc. |WEB Address: www.autodesk.com
 90
      129
 91
        1
280
     0
281
     0
  0
CLASS
  1
AECS_DISP_REP_MEMBER_ELEVATION_DESIGN
  2
AecsDbDispRepMemberElevationDesign
  3
AecStructureBase50|Product Desc: Autodesk Architectural Desktop 2007 |Company: Autodesk,Inc. |WEB Address: www.autodesk.com
 90
      129
 91
        1
280
     0
281
     0
  0
CLASS
  1
AECS_DISP_PROPS_MEMBER_PROJECTED
  2
AecsDbDispPropsMemberProjected
  3
AecStructureBase50|Product Desc: Autodesk Architectural Desktop 2007 |Company: Autodesk,Inc. |WEB Address: www.autodesk.com
 90
      129
 91
        2
280
     0
281
     0
  0
CLASS
  1
AEC_AECDBDISPREPWALLPLAN50
  2
AecDbDispRepWallPlan50
  3
AecArchDACHBase50|Product Desc: Autodesk Architectural Desktop 2007 |Company: Autodesk,Inc. |WEB Address: www.autodesk.com
 90
      129
 91
        1
280
     0
281
     0
  0
CLASS
  1
AEC_AECDBDISPREPSPACEPLAN50
  2
AecDbDispRepSpacePlan50
  3
AecArchDACHBase50|Product Desc: Autodesk Architectural Desktop 2007 |Company: Autodesk,Inc. |WEB Address: www.autodesk.com
 90
      129
 91
        1
280
     0
281
     0
  0
CLASS
  1
AEC_AECDBDISPREPWALLPLAN100
  2
AecDbDispRepWallPlan100
  3
AecArchDACHBase50|Product Desc: Autodesk Architectural Desktop 2007 |Company: Autodesk,Inc. |WEB Address: www.autodesk.com
 90
      129
 91
        1
280
     0
281
     0
  0
CLASS
  1
AEC_AECDBDISPREPCURTAINWALLUNITPLAN50
  2
AecDbDispRepCurtainWallUnitPlan50
  3
AecArchDACHBase50|Product Desc: Autodesk Architectural Desktop 2007 |Company: Autodesk,Inc. |WEB Address: www.autodesk.com
 90
      129
 91
        1
280
     0
281
     0
  0
CLASS
  1
AECS_DISP_REP_MEMBER_ELEVATION_DETAIL
  2
AecsDbDispRepMemberElevationDetail
  3
AecStructureBase50|Product Desc: Autodesk Architectural Desktop 2007 |Company: Autodesk,Inc. |WEB Address: www.autodesk.com
 90
      129
 91
        1
280
     0
281
     0
  0
CLASS
  1
AECS_DISP_REP_MEMBER_MODEL_DETAIL
  2
AecsDbDispRepMemberModelDetail
  3
AecStructureBase50|Product Desc: Autodesk Architectural Desktop 2007 |Company: Autodesk,Inc. |WEB Address: www.autodesk.com
 90
      129
 91
        1
280
     0
281
     0
  0
CLASS
  1
AEC_AECDBDISPREPCEILINGGRIDPLAN100
  2
AecDbDispRepCeilingGridPlan100
  3
AecArchDACHBase50|Product Desc: Autodesk Architectural Desktop 2007 |Company: Autodesk,Inc. |WEB Address: www.autodesk.com
 90
      129
 91
        1
280
     0
281
     0
  0
CLASS
  1
AEC_AECDBDISPREPBDGSECTIONLINEPLAN100
  2
AecDbDispRepBdgSectionLinePlan100
  3
AecArchDACHBase50|Product Desc: Autodesk Architectural Desktop 2007 |Company: Autodesk,Inc. |WEB Address: www.autodesk.com
 90
      129
 91
        1
280
     0
281
     0
  0
CLASS
  1
AEC_DISP_REP_ANCHOR_BUB_TO_GRID_RCP
  2
AecDbDispRepAnchorBubToGridRcp
  3
AecStructureBase50|Product Desc: Autodesk Architectural Desktop 2007 |Company: Autodesk,Inc. |WEB Address: www.autodesk.com
 90
      129
 91
        1
280
     0
281
     0
  0
CLASS
  1
AEC_AECDBDISPREPBDGELEVLINEPLAN50
  2
AecDbDispRepBdgElevLinePlan50
  3
AecArchDACHBase50|Product Desc: Autodesk Architectural Desktop 2007 |Company: Autodesk,Inc. |WEB Address: www.autodesk.com
 90
      129
 91
        1
280
     0
281
     0
  0
CLASS
  1
AEC_AECDBDISPREPWINDOWASSEMBLYPLAN50
  2
AecDbDispRepWindowAssemblyPlan50
  3
AecArchDACHBase50|Product Desc: Autodesk Architectural Desktop 2007 |Company: Autodesk,Inc. |WEB Address: www.autodesk.com
 90
      129
 91
        1
280
     0
281
     0
  0
CLASS
  1
AEC_AECDBDISPREPROOFSLABPLAN100
  2
AecDbDispRepRoofSlabPlan100
  3
AecArchDACHBase50|Product Desc: Autodesk Architectural Desktop 2007 |Company: Autodesk,Inc. |WEB Address: www.autodesk.com
 90
      129
 91
        1
280
     0
281
     0
  0
CLASS
  1
AEC_AECDBDISPREPROOFPLAN50
  2
AecDbDispRepRoofPlan50
  3
AecArchDACHBase50|Product Desc: Autodesk Architectural Desktop 2007 |Company: Autodesk,Inc. |WEB Address: www.autodesk.com
 90
      129
 91
        1
280
     0
281
     0
  0
CLASS
  1
AEC_AECDBDISPREPCOLUMNGRIDPLAN100
  2
AecDbDispRepColumnGridPlan100
  3
AecArchDACHBase50|Product Desc: Autodesk Architectural Desktop 2007 |Company: Autodesk,Inc. |WEB Address: www.autodesk.com
 90
      129
 91
        1
280
     0
281
     0
  0
CLASS
  1
AEC_AECDBDISPREPSLABPLAN50
  2
AecDbDispRepSlabPlan50
  3
AecArchDACHBase50|Product Desc: Autodesk Architectural Desktop 2007 |Company: Autodesk,Inc. |WEB Address: www.autodesk.com
 90
      129
 91
        1
280
     0
281
     0
  0
CLASS
  1
AEC_AECDBDISPREPSLABPLAN100
  2
AecDbDispRepSlabPlan100
  3
AecArchDACHBase50|Product Desc: Autodesk Architectural Desktop 2007 |Company: Autodesk,Inc. |WEB Address: www.autodesk.com
 90
      129
 91
        1
280
     0
281
     0
  0
CLASS
  1
AEC_AECDBDISPREPCURTAINWALLLAYOUTPLAN100
  2
AecDbDispRepCurtainWallLayoutPlan100
  3
AecArchDACHBase50|Product Desc: Autodesk Architectural Desktop 2007 |Company: Autodesk,Inc. |WEB Address: www.autodesk.com
 90
      129
 91
        1
280
     0
281
     0
  0
CLASS
  1
AEC_AECDBDISPREPMVBLOCKREFPLAN50
  2
AecDbDispRepMvBlockRefPlan50
  3
AecArchDACHBase50|Product Desc: Autodesk Architectural Desktop 2007 |Company: Autodesk,Inc. |WEB Address: www.autodesk.com
 90
      129
 91
        1
280
     0
281
     0
  0
CLASS
  1
AEC_DISP_REP_WINDOW_ELEV
  2
AecDbDispRepWindowElev
  3
AecArchBase50|Product Desc: Autodesk Architectural Desktop 2007 |Company: Autodesk,Inc. |WEB Address: www.autodesk.com
 90
      129
 91
        1
280
     0
281
     0
  0
CLASS
  1
AEC_DISP_REP_WINDOW_SILL_PLAN
  2
AecDbDispRepWindowSillPlan
  3
AecArchBase50|Product Desc: Autodesk Architectural Desktop 2007 |Company: Autodesk,Inc. |WEB Address: www.autodesk.com
 90
      129
 91
        1
280
     0
281
     0
  0
CLASS
  1
AEC_DISP_PROPS_WINDOW_SILL_PLAN
  2
AecDbDispPropsWindowSillPlan
  3
AecArchBase50|Product Desc: Autodesk Architectural Desktop 2007 |Company: Autodesk,Inc. |WEB Address: www.autodesk.com
 90
      129
 91
        1
280
     0
281
     0
  0
CLASS
  1
AEC_DISP_REP_WINDOW_RCP
  2
AecDbDispRepWindowRcp
  3
AecArchBase50|Product Desc: Autodesk Architectural Desktop 2007 |Company: Autodesk,Inc. |WEB Address: www.autodesk.com
 90
      129
 91
        1
280
     0
281
     0
  0
CLASS
  1
AEC_DISP_REP_WINDOWASSEMBLY_SILL_PLAN
  2
AecDbDispRepWindowAssemblySillPlan
  3
AecArchBase50|Product Desc: Autodesk Architectural Desktop 2007 |Company: Autodesk,Inc. |WEB Address: www.autodesk.com
 90
      129
 91
        1
280
     0
281
     0
  0
CLASS
  1
AEC_DISP_PROPS_WINDOW_ASSEMBLY_SILL_PLAN
  2
AecDbDispPropsWindowAssemblySillPlan
  3
AecArchBase50|Product Desc: Autodesk Architectural Desktop 2007 |Company: Autodesk,Inc. |WEB Address: www.autodesk.com
 90
      129
 91
        1
280
     0
281
     0
  0
CLASS
  1
AEC_DISP_REP_MASS_ELEM_RCP
  2
AecDbDispRepMassElemRcp
  3
AecArchBase50|Product Desc: Autodesk Architectural Desktop 2007 |Company: Autodesk,Inc. |WEB Address: www.autodesk.com
 90
      129
 91
        1
280
     0
281
     0
  0
CLASS
  1
AEC_DISP_REP_MVBLOCK_REF_RCP
  2
AecDbDispRepMvBlockRefRcp
  3
AecArchBase50|Product Desc: Autodesk Architectural Desktop 2007 |Company: Autodesk,Inc. |WEB Address: www.autodesk.com
 90
      129
 91
        1
280
     0
281
     0
  0
CLASS
  1
AEC_DISP_REP_DOOR_THRESHOLD_PLAN
  2
AecDbDispRepDoorThresholdPlan
  3
AecArchBase50|Product Desc: Autodesk Architectural Desktop 2007 |Company: Autodesk,Inc. |WEB Address: www.autodesk.com
 90
      129
 91
        1
280
     0
281
     0
  0
CLASS
  1
AEC_DISP_PROPS_DOOR_THRESHOLD_PLAN
  2
AecDbDispPropsDoorThresholdPlan
  3
AecArchBase50|Product Desc: Autodesk Architectural Desktop 2007 |Company: Autodesk,Inc. |WEB Address: www.autodesk.com
 90
      129
 91
        1
280
     0
281
     0
  0
CLASS
  1
AEC_DISP_REP_BDG_SECTIONLINE_RCP
  2
AecDbDispRepBdgSectionLineRcp
  3
AecArchBase50|Product Desc: Autodesk Architectural Desktop 2007 |Company: Autodesk,Inc. |WEB Address: www.autodesk.com
 90
      129
 91
        1
280
     0
281
     0
  0
CLASS
  1
AEC_DISP_REP_BDG_SECTION_MODEL
  2
AecDbDispRepBdgSectionModel
  3
AecArchBase50|Product Desc: Autodesk Architectural Desktop 2007 |Company: Autodesk,Inc. |WEB Address: www.autodesk.com
 90
      129
 91
        1
280
     0
281
     0
  0
CLASS
  1
AEC_DISP_REP_MASS_GROUP_RCP
  2
AecDbDispRepMassGroupRcp
  3
AecArchBase50|Product Desc: Autodesk Architectural Desktop 2007 |Company: Autodesk,Inc. |WEB Address: www.autodesk.com
 90
      129
 91
        1
280
     0
281
     0
  0
CLASS
  1
AEC_DISP_REP_DOOR_RCP
  2
AecDbDispRepDoorRcp
  3
AecArchBase50|Product Desc: Autodesk Architectural Desktop 2007 |Company: Autodesk,Inc. |WEB Address: www.autodesk.com
 90
      129
 91
        1
280
     0
281
     0
  0
CLASS
  1
AEC_DISP_REP_ROOF_RCP
  2
AecDbDispRepRoofRcp
  3
AecArchBase50|Product Desc: Autodesk Architectural Desktop 2007 |Company: Autodesk,Inc. |WEB Address: www.autodesk.com
 90
      129
 91
        1
280
     0
281
     0
  0
CLASS
  1
AEC_DISP_REP_BDG_ELEVLINE_RCP
  2
AecDbDispRepBdgElevLineRcp
  3
AecArchBase50|Product Desc: Autodesk Architectural Desktop 2007 |Company: Autodesk,Inc. |WEB Address: www.autodesk.com
 90
      129
 91
        1
280
     0
281
     0
  0
CLASS
  1
AEC_DISP_REP_WALL_RCP
  2
AecDbDispRepWallRcp
  3
AecArchBase50|Product Desc: Autodesk Architectural Desktop 2007 |Company: Autodesk,Inc. |WEB Address: www.autodesk.com
 90
      129
 91
        1
280
     0
281
     0
  0
CLASS
  1
AEC_DISP_REP_STAIR_RCP
  2
AecDbDispRepStairRcp
  3
AecArchBase50|Product Desc: Autodesk Architectural Desktop 2007 |Company: Autodesk,Inc. |WEB Address: www.autodesk.com
 90
      129
 91
        1
280
     0
281
     0
  0
CLASS
  1
AEC_DISP_REP_STAIR_PLAN_OVERLAPPING
  2
AecDbDispRepStairPlanOverlapping
  3
AecArchBase50|Product Desc: Autodesk Architectural Desktop 2007 |Company: Autodesk,Inc. |WEB Address: www.autodesk.com
 90
      129
 91
        1
280
     0
281
     0
  0
CLASS
  1
AEC_DISP_PROPS_STAIR_PLAN_OVERLAPPING
  2
AecDbDispPropsStairPlanOverlapping
  3
AecArchBase50|Product Desc: Autodesk Architectural Desktop 2007 |Company: Autodesk,Inc. |WEB Address: www.autodesk.com
 90
      129
 91
        1
280
     0
281
     0
  0
CLASS
  1
AEC_DISP_REP_SPACE_RCP
  2
AecDbDispRepSpaceRcp
  3
AecArchBase50|Product Desc: Autodesk Architectural Desktop 2007 |Company: Autodesk,Inc. |WEB Address: www.autodesk.com
 90
      129
 91
        1
280
     0
281
     0
  0
CLASS
  1
AEC_DISP_REP_SPACE_VOLUME
  2
AecDbDispRepSpaceVolume
  3
AecArchBase50|Product Desc: Autodesk Architectural Desktop 2007 |Company: Autodesk,Inc. |WEB Address: www.autodesk.com
 90
      129
 91
        1
280
     0
281
     0
  0
CLASS
  1
AEC_DISP_REP_DOOR_ELEV
  2
AecDbDispRepDoorElev
  3
AecArchBase50|Product Desc: Autodesk Architectural Desktop 2007 |Company: Autodesk,Inc. |WEB Address: www.autodesk.com
 90
      129
 91
        1
280
     0
281
     0
  0
CLASS
  1
AEC_DISP_REP_ANCHOR_EXT_TAG_TO_ENT
  2
AecDbDispRepAnchorExtendedTagToEnt
  3
AecScheduleData50|Product Desc: Autodesk Architectural Desktop 2007 |Company: Autodesk,Inc. |WEB Address: www.autodesk.com
 90
      129
 91
        1
280
     0
281
     0
  0
CLASS
  1
AEC_DISP_REP_ANCHOR
  2
AecDbDispRepAnchor
  3
AecBase50|Product Desc: Autodesk Architectural Desktop 2007 |Company: Autodesk,Inc. |WEB Address: www.autodesk.com
 90
      129
 91
        1
280
     0
281
     0
  0
CLASS
  1
AEC_DISP_REP_POLYGON_TRUECOLOUR
  2
AecDbDispRepPolygonTrueColour
  3
AecBaseEx50|Product Desc: Autodesk Architectural Desktop 2007 |Company: Autodesk,Inc. |WEB Address: www.autodesk.com
 90
      129
 91
        1
280
     0
281
     0
  0
CLASS
  1
AEC_DISP_PROPS_POLYGON_TRUECOLOUR
  2
AecDbDispPropsPolygonTrueColour
  3
AecBaseEx50|Product Desc: Autodesk Architectural Desktop 2007 |Company: Autodesk,Inc. |WEB Address: www.autodesk.com
 90
      129
 91
        1
280
     0
281
     0
  0
CLASS
  1
BINRECORD
  2
AcAecBinRecord
  3
AecBase50|Product Desc: Autodesk Architectural Desktop 2007 |Company: Autodesk,Inc. |WEB Address: www.autodesk.com
 90
      129
 91
        1
280
     0
281
     0
  0
CLASS
  1
ACSH_SPHERE_CLASS
  2
AcDbShSphere
  3
ObjectDBX Classes
 90
     1153
 91
        0
280
     0
281
     0
  0
CLASS
  1
ACSH_HISTORY_CLASS
  2
AcDbShHistory
  3
ObjectDBX Classes
 90
     1153
 91
        0
280
     0
281
     0
  0
CLASS
  1
SOLID_BACKGROUND
  2
AcDbSolidBackground
  3
SCENEOE
 90
     4095
 91
        0
280
     0
281
     0
  0
CLASS
  1
ACSH_BOX_CLASS
  2
AcDbShBox
  3
ObjectDBX Classes
 90
     1153
 91
        0
280
     0
281
     0
  0
CLASS
  1
ACSH_CONE_CLASS
  2
AcDbShCone
  3
ObjectDBX Classes
 90
     1153
 91
        0
280
     0
281
     0
  0
CLASS
  1
ACSH_TORUS_CLASS
  2
AcDbShTorus
  3
ObjectDBX Classes
 90
     1153
 91
        0
280
     0
281
     0
  0
CLASS
  1
HELIX
  2
AcDbHelix
  3
ObjectDBX Classes
 90
     4095
 91
        0
280
     0
281
     1
  0
CLASS
  1
ACSH_SWEEP_CLASS
  2
AcDbShSweep
  3
ObjectDBX Classes
 90
     1153
 91
        0
280
     0
281
     0
  0
CLASS
  1
EXACXREFPANELOBJECT
  2
ExAcXREFPanelObject
  3
EXAC_ESW
 90
     1025
 91
        1
280
     0
281
     0
  0
CLASS
  1
FIELD
  2
AcDbField
  3
ObjectDBX Classes
 90
     1152
 91
        0
280
     0
281
     0
  0
CLASS
  1
IMAGE
  2
AcDbRasterImage
  3
ISM
 90
     2175
 91
        0
280
     0
281
     1
  0
CLASS
  1
IMAGEDEF_REACTOR
  2
AcDbRasterImageDefReactor
  3
ISM
 90
        1
 91
        0
280
     0
281
     0
  0
CLASS
  1
IMAGEDEF
  2
AcDbRasterImageDef
  3
ISM
 90
        0
 91
        0
280
     0
281
     0
  0
CLASS
  1
FIELDLIST
  2
AcDbFieldList
  3
ObjectDBX Classes
 90
     1152
 91
        1
280
     0
281
     0
  0
CLASS
  1
RASTERVARIABLES
  2
AcDbRasterVariables
  3
ISM
 90
        0
 91
        1
280
     0
281
     0
  0
CLASS
  1
EXACTERMXREFMAP
  2
ExAcTermXrefMap
  3
EXAC_SERVICE
 90
     1025
 91
        0
280
     0
281
     0
  0
CLASS
  1
BLOCKBASEPOINTPARAMETER
  2
AcDbBlockBasepointParameter
  3
ObjectDBX Classes
 90
     1153
 91
        0
280
     0
281
     0
  0
CLASS
  1
DIMASSOC
  2
AcDbDimAssoc
  3
"AcDbDimAssoc|Product Desc:     AcDim ARX App For Dimension|Company:          Autodesk, Inc.|WEB Address:      www.autodesk.com"
 90
        0
 91
        0
280
     0
281
     0
  0
CLASS
  1
BLOCKSCALEACTION
  2
AcDbBlockScaleAction
  3
ObjectDBX Classes
 90
     1153
 91
        0
280
     0
281
     0
  0
CLASS
  1
BLOCKARRAYACTION
  2
AcDbBlockArrayAction
  3
ObjectDBX Classes
 90
     1153
 91
        0
280
     0
281
     0
  0
CLASS
  1
RTEXT
  2
RText
  3
RText|AutoCAD Express Tool|expresstools@autodesk.com
 90
     3071
 91
        0
280
     0
281
     1
  0
CLASS
  1
WIPEOUTVARIABLES
  2
AcDbWipeoutVariables
  3
"WipeOut|Product Desc:     WipeOut Dbx Application|Company:          Autodesk, Inc.|WEB Address:      www.autodesk.com"
 90
        0
 91
        1
280
     0
281
     0
  0
CLASS
  1
ACDB_ANGDIMOBJECTCONTEXTDATA_CLASS
  2
AcDbAngularDimensionObjectContextData
  3
ObjectDBX Classes
 90
     1153
 91
        0
280
     0
281
     0
  0
CLASS
  1
ACDB_RADIMOBJECTCONTEXTDATA_CLASS
  2
AcDbRadialDimensionObjectContextData
  3
ObjectDBX Classes
 90
     1153
 91
        0
280
     0
281
     0
  0
CLASS
  1
DWFDEFINITION
  2
AcDbDwfDefinition
  3
ObjectDBX Classes
 90
     1153
 91
        0
280
     0
281
     0
  0
CLASS
  1
DWFUNDERLAY
  2
AcDbDwfReference
  3
ObjectDBX Classes
 90
     1153
 91
        0
280
     0
281
     1
  0
CLASS
  1
ACAECUSTOBJ
  2
AcAeEditorObj
  3
AcAeEditorObj
 90
     1024
 91
        0
280
     0
281
     0
  0
CLASS
  1
ACDB_HATCHVIEWCONTEXTDATA_CLASS
  2
AcDbHatchViewContextData
  3
ObjectDBX Classes
 90
     1153
 91
        0
280
     0
281
     0
  0
CLASS
  1
ACDB_HATCHSCALECONTEXTDATA_CLASS
  2
AcDbHatchScaleContextData
  3
ObjectDBX Classes
 90
     1153
 91
        0
280
     0
281
     0
  0
ENDSEC
  0
SECTION
  2
TABLES
  0
TABLE
  2
VPORT
  5
8
330
0
100
AcDbSymbolTable
 70
     1
  0
VPORT
  5
215
330
8
100
AcDbSymbolTableRecord
100
AcDbViewportTableRecord
  2
*Active
 70
     0
 10
0.0
 20
0.0
 11
1.0
 21
1.0
 12
44.28029589005563
 22
190.5962365781998
 13
0.0
 23
0.0
 14
0.5
 24
0.5
 15
0.5
 25
0.5
 16
0.0
 26
0.0
 36
152.1773905492729
 17
-17.08379207255076
 27
36.32312325439756
 37
-0.0000000000000539
 40
755.3233969195049
 41
2.116022099447513
 42
50.0
 43
0.0
 44
0.0
 50
0.0
 51
0.0
 71
     0
 72
  1000
 73
     1
 74
     3
 75
     0
 76
     0
 77
     0
 78
     0
281
     0
 65
     0
110
0.0
120
0.0
130
0.0
111
1.0
121
0.0
131
0.0
112
0.0
122
1.0
132
0.0
 79
     0
146
0.0
348
220
 60
     3
 61
     5
292
     1
282
     1
141
0.0
142
0.0
 63
   250
421
  3355443
  0
ENDTAB
  0
TABLE
  2
LTYPE
  5
5
330
0
100
AcDbSymbolTable
 70
    10
  0
LTYPE
  5
14
330
5
100
AcDbSymbolTableRecord
100
AcDbLinetypeTableRecord
  2
ByBlock
 70
     0
  3

 72
    65
 73
     0
 40
0.0
  0
LTYPE
  5
15
330
5
100
AcDbSymbolTableRecord
100
AcDbLinetypeTableRecord
  2
ByLayer
 70
     0
  3

 72
    65
 73
     0
 40
0.0
  0
LTYPE
  5
16
330
5
100
AcDbSymbolTableRecord
100
AcDbLinetypeTableRecord
  2
Continuous
 70
     0
  3
Solid line
 72
    65
 73
     0
 40
0.0
  0
LTYPE
  5
75E5
330
5
100
AcDbSymbolTableRecord
100
AcDbLinetypeTableRecord
  2
DASHDOT
 70
     0
  3
DASHDOT LINE
 72
    65
 73
     4
 40
0.7
 49
0.4
 74
     0
 49
-0.1
 74
     0
 49
0.1
 74
     0
 49
-0.1
 74
     0
  0
LTYPE
  5
AB30
330
5
100
AcDbSymbolTableRecord
100
AcDbLinetypeTableRecord
  2
DASHED
 70
     0
  3
Dashed __ __ __ __ __ __ __ __ __ __ __ __ __ _
 72
    65
 73
     2
 40
0.75
 49
0.5
 74
     0
 49
-0.25
 74
     0
  0
LTYPE
  5
AB31
330
5
100
AcDbSymbolTableRecord
100
AcDbLinetypeTableRecord
  2
CENTER
 70
     0
  3
Center ____ _ ____ _ ____ _ ____ _ ____ _ ____
 72
    65
 73
     4
 40
2.0
 49
1.25
 74
     0
 49
-0.25
 74
     0
 49
0.25
 74
     0
 49
-0.25
 74
     0
  0
LTYPE
  5
AB32
330
5
100
AcDbSymbolTableRecord
100
AcDbLinetypeTableRecord
  2
HIDDEN
 70
     0
  3
Hidden __ __ __ __ __ __ __ __ __ __ __ __ __ _
 72
    65
 73
     2
 40
0.375
 49
0.25
 74
     0
 49
-0.125
 74
     0
  0
LTYPE
  5
AB33
330
5
100
AcDbSymbolTableRecord
100
AcDbLinetypeTableRecord
  2
DIVIDE2
 70
     0
  3
Divide (.5x) __..__..__..__..__..__..__..__.._
 72
    65
 73
     6
 40
0.625
 49
0.25
 74
     0
 49
-0.125
 74
     0
 49
0.0
 74
     0
 49
-0.125
 74
     0
 49
0.0
 74
     0
 49
-0.125
 74
     0
  0
LTYPE
  5
ABEB
330
5
100
AcDbSymbolTableRecord
100
AcDbLinetypeTableRecord
  2
mp000096$0$DASHED
 70
     0
  3
Dashed __ __ __ __ __ __ __ __ __ __ __ __ __ _
 72
    65
 73
     2
 40
0.75
 49
0.5
 74
     0
 49
-0.25
 74
     0
  0
LTYPE
  5
ABEC
330
5
100
AcDbSymbolTableRecord
100
AcDbLinetypeTableRecord
  2
mp000096$0$CENTER
 70
     0
  3
Center ____ _ ____ _ ____ _ ____ _ ____ _ ____
 72
    65
 73
     4
 40
2.0
 49
1.25
 74
     0
 49
-0.25
 74
     0
 49
0.25
 74
     0
 49
-0.25
 74
     0
  0
LTYPE
  5
ABED
330
5
100
AcDbSymbolTableRecord
100
AcDbLinetypeTableRecord
  2
mp000096$0$HIDDEN
 70
     0
  3
Hidden __ __ __ __ __ __ __ __ __ __ __ __ __ _
 72
    65
 73
     2
 40
0.375
 49
0.25
 74
     0
 49
-0.125
 74
     0
  0
LTYPE
  5
ABEE
330
5
100
AcDbSymbolTableRecord
100
AcDbLinetypeTableRecord
  2
mp000096$0$DIVIDE2
 70
     0
  3
Divide (.5x) __..__..__..__..__..__..__..__.._
 72
    65
 73
     6
 40
0.625
 49
0.25
 74
     0
 49
-0.125
 74
     0
 49
0.0
 74
     0
 49
-0.125
 74
     0
 49
0.0
 74
     0
 49
-0.125
 74
     0
  0
ENDTAB
  0
TABLE
  2
LAYER
  5
2
102
{ACAD_XDICTIONARY
360
28F
102
}
330
0
100
AcDbSymbolTable
 70
    11
  0
LAYER
  5
10
102
{ACAD_XDICTIONARY
360
308
102
}
330
2
100
AcDbSymbolTableRecord
100
AcDbLayerTableRecord
  2
0
 70
     0
 62
     7
  6
Continuous
370
    -3
390
F
347
219
  0
LAYER
  5
37D
102
{ACAD_XDICTIONARY
360
37E
102
}
330
2
100
AcDbSymbolTableRecord
100
AcDbLayerTableRecord
  2
defpoints
 70
     0
 62
     7
  6
Continuous
290
     0
370
    -3
390
F
347
219
  0
LAYER
  5
75E6
102
{ACAD_XDICTIONARY
360
75E7
102
}
330
2
100
AcDbSymbolTableRecord
100
AcDbLayerTableRecord
  2
CAD_DEFAULT_LAYER
 70
     0
 62
     7
  6
Continuous
370
     5
390
F
347
219
  0
LAYER
  5
A86D
330
2
100
AcDbSymbolTableRecord
100
AcDbLayerTableRecord
  2
MP Panel Perimeter (00134148)
 70
     0
 62
   162
420
   279240
  6
Continuous
370
    15
390
F
347
219
  0
LAYER
  5
A870
330
2
100
AcDbSymbolTableRecord
100
AcDbLayerTableRecord
  2
MP Panel Hatch (00134149)
 70
     0
 62
   161
420
  6263292
  6
Continuous
370
     0
390
F
347
219
  0
LAYER
  5
A96D
330
2
100
AcDbSymbolTableRecord
100
AcDbLayerTableRecord
  2
MP Barricade Building Wrap Perimeter Isometric (00134183)
 70
     0
 62
   142
420
   434907
  6
Continuous
370
    25
390
F
347
219
  0
LAYER
  5
A96E
330
2
100
AcDbSymbolTableRecord
100
AcDbLayerTableRecord
  2
MP Barricade Building Wrap Hatch (00134140
 70
     0
 62
   146
420
   218482
  6
Continuous
370
     5
390
F
347
219
  0
LAYER
  5
A971
330
2
100
AcDbSymbolTableRecord
100
AcDbLayerTableRecord
  2
MP Annotation (00134142)
 70
     0
 62
     7
  6
Continuous
370
     0
390
F
347
219
  0
LAYER
  5
A973
330
2
100
AcDbSymbolTableRecord
100
AcDbLayerTableRecord
  2
MP Fixings (00134143)
 70
     0
 62
     9
420
 11131584
  6
Continuous
370
     9
390
F
347
219
  0
LAYER
  5
A974
330
2
100
AcDbSymbolTableRecord
100
AcDbLayerTableRecord
  2
MP Timber Perimeter (00134144)
 70
     0
 62
    33
420
 11965012
  6
Continuous
370
    18
390
F
347
219
  0
LAYER
  5
A975
330
2
100
AcDbSymbolTableRecord
100
AcDbLayerTableRecord
  2
MP Timber Inner (00134145)
 70
     0
 62
    36
420
  7163415
  6
Continuous
370
     9
390
F
347
219
  0
ENDTAB
  0
TABLE
  2
STYLE
  5
3
330
0
100
AcDbSymbolTable
 70
     6
  0
STYLE
  5
11
330
3
100
AcDbSymbolTableRecord
100
AcDbTextStyleTableRecord
  2
Standard
 70
     0
 40
0.0
 41
1.0
 50
0.0
 71
     0
 42
19.36617472281852
  3
ARIAL.TTF
  4

1001
ACAD
1000
Arial
1071
       34
  0
STYLE
  5
37F
330
3
100
AcDbSymbolTableRecord
100
AcDbTextStyleTableRecord
  2
x01
 70
     0
 40
2.0
 41
1.0
 50
0.0
 71
     0
 42
2.0
  3
txt.shx
  4

1001
AcadAnnotative
1000
AnnotativeData
1002
{
1070
     1
1070
     1
1002
}
  0
STYLE
  5
380
330
3
100
AcDbSymbolTableRecord
100
AcDbTextStyleTableRecord
  2
2mm
 70
     0
 40
2.0
 41
1.0
 50
0.0
 71
     0
 42
2.0
  3
simplex.shx
  4

1001
AcadAnnotative
1000
AnnotativeData
1002
{
1070
     1
1070
     1
1002
}
  0
STYLE
  5
ABDE
330
3
100
AcDbSymbolTableRecord
100
AcDbTextStyleTableRecord
  2
mp000096$0$Standard
 70
     0
 40
0.0
 41
1.0
 50
0.0
 71
     0
 42
19.36617472281852
  3
txt
  4

  0
STYLE
  5
ABE8
330
3
100
AcDbSymbolTableRecord
100
AcDbTextStyleTableRecord
  2
mp000096$0$x01
 70
     0
 40
2.0
 41
1.0
 50
0.0
 71
     0
 42
2.0
  3
txt.shx
  4

1001
AcadAnnotative
1000
AnnotativeData
1002
{
1070
     1
1070
     1
1002
}
  0
STYLE
  5
ABD5
330
3
100
AcDbSymbolTableRecord
100
AcDbTextStyleTableRecord
  2
mp000096$0$2mm
 70
     0
 40
2.0
 41
1.0
 50
0.0
 71
     0
 42
2.0
  3
ARIAL.TTF
  4

1001
AcadAnnotative
1000
AnnotativeData
1002
{
1070
     1
1070
     1
1002
}
1001
ACAD
1000
Arial
1071
       34
  0
ENDTAB
  0
TABLE
  2
VIEW
  5
6
330
0
100
AcDbSymbolTable
 70
     0
  0
ENDTAB
  0
TABLE
  2
UCS
  5
7
330
0
100
AcDbSymbolTable
 70
     0
  0
ENDTAB
  0
TABLE
  2
APPID
  5
9
330
0
100
AcDbSymbolTable
 70
    29
  0
APPID
  5
12
330
9
100
AcDbSymbolTableRecord
100
AcDbRegAppTableRecord
  2
ACAD
 70
     0
  0
APPID
  5
2C5
330
9
100
AcDbSymbolTableRecord
100
AcDbRegAppTableRecord
  2
ACAD_MLEADERVER
 70
     0
  0
APPID
  5
30C
330
9
100
AcDbSymbolTableRecord
100
AcDbRegAppTableRecord
  2
DCO15
 70
     0
  0
APPID
  5
347
330
9
100
AcDbSymbolTableRecord
100
AcDbRegAppTableRecord
  2
ACAD_EXEMPT_FROM_CAD_STANDARDS
 70
     0
  0
APPID
  5
384
330
9
100
AcDbSymbolTableRecord
100
AcDbRegAppTableRecord
  2
ACAD_PSEXT
 70
     0
  0
APPID
  5
385
330
9
100
AcDbSymbolTableRecord
100
AcDbRegAppTableRecord
  2
AcadAnnotative
 70
     0
  0
APPID
  5
386
330
9
100
AcDbSymbolTableRecord
100
AcDbRegAppTableRecord
  2
ACAD_DSTYLE_DIMJAG
 70
     0
  0
APPID
  5
387
330
9
100
AcDbSymbolTableRecord
100
AcDbRegAppTableRecord
  2
ACAD_DSTYLE_DIMTALN
 70
     0
  0
APPID
  5
388
330
9
100
AcDbSymbolTableRecord
100
AcDbRegAppTableRecord
  2
ACAD_DSTYLE_DIMBREAK
 70
     0
  0
APPID
  5
4EF
330
9
100
AcDbSymbolTableRecord
100
AcDbRegAppTableRecord
  2
AcDbBlockRepETag
 70
     0
  0
APPID
  5
4F0
330
9
100
AcDbSymbolTableRecord
100
AcDbRegAppTableRecord
  2
AcAecLayerStandard
 70
     0
  0
APPID
  5
4F1
330
9
100
AcDbSymbolTableRecord
100
AcDbRegAppTableRecord
  2
AcDbDynamicBlockGUID
 70
     0
  0
APPID
  5
4F2
330
9
100
AcDbSymbolTableRecord
100
AcDbRegAppTableRecord
  2
AcDbDynamicBlockTrueName
 70
     0
  0
APPID
  5
4F3
330
9
100
AcDbSymbolTableRecord
100
AcDbRegAppTableRecord
  2
AcDbBlockRepBTag
 70
     0
  0
APPID
  5
4F4
330
9
100
AcDbSymbolTableRecord
100
AcDbRegAppTableRecord
  2
AEC_XDATA_BOUND_SPACE
 70
     0
  0
APPID
  5
A0D
330
9
100
AcDbSymbolTableRecord
100
AcDbRegAppTableRecord
  2
AECBASE
 70
     0
  0
APPID
  5
A0E
330
9
100
AcDbSymbolTableRecord
100
AcDbRegAppTableRecord
  2
AEC_OBJVER_INFO
 70
     0
  0
APPID
  5
A0F
330
9
100
AcDbSymbolTableRecord
100
AcDbRegAppTableRecord
  2
AcadAnnoAV
 70
     0
  0
APPID
  5
A6C
330
9
100
AcDbSymbolTableRecord
100
AcDbRegAppTableRecord
  2
AcLayerTools
 70
     0
  0
APPID
  5
A6D
330
9
100
AcDbSymbolTableRecord
100
AcDbRegAppTableRecord
  2
AcadAnnotativeDecomposition
 70
     0
  0
APPID
  5
13E1
330
9
100
AcDbSymbolTableRecord
100
AcDbRegAppTableRecord
  2
ACAUTHENVIRON
 70
     0
  0
APPID
  5
13E2
330
9
100
AcDbSymbolTableRecord
100
AcDbRegAppTableRecord
  2
AcadAnnoPO
 70
     0
  0
APPID
  5
2C78
330
9
100
AcDbSymbolTableRecord
100
AcDbRegAppTableRecord
  2
PE_URL
 70
     0
  0
APPID
  5
437E
330
9
100
AcDbSymbolTableRecord
100
AcDbRegAppTableRecord
  2
AcDbBlockArrayActionTag
 70
     0
  0
APPID
  5
437F
330
9
100
AcDbSymbolTableRecord
100
AcDbRegAppTableRecord
  2
ACAD_DSTYLE_DIMJAG_POSITION
 70
     0
  0
APPID
  5
4534
330
9
100
AcDbSymbolTableRecord
100
AcDbRegAppTableRecord
  2
ACAD_MATERIAL_MAPPER
 70
     0
  0
APPID
  5
4535
330
9
100
AcDbSymbolTableRecord
100
AcDbRegAppTableRecord
  2
ACAD_MATERIAL_MAPPER_2
 70
     0
  0
APPID
  5
4536
330
9
100
AcDbSymbolTableRecord
100
AcDbRegAppTableRecord
  2
ACAD_DSTYLE_DIMRADIAL_EXTENSION
 70
     0
  0
APPID
  5
9C8E
330
9
100
AcDbSymbolTableRecord
100
AcDbRegAppTableRecord
  2
AcadNonAnnoHatchDecomposition
 70
     0
  0
ENDTAB
  0
TABLE
  2
DIMSTYLE
  5
A
330
0
100
AcDbSymbolTable
 70
     4
100
AcDbDimStyleTable
 71
     2
340
437C
340
27
  0
DIMSTYLE
105
27
330
A
100
AcDbSymbolTableRecord
100
AcDbDimStyleTableRecord
  2
Standard
 70
     0
271
     0
272
     0
340
11
1001
ACAD_DSTYLE_DIMJAG
1070
   388
1040
1.5
1001
ACAD_DSTYLE_DIMTALN
1070
   392
1070
     0
  0
DIMSTYLE
105
437C
330
A
100
AcDbSymbolTableRecord
100
AcDbDimStyleTableRecord
  2
3D 2.5mm
 70
     0
 41
2.5
 42
0.0
 43
50.0
 44
0.0
 73
     0
 74
     0
 77
     1
140
2.5
147
1.0
179
     3
271
     1
272
     1
290
     1
340
11
1001
ACAD_DSTYLE_DIMBREAK
1070
   391
1040
0.125
1001
AcadAnnotative
1000
AnnotativeData
1002
{
1070
     1
1070
     1
1002
}
1001
ACAD_DSTYLE_DIMJAG
1070
   388
1040
1.5
1001
ACAD_DSTYLE_DIMTALN
1070
   392
1070
     0
  0
DIMSTYLE
105
ABEF
330
A
100
AcDbSymbolTableRecord
100
AcDbDimStyleTableRecord
  2
mp000096$0$Standard
 70
     0
340
ABDE
  0
DIMSTYLE
105
ABF0
330
A
100
AcDbSymbolTableRecord
100
AcDbDimStyleTableRecord
  2
mp000096$0$2mm
 70
     0
  4
M
 41
3.0
 42
3.0
 43
400.0
 44
1.0
 73
     0
 74
     0
140
2.0
141
2.0
143
0.001
147
0.0
176
   256
177
   256
178
   256
179
     2
271
     0
272
     0
279
     2
285
     8
340
ABD5
341
ABDF
342
ABDF
345
15
346
15
347
15
371
     9
372
     9
1001
ACAD_DSTYLE_DIMBREAK
1070
   391
1040
0.0
1001
AcadAnnotative
1000
AnnotativeData
1002
{
1070
     1
1070
     1
1002
}
1001
ACAD_DSTYLE_DIMJAG
1070
   388
1040
4.0
1001
ACAD_DSTYLE_DIMTALN
1070
   392
1070
     0
  0
ENDTAB
  0
TABLE
  2
BLOCK_RECORD
  5
1
330
0
100
AcDbSymbolTable
 70
     5
  0
BLOCK_RECORD
  5
1F
102
{ACAD_XDICTIONARY
360
102E
102
}
330
1
100
AcDbSymbolTableRecord
100
AcDbBlockTableRecord
  2
*Model_Space
340
22
 70
     0
280
     1
281
     0
  0
BLOCK_RECORD
  5
16B9
330
1
100
AcDbSymbolTableRecord
100
AcDbBlockTableRecord
  2
*Paper_Space
340
16BA
 70
     0
280
     1
281
     0
  0
BLOCK_RECORD
  5
356
330
1
100
AcDbSymbolTableRecord
100
AcDbBlockTableRecord
  2
_DetailCallout
340
0
310
2800000020000000200000000100080000000000000400000000000000000000000000000000000000000000000080000080000000808000800000008000800080800000C0C0C000C0DCC000F0CAA6000020400000206000002080000020A0000020C0000020E00000400000004020000040400000406000004080000040A0
310
000040C0000040E00000600000006020000060400000606000006080000060A0000060C0000060E00000800000008020000080400000806000008080000080A0000080C0000080E00000A0000000A0200000A0400000A0600000A0800000A0A00000A0C00000A0E00000C0000000C0200000C0400000C0600000C0800000C0
310
A00000C0C00000C0E00000E0000000E0200000E0400000E0600000E0800000E0A00000E0C00000E0E00040000000400020004000400040006000400080004000A0004000C0004000E00040200000402020004020400040206000402080004020A0004020C0004020E000404000004040200040404000404060004040800040
310
40A0004040C0004040E00040600000406020004060400040606000406080004060A0004060C0004060E00040800000408020004080400040806000408080004080A0004080C0004080E00040A0000040A0200040A0400040A0600040A0800040A0A00040A0C00040A0E00040C0000040C0200040C0400040C0600040C08000
310
40C0A00040C0C00040C0E00040E0000040E0200040E0400040E0600040E0800040E0A00040E0C00040E0E00080000000800020008000400080006000800080008000A0008000C0008000E00080200000802020008020400080206000802080008020A0008020C0008020E00080400000804020008040400080406000804080
310
008040A0008040C0008040E00080600000806020008060400080606000806080008060A0008060C0008060E00080800000808020008080400080806000808080008080A0008080C0008080E00080A0000080A0200080A0400080A0600080A0800080A0A00080A0C00080A0E00080C0000080C0200080C0400080C0600080C0
310
800080C0A00080C0C00080C0E00080E0000080E0200080E0400080E0600080E0800080E0A00080E0C00080E0E000C0000000C0002000C0004000C0006000C0008000C000A000C000C000C000E000C0200000C0202000C0204000C0206000C0208000C020A000C020C000C020E000C0400000C0402000C0404000C0406000C0
310
408000C040A000C040C000C040E000C0600000C0602000C0604000C0606000C0608000C060A000C060C000C060E000C0800000C0802000C0804000C0806000C0808000C080A000C080C000C080E000C0A00000C0A02000C0A04000C0A06000C0A08000C0A0A000C0A0C000C0A0E000C0C00000C0C02000C0C04000C0C06000
310
C0C08000C0C0A000F0FBFF00A4A0A000808080000000FF0000FF000000FFFF00FF000000FF00FF00FFFF0000FFFFFF00000000000000000000000000000000000000000000000000000000000000000000000000000000000000000000FFFFFFFFFFFF0000000000000000000000000000000000000000000000FFFFFF0000
310
00000000FFFFFF000000000000000000000000000000000000FFFF000000000000000000000000FFFF000000000000000000000000000000FF00000000000000000000000000000000FF00000000000000FFFF00FFFFFFFFFF0000FF000000FF0000FF0000FFFFFF00FFFF0000FF00FFFF000000FF00FF00000000FF000000
310
FF00FFFF00FF000000FFFF00FF00FF00FF00000000FFFF0000000000FF000000FF00FFFF00FF000000FFFF00FFFFFF00FF00FF0000FFFFFF00000000FF000000FFFF00FF00FF000000FFFFFF00FFFF00FFFF000000FF000000000000FF000000FFFF00FF00FF000000FFFFFF00FFFF00FF00FFFF00FFFFFFFFFFFFFFFFFFFF
310
00FF0000FF00FF000000FFFF000000FF00FFFF000000FF000000000000000000000000000000000000000000000000FF0000000000FF0000000000000000000000000000000000000000000000000000FF00000000FF0000000000000000000000000000000000000000000000000000FF00000000FF000000000000000000
310
0000000000000000000000000000000000FF000000FF00000000000000000000000000000000000000000000000000000000FF0000FFFFFFFFFFFFFFFFFFFFFFFFFFFFFFFFFFFFFFFFFFFFFFFFFFFFFFFFFFFF00FFFFFFFF000000FFFF000000FF000000FF00FFFFFF0000FF0000FF00FFFFFF00FF00FF00000000FFFF0000
310
00FF0000FFFFFF000000FF00FF0000FF0000FF00FFFF00FF000000FF00FFFF0000FF0000FFFFFF000000FF00FFFF00FF0000FF00FFFFFF00FF0000FF00FFFF0000FF00FF00FFFF000000FF00FFFFFFFF00FFFFFF00FF0000FF0000FF0000FF0000FFFF0000FFFF000000FF00FFFFFFFF00FFFF00FFFF0000FF00FF00000000
310
FF00FFFF0000FFFF000000FF00FF0000FF00FFFF00FFFFFFFFFFFFFF00000000FF00FF000000FFFF000000FF00FF0000FFFFFFFFFF0000000000FF00000000000000000000000000000000000000000000FF000000000000000000FF0000000000000000000000000000000000000000FF0000000000000000000000FF0000
310
00000000000000000000000000000000FF00000000000000000000000000FF00000000000000000000000000000000FF000000000000000000000000000000FFFF000000000000000000000000FFFF000000000000000000000000000000000000FFFFFF000000000000FFFFFF000000000000000000000000000000000000
310
0000000000FFFFFFFFFFFF000000000000000000000000000000000000000000000000000000000000000000000000000000000000000000
 70
     4
280
     1
281
     0
  0
BLOCK_RECORD
  5
7441
102
{ACAD_XDICTIONARY
360
97C2
102
}
330
1
100
AcDbSymbolTableRecord
100
AcDbBlockTableRecord
  2
block227
340
0
102
{BLKREFS
331
7B9C
102
}
 70
     0
280
     1
281
     0
1001
AcDbDynamicBlockGUID
1000
{9408B51A-B84C-4286-8272-3500B7911540}
1001
AcDbBlockRepETag
1070
     1
1071
      209
  0
BLOCK_RECORD
  5
9993
102
{ACAD_XDICTIONARY
360
ABD9
102
}
330
1
100
AcDbSymbolTableRecord
100
AcDbBlockTableRecord
  2
mp000096
340
0
102
{BLKREFS
331
99A7
102
}
 70
     0
280
     1
281
     0
  0
BLOCK_RECORD
  5
ABDF
330
1
100
AcDbSymbolTableRecord
100
AcDbBlockTableRecord
  2
mp000096$0$_OBLIQUE
340
0
310
2800000020000000200000000100080000000000000400000000000000000000000000000000000000000000000080000080000000808000800000008000800080800000C0C0C000C0DCC000F0CAA6000020400000206000002080000020A0000020C0000020E00000400000004020000040400000406000004080000040A0
310
000040C0000040E00000600000006020000060400000606000006080000060A0000060C0000060E00000800000008020000080400000806000008080000080A0000080C0000080E00000A0000000A0200000A0400000A0600000A0800000A0A00000A0C00000A0E00000C0000000C0200000C0400000C0600000C0800000C0
310
A00000C0C00000C0E00000E0000000E0200000E0400000E0600000E0800000E0A00000E0C00000E0E00040000000400020004000400040006000400080004000A0004000C0004000E00040200000402020004020400040206000402080004020A0004020C0004020E000404000004040200040404000404060004040800040
310
40A0004040C0004040E00040600000406020004060400040606000406080004060A0004060C0004060E00040800000408020004080400040806000408080004080A0004080C0004080E00040A0000040A0200040A0400040A0600040A0800040A0A00040A0C00040A0E00040C0000040C0200040C0400040C0600040C08000
310
40C0A00040C0C00040C0E00040E0000040E0200040E0400040E0600040E0800040E0A00040E0C00040E0E00080000000800020008000400080006000800080008000A0008000C0008000E00080200000802020008020400080206000802080008020A0008020C0008020E00080400000804020008040400080406000804080
310
008040A0008040C0008040E00080600000806020008060400080606000806080008060A0008060C0008060E00080800000808020008080400080806000808080008080A0008080C0008080E00080A0000080A0200080A0400080A0600080A0800080A0A00080A0C00080A0E00080C0000080C0200080C0400080C0600080C0
310
800080C0A00080C0C00080C0E00080E0000080E0200080E0400080E0600080E0800080E0A00080E0C00080E0E000C0000000C0002000C0004000C0006000C0008000C000A000C000C000C000E000C0200000C0202000C0204000C0206000C0208000C020A000C020C000C020E000C0400000C0402000C0404000C0406000C0
310
408000C040A000C040C000C040E000C0600000C0602000C0604000C0606000C0608000C060A000C060C000C060E000C0800000C0802000C0804000C0806000C0808000C080A000C080C000C080E000C0A00000C0A02000C0A04000C0A06000C0A08000C0A0A000C0A0C000C0A0E000C0C00000C0C02000C0C04000C0C06000
310
C0C08000C0C0A000F0FBFF00A4A0A000808080000000FF0000FF000000FFFF00FF000000FF00FF00FFFF0000FFFFFF00000000000000000000000000000000000000000000000000000000000000000000FF0000000000000000000000000000000000000000000000000000000000000000FF000000000000000000000000
310
0000000000000000000000000000000000000000FF0000000000000000000000000000000000000000000000000000000000000000FF0000000000000000000000000000000000000000000000000000000000000000FF0000000000000000000000000000000000000000000000000000000000000000FF00000000000000
310
00000000000000000000000000000000000000000000000000FF0000000000000000000000000000000000000000000000000000000000000000FF0000000000000000000000000000000000000000000000000000000000000000FF0000000000000000000000000000000000000000000000000000000000000000FF0000
310
000000000000000000000000000000000000000000000000000000000000FF0000000000000000000000000000000000000000000000000000000000000000FF0000000000000000000000000000000000000000000000000000000000000000FF000000000000000000000000000000000000000000000000000000000000
310
0000FF0000000000000000000000000000000000000000000000000000000000000000FF0000000000000000000000000000000000000000000000000000000000000000FF0000000000000000000000000000000000000000000000000000000000000000FF00000000000000000000000000000000000000000000000000
310
00000000000000FF0000000000000000000000000000000000000000000000000000000000000000FF0000000000000000000000000000000000000000000000000000000000000000FF0000000000000000000000000000000000000000000000000000000000000000FF0000000000000000000000000000000000000000
310
000000000000000000000000FF0000000000000000000000000000000000000000000000000000000000000000FF0000000000000000000000000000000000000000000000000000000000000000FF0000000000000000000000000000000000000000000000000000000000000000FF000000000000000000000000000000
310
0000000000000000000000000000000000FF0000000000000000000000000000000000000000000000000000000000000000FF0000000000000000000000000000000000000000000000000000000000000000FF0000000000000000000000000000000000000000000000000000000000000000FF00000000000000000000
310
00000000000000000000000000000000000000000000FF000000000000000000000000000000000000000000000000000000000000000000
 70
     0
280
     1
281
     0
  0
BLOCK_RECORD
  5
ABE3
330
1
100
AcDbSymbolTableRecord
100
AcDbBlockTableRecord
  2
mp000096$0$_DetailCallout
340
0
310
2800000020000000200000000100080000000000000400000000000000000000000000000000000000000000000080000080000000808000800000008000800080800000C0C0C000C0DCC000F0CAA6000020400000206000002080000020A0000020C0000020E00000400000004020000040400000406000004080000040A0
310
000040C0000040E00000600000006020000060400000606000006080000060A0000060C0000060E00000800000008020000080400000806000008080000080A0000080C0000080E00000A0000000A0200000A0400000A0600000A0800000A0A00000A0C00000A0E00000C0000000C0200000C0400000C0600000C0800000C0
310
A00000C0C00000C0E00000E0000000E0200000E0400000E0600000E0800000E0A00000E0C00000E0E00040000000400020004000400040006000400080004000A0004000C0004000E00040200000402020004020400040206000402080004020A0004020C0004020E000404000004040200040404000404060004040800040
310
40A0004040C0004040E00040600000406020004060400040606000406080004060A0004060C0004060E00040800000408020004080400040806000408080004080A0004080C0004080E00040A0000040A0200040A0400040A0600040A0800040A0A00040A0C00040A0E00040C0000040C0200040C0400040C0600040C08000
310
40C0A00040C0C00040C0E00040E0000040E0200040E0400040E0600040E0800040E0A00040E0C00040E0E00080000000800020008000400080006000800080008000A0008000C0008000E00080200000802020008020400080206000802080008020A0008020C0008020E00080400000804020008040400080406000804080
310
008040A0008040C0008040E00080600000806020008060400080606000806080008060A0008060C0008060E00080800000808020008080400080806000808080008080A0008080C0008080E00080A0000080A0200080A0400080A0600080A0800080A0A00080A0C00080A0E00080C0000080C0200080C0400080C0600080C0
310
800080C0A00080C0C00080C0E00080E0000080E0200080E0400080E0600080E0800080E0A00080E0C00080E0E000C0000000C0002000C0004000C0006000C0008000C000A000C000C000C000E000C0200000C0202000C0204000C0206000C0208000C020A000C020C000C020E000C0400000C0402000C0404000C0406000C0
310
408000C040A000C040C000C040E000C0600000C0602000C0604000C0606000C0608000C060A000C060C000C060E000C0800000C0802000C0804000C0806000C0808000C080A000C080C000C080E000C0A00000C0A02000C0A04000C0A06000C0A08000C0A0A000C0A0C000C0A0E000C0C00000C0C02000C0C04000C0C06000
310
C0C08000C0C0A000F0FBFF00A4A0A000808080000000FF0000FF000000FFFF00FF000000FF00FF00FFFF0000FFFFFF00000000000000000000000000000000000000000000000000000000000000000000000000000000000000000000FFFFFFFFFFFF0000000000000000000000000000000000000000000000FFFFFF0000
310
00000000FFFFFF000000000000000000000000000000000000FFFF000000000000000000000000FFFF000000000000000000000000000000FF00000000000000000000000000000000FF00000000000000FFFF00FFFFFFFFFF0000FF000000FF0000FF0000FFFFFF00FFFF0000FF00FFFF000000FF00FF00000000FF000000
310
FF00FFFF00FF000000FFFF00FF00FF00FF00000000FFFF0000000000FF000000FF00FFFF00FF000000FFFF00FFFFFF00FF00FF0000FFFFFF00000000FF000000FFFF00FF00FF000000FFFFFF00FFFF00FFFF000000FF000000000000FF000000FFFF00FF00FF000000FFFFFF00FFFF00FF00FFFF00FFFFFFFFFFFFFFFFFFFF
310
00FF0000FF00FF000000FFFF000000FF00FFFF000000FF000000000000000000000000000000000000000000000000FF0000000000FF0000000000000000000000000000000000000000000000000000FF00000000FF0000000000000000000000000000000000000000000000000000FF00000000FF000000000000000000
310
0000000000000000000000000000000000FF000000FF00000000000000000000000000000000000000000000000000000000FF0000FFFFFFFFFFFFFFFFFFFFFFFFFFFFFFFFFFFFFFFFFFFFFFFFFFFFFFFFFFFF00FFFFFFFF000000FFFF000000FF000000FF00FFFFFF0000FF0000FF00FFFFFF00FF00FF00000000FFFF0000
310
00FF0000FFFFFF000000FF00FF0000FF0000FF00FFFF00FF000000FF00FFFF0000FF0000FFFFFF000000FF00FFFF00FF0000FF00FFFFFF00FF0000FF00FFFF0000FF00FF00FFFF000000FF00FFFFFFFF00FFFFFF00FF0000FF0000FF0000FF0000FFFF0000FFFF000000FF00FFFFFFFF00FFFF00FFFF0000FF00FF00000000
310
FF00FFFF0000FFFF000000FF00FF0000FF00FFFF00FFFFFFFFFFFFFF00000000FF00FF000000FFFF000000FF00FF0000FFFFFFFFFF0000000000FF00000000000000000000000000000000000000000000FF000000000000000000FF0000000000000000000000000000000000000000FF0000000000000000000000FF0000
310
00000000000000000000000000000000FF00000000000000000000000000FF00000000000000000000000000000000FF000000000000000000000000000000FFFF000000000000000000000000FFFF000000000000000000000000000000000000FFFFFF000000000000FFFFFF000000000000000000000000000000000000
310
0000000000FFFFFFFFFFFF000000000000000000000000000000000000000000000000000000000000000000000000000000000000000000
 70
     4
280
     1
281
     0
  0
ENDTAB
  0
ENDSEC
  0
SECTION
  2
BLOCKS
  0
BLOCK
  5
20
330
1F
100
AcDbEntity
  8
0
100
AcDbBlockBegin
  2
*Model_Space
 70
     0
 10
0.0
 20
0.0
 30
0.0
  3
*Model_Space
  1

  0
ENDBLK
  5
21
330
1F
100
AcDbEntity
  8
0
100
AcDbBlockEnd
  0
BLOCK
  5
16BB
330
16B9
100
AcDbEntity
 67
     1
  8
0
100
AcDbBlockBegin
  2
*Paper_Space
 70
     0
 10
0.0
 20
0.0
 30
0.0
  3
*Paper_Space
  1

  0
ENDBLK
  5
16BC
330
16B9
100
AcDbEntity
 67
     1
  8
0
100
AcDbBlockEnd
  0
BLOCK
  5
357
330
356
100
AcDbEntity
  8
0
100
AcDbBlockBegin
  2
_DetailCallout
 70
     2
 10
0.0
 20
0.0
 30
0.0
  3
_DetailCallout
  1

  0
CIRCLE
  5
358
330
356
100
AcDbEntity
  8
0
  6
ByBlock
 62
     0
370
    -2
100
AcDbCircle
 10
0.0
 20
0.0
 30
0.0
 40
8.0
  0
LINE
  5
359
330
356
100
AcDbEntity
  8
0
  6
ByBlock
 62
     0
370
    -2
100
AcDbLine
 10
8.0
 20
0.0
 30
0.0
 11
-8.0
 21
0.0
 31
0.0
  0
ATTDEF
  5
35A
330
356
100
AcDbEntity
  8
0
 62
     0
100
AcDbText
 10
-15.0
 20
1.0
 30
0.0
 40
3.0
  1
VIEWNUMBER
  7
x01
 72
     1
 11
0.0
 21
1.0
 31
0.0
100
AcDbAttributeDefinition
  3
Enter view number
  2
VIEWNUMBER
 70
     0
280
     0
  0
ATTDEF
  5
35B
330
356
100
AcDbEntity
  8
0
 62
     0
100
AcDbText
 10
-16.0
 20
-6.0
 30
0.0
 40
3.0
  1
SHEETNUMBER
  7
x01
 72
     1
 11
0.0
 21
-6.0
 31
0.0
100
AcDbAttributeDefinition
  3
Enter sheet number
  2
SHEETNUMBER
 70
     0
280
     0
  0
ENDBLK
  5
35C
330
356
100
AcDbEntity
  8
0
100
AcDbBlockEnd
  0
BLOCK
  5
7442
330
7441
100
AcDbEntity
  8
CAD_DEFAULT_LAYER
100
AcDbBlockBegin
  2
block227
 70
     0
 10
0.0
 20
0.0
 30
0.0
  3
block227
  1

  0
LINE
  5
96FB
330
7441
100
AcDbEntity
  8
0
  6
DASHDOT
370
     9
100
AcDbLine
 10
-42.80602787975695
 20
7.488190539018972
 30
0.0
 11
50.39744863100718
 21
61.29924279191759
 31
0.0
1001
AcDbBlockRepETag
1070
     1
1071
        0
1005
96FB
  0
LINE
  5
96FC
330
7441
100
AcDbEntity
  8
0
  6
Continuous
370
     9
100
AcDbLine
 10
17.47309730018557
 20
44.66543993162403
 30
0.0
 11
22.06199575575896
 21
41.45225864095286
 31
0.0
1001
AcDbBlockRepETag
1070
     1
1071
        1
1005
96FC
  0
LINE
  5
96FD
330
7441
100
AcDbEntity
  8
0
  6
Continuous
370
     9
100
AcDbLine
 10
17.47309730018557
 20
44.66543993162403
 30
0.0
 11
17.52270404916309
 21
45.80162127982739
 31
0.0
1001
AcDbBlockRepETag
1070
     1
1071
        2
1005
96FD
  0
LINE
  5
96FE
330
7441
100
AcDbEntity
  8
0
  6
Continuous
370
     9
100
AcDbLine
 10
17.52270404917183
 20
45.80162127983307
 30
0.0
 11
22.0619957557677
 21
41.45225864095855
 31
0.0
1001
AcDbBlockRepETag
1070
     1
1071
        3
1005
96FE
  0
LINE
  5
96FF
330
7441
100
AcDbEntity
  8
0
  6
Continuous
370
     9
100
AcDbLine
 10
26.54176601804885
 20
45.14619608612285
 30
0.0
 11
27.8403206625826
 21
45.89591695970185
 31
0.0
1001
AcDbBlockRepETag
1070
     1
1071
        4
1005
96FF
  0
LINE
  5
9700
330
7441
100
AcDbEntity
  8
0
  6
Continuous
370
     9
100
AcDbLine
 10
24.27707751241961
 20
42.73113668943892
 30
0.0
 11
24.32668426139718
 21
43.8673180376422
 31
0.0
1001
AcDbBlockRepETag
1070
     1
1071
        5
1005
9700
  0
LINE
  5
9701
330
7441
100
AcDbEntity
  8
0
  6
Continuous
370
     9
100
AcDbLine
 10
26.4921592690726
 20
44.01001473791957
 30
0.0
 11
26.54176601805017
 21
45.14619608612285
 31
0.0
1001
AcDbBlockRepETag
1070
     1
1071
        6
1005
9701
  0
LINE
  5
9702
330
7441
100
AcDbEntity
  8
0
  6
Continuous
370
     9
100
AcDbLine
 10
19.68817905684865
 20
45.94431798011058
 30
0.0
 11
24.27707751242204
 21
42.73113668943941
 31
0.0
1001
AcDbBlockRepETag
1070
     1
1071
        7
1005
9702
  0
LINE
  5
9703
330
7441
100
AcDbEntity
  8
0
  6
Continuous
370
     9
100
AcDbLine
 10
19.7377858058249
 20
47.08049932831372
 30
0.0
 11
24.27707751242076
 21
42.7311366894392
 31
0.0
1001
AcDbBlockRepETag
1070
     1
1071
        8
1005
9703
  0
LINE
  5
9704
330
7441
100
AcDbEntity
  8
0
  6
Continuous
370
     9
100
AcDbLine
 10
21.90326081350165
 20
47.22319602859123
 30
0.0
 11
26.49215926907512
 21
44.0100147379201
 31
0.0
1001
AcDbBlockRepETag
1070
     1
1071
        9
1005
9704
  0
LINE
  5
9705
330
7441
100
AcDbEntity
  8
0
  6
Continuous
370
     9
100
AcDbLine
 10
21.95286756247789
 20
48.35937737679437
 30
0.0
 11
26.49215926907384
 21
44.01001473791988
 31
0.0
1001
AcDbBlockRepETag
1070
     1
1071
       10
1005
9705
  0
LINE
  5
9706
330
7441
100
AcDbEntity
  8
0
  6
Continuous
370
     9
100
AcDbLine
 10
22.81978792562498
 20
47.75235320349516
 30
0.0
 11
24.11834257015873
 21
48.50207407707416
 31
0.0
1001
AcDbBlockRepETag
1070
     1
1071
       11
1005
9706
  0
LINE
  5
9707
330
7441
100
AcDbEntity
  8
0
  6
Continuous
370
     9
100
AcDbLine
 10
21.95286756247789
 20
48.35937737679437
 30
0.0
 11
26.5417660180514
 21
45.14619608612316
 31
0.0
1001
AcDbBlockRepETag
1070
     1
1071
       12
1005
9707
  0
LINE
  5
9708
330
7441
100
AcDbEntity
  8
0
  6
Continuous
370
     9
100
AcDbLine
 10
20.60470616896183
 20
46.47347515500868
 30
0.0
 11
21.90326081349558
 21
47.22319602858768
 31
0.0
1001
AcDbBlockRepETag
1070
     1
1071
       13
1005
9708
  0
LINE
  5
9709
330
7441
100
AcDbEntity
  8
0
  6
Continuous
370
     9
100
AcDbLine
 10
19.68817905684865
 20
45.94431798011058
 30
0.0
 11
19.73778580582617
 21
47.08049932831394
 31
0.0
1001
AcDbBlockRepETag
1070
     1
1071
       14
1005
9709
  0
LINE
  5
970A
330
7441
100
AcDbEntity
  8
0
  6
Continuous
370
     9
100
AcDbLine
 10
21.90326081350165
 20
47.22319602859123
 30
0.0
 11
21.95286756247917
 21
48.35937737679459
 31
0.0
1001
AcDbBlockRepETag
1070
     1
1071
       15
1005
970A
  0
LINE
  5
970B
330
7441
100
AcDbEntity
  8
0
  6
Continuous
370
     9
100
AcDbLine
 10
24.32668426139585
 20
43.8673180376422
 30
0.0
 11
25.62523890592961
 21
44.6170389112212
 31
0.0
1001
AcDbBlockRepETag
1070
     1
1071
       16
1005
970B
  0
LINE
  5
970C
330
7441
100
AcDbEntity
  8
0
  6
Continuous
370
     9
100
AcDbLine
 10
19.7377858058249
 20
47.08049932831372
 30
0.0
 11
24.32668426139834
 21
43.86731803764248
 31
0.0
1001
AcDbBlockRepETag
1070
     1
1071
       17
1005
970C
  0
LINE
  5
970D
330
7441
100
AcDbEntity
  8
0
  6
Continuous
370
     9
100
AcDbLine
 10
17.52270404917183
 20
45.80162127983307
 30
0.0
 11
22.11160250474527
 21
42.58843998916183
 31
0.0
1001
AcDbBlockRepETag
1070
     1
1071
       18
1005
970D
  0
LINE
  5
970E
330
7441
100
AcDbEntity
  8
0
  6
Continuous
370
     9
100
AcDbLine
 10
22.06199575576655
 20
41.45225864095827
 30
0.0
 11
22.11160250474411
 21
42.58843998916155
 31
0.0
1001
AcDbBlockRepETag
1070
     1
1071
       19
1005
970E
  0
LINE
  5
970F
330
7441
100
AcDbEntity
  8
0
  6
Continuous
370
     9
100
AcDbLine
 10
22.11160250474286
 20
42.58843998916155
 30
0.0
 11
23.41015714927662
 21
43.33816086274056
 31
0.0
1001
AcDbBlockRepETag
1070
     1
1071
       20
1005
970F
  0
LINE
  5
9710
330
7441
100
AcDbEntity
  8
0
  6
Continuous
370
     9
100
AcDbLine
 10
18.38962441230883
 20
45.19459710652803
 30
0.0
 11
19.68817905684258
 21
45.94431798010703
 31
0.0
1001
AcDbBlockRepETag
1070
     1
1071
       21
1005
9710
  0
LINE
  5
9711
330
7441
100
AcDbEntity
  8
0
  6
Continuous
370
     9
100
AcDbLine
 10
15.25801554353243
 20
43.38656188314338
 30
0.0
 11
19.84691399910583
 21
40.17338059247221
 31
0.0
1001
AcDbBlockRepETag
1070
     1
1071
       22
1005
9711
  0
LINE
  5
9712
330
7441
100
AcDbEntity
  8
0
  6
Continuous
370
     9
100
AcDbLine
 10
15.25801554353243
 20
43.38656188314338
 30
0.0
 11
15.30762229250996
 21
44.52274323134674
 31
0.0
1001
AcDbBlockRepETag
1070
     1
1071
       23
1005
9712
  0
LINE
  5
9713
330
7441
100
AcDbEntity
  8
0
  6
Continuous
370
     9
100
AcDbLine
 10
15.30762229250868
 20
44.52274323134666
 30
0.0
 11
19.84691399910454
 21
40.17338059247214
 31
0.0
1001
AcDbBlockRepETag
1070
     1
1071
       24
1005
9713
  0
LINE
  5
9714
330
7441
100
AcDbEntity
  8
0
  6
Continuous
370
     9
100
AcDbLine
 10
15.30762229250868
 20
44.52274323134666
 30
0.0
 11
19.89652074808212
 21
41.30956194067542
 31
0.0
1001
AcDbBlockRepETag
1070
     1
1071
       25
1005
9714
  0
LINE
  5
9715
330
7441
100
AcDbEntity
  8
0
  6
Continuous
370
     9
100
AcDbLine
 10
19.84691399910346
 20
40.17338059247173
 30
0.0
 11
19.89652074808103
 21
41.30956194067501
 31
0.0
1001
AcDbBlockRepETag
1070
     1
1071
       26
1005
9715
  0
LINE
  5
9716
330
7441
100
AcDbEntity
  8
0
  6
Continuous
370
     9
100
AcDbLine
 10
19.89652074808972
 20
41.3095619406809
 30
0.0
 11
21.19507539262348
 21
42.05928281425991
 31
0.0
1001
AcDbBlockRepETag
1070
     1
1071
       27
1005
9716
  0
LINE
  5
9717
330
7441
100
AcDbEntity
  8
0
  6
Continuous
370
     9
100
AcDbLine
 10
16.17454265565577
 20
43.91571905804738
 30
0.0
 11
17.47309730018952
 21
44.66543993162638
 31
0.0
1001
AcDbBlockRepETag
1070
     1
1071
       28
1005
9717
  0
LINE
  5
9718
330
7441
100
AcDbEntity
  8
0
  6
Continuous
370
     9
100
AcDbLine
 10
-40.91561783671792
 20
6.202968512401056
 30
0.0
 11
-12.03258472879989
 21
22.8785954522704
 31
0.0
1001
AcDbBlockRepETag
1070
     1
1071
       29
1005
9718
  0
LINE
  5
9719
330
7441
100
AcDbEntity
  8
0
  6
Continuous
370
     9
100
AcDbLine
 10
-11.16423059405768
 20
22.2690879137285
 30
0.0
 11
-11.11462384508011
 21
23.40526926193178
 31
0.0
1001
AcDbBlockRepETag
1070
     1
1071
       30
1005
9719
  0
LINE
  5
971A
330
7441
100
AcDbEntity
  8
0
  6
Continuous
370
     9
100
AcDbLine
 10
-12.90542306202134
 20
24.65920037304684
 30
0.0
 11
-11.11462384508615
 21
23.40526926192827
 31
0.0
1001
AcDbBlockRepETag
1070
     1
1071
       31
1005
971A
  0
LINE
  5
971B
330
7441
100
AcDbEntity
  8
0
  6
Continuous
370
     9
100
AcDbLine
 10
-11.11462384508137
 20
23.40526926193171
 30
0.0
 11
-9.816069200547616
 21
24.1549901355107
 31
0.0
1001
AcDbBlockRepETag
1070
     1
1071
       32
1005
971B
  0
LINE
  5
971C
330
7441
100
AcDbEntity
  8
0
  6
Continuous
370
     9
100
AcDbLine
 10
-12.95502981099886
 20
23.52301902484619
 30
0.0
 11
-11.1642305940627
 21
22.26908791372829
 31
0.0
1001
AcDbBlockRepETag
1070
     1
1071
       33
1005
971C
  0
LINE
  5
971D
330
7441
100
AcDbEntity
  8
0
  6
Continuous
370
     9
100
AcDbLine
 10
-11.16423059405768
 20
22.2690879137285
 30
0.0
 11
-12.9054230620153
 21
24.65920037305036
 31
0.0
1001
AcDbBlockRepETag
1070
     1
1071
       34
1005
971D
  0
LINE
  5
971E
330
7441
100
AcDbEntity
  8
0
  6
Continuous
370
     9
100
AcDbLine
 10
46.02226344998392
 20
55.80394349860242
 30
0.0
 11
45.78557313240461
 21
57.1405922109771
 31
0.0
1001
AcDbBlockRepETag
1070
     1
1071
       35
1005
971E
  0
LINE
  5
971F
330
7441
100
AcDbEntity
  8
0
  6
Continuous
370
     9
100
AcDbLine
 10
44.93885878375479
 20
59.3924466050705
 30
0.0
 11
43.12161642073189
 21
59.00591478195453
 31
0.0
1001
AcDbBlockRepETag
1070
     1
1071
       36
1005
971F
  0
LINE
  5
9720
330
7441
100
AcDbEntity
  8
0
  6
Continuous
370
     9
100
AcDbLine
 10
44.93885878375479
 20
59.3924466050705
 30
0.0
 11
44.98846553273334
 21
60.52862795327445
 31
0.0
1001
AcDbBlockRepETag
1070
     1
1071
       37
1005
9720
  0
LINE
  5
9721
330
7441
100
AcDbEntity
  8
0
  6
Continuous
370
     9
100
AcDbLine
 10
44.98846553273118
 20
60.52862795327371
 30
0.0
 11
46.28871053389154
 21
59.61818660194168
 31
0.0
1001
AcDbBlockRepETag
1070
     1
1071
       38
1005
9721
  0
LINE
  5
9722
330
7441
100
AcDbEntity
  8
0
  6
Continuous
370
     9
100
AcDbLine
 10
44.98846553273118
 20
60.52862795327371
 30
0.0
 11
46.23910378491308
 21
58.48200525373777
 31
0.0
1001
AcDbBlockRepETag
1070
     1
1071
       39
1005
9722
  0
LINE
  5
9723
330
7441
100
AcDbEntity
  8
0
  6
Continuous
370
     9
100
AcDbLine
 10
46.23910378491331
 20
58.48200525373968
 30
0.0
 11
46.28871053389177
 21
59.61818660194359
 31
0.0
1001
AcDbBlockRepETag
1070
     1
1071
       40
1005
9723
  0
LINE
  5
9724
330
7441
100
AcDbEntity
  8
0
  6
Continuous
370
     9
100
AcDbLine
 10
44.93885878375479
 20
59.3924466050705
 30
0.0
 11
46.23910378491523
 21
58.48200525373851
 31
0.0
1001
AcDbBlockRepETag
1070
     1
1071
       41
1005
9724
  0
LINE
  5
9725
330
7441
100
AcDbEntity
  8
0
  6
Continuous
370
     9
100
AcDbLine
 10
45.78557313240779
 20
57.14059221097855
 30
0.0
 11
48.35904329377543
 21
60.11992807972348
 31
0.0
1001
AcDbBlockRepETag
1070
     1
1071
       42
1005
9725
  0
LINE
  5
9726
330
7441
100
AcDbEntity
  8
0
  6
Continuous
370
     9
100
AcDbLine
 10
48.35904329377044
 20
60.11992807972262
 30
0.0
 11
46.22147858109157
 21
59.6652629221014
 31
0.0
1001
AcDbBlockRepETag
1070
     1
1071
       43
1005
9726
  0
LINE
  5
9727
330
7441
100
AcDbEntity
  8
0
  6
Continuous
370
     9
100
AcDbLine
 10
39.67352161572222
 20
58.59040176465128
 30
0.0
 11
44.26242007129573
 21
55.37722047398009
 31
0.0
1001
AcDbBlockRepETag
1070
     1
1071
       44
1005
9727
  0
LINE
  5
9728
330
7441
100
AcDbEntity
  8
0
  6
Continuous
370
     9
100
AcDbLine
 10
42.04733831464025
 20
54.09834242549905
 30
0.0
 11
43.34589295917409
 21
54.84806329907811
 31
0.0
1001
AcDbBlockRepETag
1070
     1
1071
       45
1005
9728
  0
LINE
  5
9729
330
7441
100
AcDbEntity
  8
0
  6
Continuous
370
     9
100
AcDbLine
 10
38.32536022220616
 20
56.70449954286553
 30
0.0
 11
39.62391486673999
 21
57.45422041644459
 31
0.0
1001
AcDbBlockRepETag
1070
     1
1071
       46
1005
9729
  0
LINE
  5
972A
330
7441
100
AcDbEntity
  8
0
  6
Continuous
370
     9
100
AcDbLine
 10
41.83899662339911
 20
58.73309846492865
 30
0.0
 11
41.88860337237663
 21
59.86927981313201
 31
0.0
1001
AcDbBlockRepETag
1070
     1
1071
       47
1005
972A
  0
LINE
  5
972B
330
7441
100
AcDbEntity
  8
0
  6
Continuous
370
     9
100
AcDbLine
 10
39.62391486673589
 20
57.45422041644225
 30
0.0
 11
39.67352161571334
 21
58.59040176464556
 31
0.0
1001
AcDbBlockRepETag
1070
     1
1071
       48
1005
972B
  0
LINE
  5
972C
330
7441
100
AcDbEntity
  8
0
  6
Continuous
370
     9
100
AcDbLine
 10
40.54044197885914
 20
57.98337759134625
 30
0.0
 11
41.8389966233929
 21
58.73309846492525
 31
0.0
1001
AcDbBlockRepETag
1070
     1
1071
       49
1005
972C
  0
LINE
  5
972D
330
7441
100
AcDbEntity
  8
0
  6
Continuous
370
     9
100
AcDbLine
 10
39.67352161572222
 20
58.59040176465128
 30
0.0
 11
44.21281332231816
 21
54.24103912577681
 31
0.0
1001
AcDbBlockRepETag
1070
     1
1071
       50
1005
972D
  0
LINE
  5
972E
330
7441
100
AcDbEntity
  8
0
  6
Continuous
370
     9
100
AcDbLine
 10
39.62391486673589
 20
57.45422041644225
 30
0.0
 11
44.21281332230927
 21
54.24103912577109
 31
0.0
1001
AcDbBlockRepETag
1070
     1
1071
       51
1005
972E
  0
LINE
  5
972F
330
7441
100
AcDbEntity
  8
0
  6
Continuous
370
     9
100
AcDbLine
 10
44.212813322317
 20
54.24103912577642
 30
0.0
 11
44.26242007129457
 21
55.3772204739797
 31
0.0
1001
AcDbBlockRepETag
1070
     1
1071
       52
1005
972F
  0
LINE
  5
9730
330
7441
100
AcDbEntity
  8
0
  6
Continuous
370
     9
100
AcDbLine
 10
33.02827634575316
 20
54.75376761920344
 30
0.0
 11
37.61717480132667
 21
51.54058632853224
 31
0.0
1001
AcDbBlockRepETag
1070
     1
1071
       53
1005
9730
  0
LINE
  5
9731
330
7441
100
AcDbEntity
  8
0
  6
Continuous
370
     9
100
AcDbLine
 10
37.61717480132411
 20
51.540586328532
 30
0.0
 11
38.91572944585787
 21
52.290307202111
 31
0.0
1001
AcDbBlockRepETag
1070
     1
1071
       54
1005
9731
  0
LINE
  5
9732
330
7441
100
AcDbEntity
  8
0
  6
Continuous
370
     9
100
AcDbLine
 10
35.40209304467112
 20
50.26170828005135
 30
0.0
 11
36.70064768920487
 21
51.01142915363035
 31
0.0
1001
AcDbBlockRepETag
1070
     1
1071
       55
1005
9732
  0
LINE
  5
9733
330
7441
100
AcDbEntity
  8
0
  6
Continuous
370
     9
100
AcDbLine
 10
32.97866959677677
 20
53.6175862710003
 30
0.0
 11
33.02827634575429
 21
54.75376761920366
 31
0.0
1001
AcDbBlockRepETag
1070
     1
1071
       56
1005
9733
  0
LINE
  5
9734
330
7441
100
AcDbEntity
  8
0
  6
Continuous
370
     9
100
AcDbLine
 10
33.89519670890017
 20
54.14674344590423
 30
0.0
 11
35.19375135343393
 21
54.89646431948323
 31
0.0
1001
AcDbBlockRepETag
1070
     1
1071
       57
1005
9734
  0
LINE
  5
9735
330
7441
100
AcDbEntity
  8
0
  6
Continuous
370
     9
100
AcDbLine
 10
35.1937513534299
 20
54.89646431948095
 30
0.0
 11
35.24335810240743
 21
56.03264566768431
 31
0.0
1001
AcDbBlockRepETag
1070
     1
1071
       58
1005
9735
  0
LINE
  5
9736
330
7441
100
AcDbEntity
  8
0
  6
Continuous
370
     9
100
AcDbLine
 10
35.24335810240615
 20
56.03264566768409
 30
0.0
 11
39.83225655797959
 21
52.81946437701285
 31
0.0
1001
AcDbBlockRepETag
1070
     1
1071
       59
1005
9736
  0
LINE
  5
9737
330
7441
100
AcDbEntity
  8
0
  6
Continuous
370
     9
100
AcDbLine
 10
35.24335810240615
 20
56.03264566768409
 30
0.0
 11
39.7826498090021
 21
51.68328302880961
 31
0.0
1001
AcDbBlockRepETag
1070
     1
1071
       60
1005
9737
  0
LINE
  5
9738
330
7441
100
AcDbEntity
  8
0
  6
Continuous
370
     9
100
AcDbLine
 10
33.02827634575316
 20
54.75376761920344
 30
0.0
 11
37.5675680523491
 21
50.40440498032896
 31
0.0
1001
AcDbBlockRepETag
1070
     1
1071
       61
1005
9738
  0
LINE
  5
9739
330
7441
100
AcDbEntity
  8
0
  6
Continuous
370
     9
100
AcDbLine
 10
32.97866959677677
 20
53.6175862710003
 30
0.0
 11
37.56756805235024
 21
50.40440498032918
 31
0.0
1001
AcDbBlockRepETag
1070
     1
1071
       62
1005
9739
  0
LINE
  5
973A
330
7441
100
AcDbEntity
  8
0
  6
Continuous
370
     9
100
AcDbLine
 10
35.1937513534299
 20
54.89646431948095
 30
0.0
 11
39.78264980900338
 21
51.68328302880983
 31
0.0
1001
AcDbBlockRepETag
1070
     1
1071
       63
1005
973A
  0
LINE
  5
973B
330
7441
100
AcDbEntity
  8
0
  6
Continuous
370
     9
100
AcDbLine
 10
39.78264980900093
 20
51.68328302880929
 30
0.0
 11
39.83225655797843
 21
52.81946437701254
 31
0.0
1001
AcDbBlockRepETag
1070
     1
1071
       64
1005
973B
  0
LINE
  5
973C
330
7441
100
AcDbEntity
  8
0
  6
Continuous
370
     9
100
AcDbLine
 10
37.56756805234794
 20
50.40440498032864
 30
0.0
 11
37.61717480132551
 21
51.54058632853192
 31
0.0
1001
AcDbBlockRepETag
1070
     1
1071
       65
1005
973C
  0
LINE
  5
973D
330
7441
100
AcDbEntity
  8
0
  6
Continuous
370
     9
100
AcDbLine
 10
41.88860337237535
 20
59.86927981313193
 30
0.0
 11
46.02226344999002
 21
55.80394349860585
 31
0.0
1001
AcDbBlockRepETag
1070
     1
1071
       66
1005
973D
  0
LINE
  5
973E
330
7441
100
AcDbEntity
  8
0
  6
Continuous
370
     9
100
AcDbLine
 10
41.88860337237535
 20
59.86927981313193
 30
0.0
 11
45.7855731324107
 21
57.14059221098054
 31
0.0
1001
AcDbBlockRepETag
1070
     1
1071
       67
1005
973E
  0
LINE
  5
973F
330
7441
100
AcDbEntity
  8
0
  6
Continuous
370
     9
100
AcDbLine
 10
41.83899662339911
 20
58.73309846492865
 30
0.0
 11
46.0222634499913
 21
55.80394349860593
 31
0.0
1001
AcDbBlockRepETag
1070
     1
1071
       68
1005
973F
  0
LINE
  5
9740
330
7441
100
AcDbEntity
  8
0
  6
Continuous
370
     9
100
AcDbLine
 10
44.26242007129324
 20
55.37722047397977
 30
0.0
 11
45.15534308684571
 21
56.41096767190717
 31
0.0
1001
AcDbBlockRepETag
1070
     1
1071
       69
1005
9740
  0
LINE
  5
9741
330
7441
100
AcDbEntity
  8
0
  6
Continuous
370
     9
100
AcDbLine
 10
44.26242007129324
 20
55.37722047397977
 30
0.0
 11
45.15534308684571
 21
56.41096767190717
 31
0.0
1001
AcDbBlockRepETag
1070
     1
1071
       70
1005
9741
  0
LINE
  5
9742
330
7441
100
AcDbEntity
  8
0
  6
Continuous
370
     9
100
AcDbLine
 10
28.59811283244703
 20
52.19601152224221
 30
0.0
 11
33.18701128802054
 21
48.98283023157102
 31
0.0
1001
AcDbBlockRepETag
1070
     1
1071
       71
1005
9742
  0
LINE
  5
9743
330
7441
100
AcDbEntity
  8
0
  6
Continuous
370
     9
100
AcDbLine
 10
33.18701128801806
 20
48.9828302315707
 30
0.0
 11
34.48556593255181
 21
49.7325511051497
 31
0.0
1001
AcDbBlockRepETag
1070
     1
1071
       72
1005
9743
  0
LINE
  5
9744
330
7441
100
AcDbEntity
  8
0
  6
Continuous
370
     9
100
AcDbLine
 10
30.97192953136506
 20
47.70395218309005
 30
0.0
 11
32.27048417589882
 21
48.45367305666905
 31
0.0
1001
AcDbBlockRepETag
1070
     1
1071
       73
1005
9744
  0
LINE
  5
9745
330
7441
100
AcDbEntity
  8
0
  6
Continuous
370
     9
100
AcDbLine
 10
28.54850608346076
 20
51.05983017403318
 30
0.0
 11
28.59811283243829
 21
52.19601152223654
 31
0.0
1001
AcDbBlockRepETag
1070
     1
1071
       74
1005
9745
  0
LINE
  5
9746
330
7441
100
AcDbEntity
  8
0
  6
Continuous
370
     9
100
AcDbLine
 10
30.76358784012378
 20
52.33870822251958
 30
0.0
 11
30.8131945891013
 21
53.47488957072294
 31
0.0
1001
AcDbBlockRepETag
1070
     1
1071
       75
1005
9746
  0
LINE
  5
9747
330
7441
100
AcDbEntity
  8
0
  6
Continuous
370
     9
100
AcDbLine
 10
29.46503319558403
 20
51.58898734893718
 30
0.0
 11
30.76358784011778
 21
52.33870822251618
 31
0.0
1001
AcDbBlockRepETag
1070
     1
1071
       76
1005
9747
  0
LINE
  5
9748
330
7441
100
AcDbEntity
  8
0
  6
Continuous
370
     9
100
AcDbLine
 10
24.16794931913081
 20
49.63825542527501
 30
0.0
 11
28.75684777470425
 21
46.42507413460378
 31
0.0
1001
AcDbBlockRepETag
1070
     1
1071
       77
1005
9748
  0
LINE
  5
9749
330
7441
100
AcDbEntity
  8
0
  6
Continuous
370
     9
100
AcDbLine
 10
28.75684777470191
 20
46.4250741346035
 30
0.0
 11
30.05540241923574
 21
47.17479500818256
 31
0.0
1001
AcDbBlockRepETag
1070
     1
1071
       78
1005
9749
  0
LINE
  5
974A
330
7441
100
AcDbEntity
  8
0
  6
Continuous
370
     9
100
AcDbLine
 10
26.33342432680777
 20
49.78095212555253
 30
0.0
 11
26.38303107578522
 21
50.91713347375584
 31
0.0
1001
AcDbBlockRepETag
1070
     1
1071
       79
1005
974A
  0
LINE
  5
974B
330
7441
100
AcDbEntity
  8
0
  6
Continuous
370
     9
100
AcDbLine
 10
24.11834257015471
 20
48.50207407707188
 30
0.0
 11
24.16794931913223
 21
49.63825542527524
 31
0.0
1001
AcDbBlockRepETag
1070
     1
1071
       80
1005
974B
  0
LINE
  5
974C
330
7441
100
AcDbEntity
  8
0
  6
Continuous
370
     9
100
AcDbLine
 10
25.03486968227797
 20
49.03123125197588
 30
0.0
 11
26.3334243268118
 21
49.78095212555493
 31
0.0
1001
AcDbBlockRepETag
1070
     1
1071
       81
1005
974C
  0
LINE
  5
974D
330
7441
100
AcDbEntity
  8
0
  6
Continuous
370
     9
100
AcDbLine
 10
26.38303107578395
 20
50.91713347375574
 30
0.0
 11
30.97192953135746
 21
47.70395218308453
 31
0.0
1001
AcDbBlockRepETag
1070
     1
1071
       82
1005
974D
  0
LINE
  5
974E
330
7441
100
AcDbEntity
  8
0
  6
Continuous
370
     9
100
AcDbLine
 10
27.24995143893103
 20
50.31010930045653
 30
0.0
 11
28.54850608346479
 21
51.05983017403553
 31
0.0
1001
AcDbBlockRepETag
1070
     1
1071
       83
1005
974E
  0
LINE
  5
974F
330
7441
100
AcDbEntity
  8
0
  6
Continuous
370
     9
100
AcDbLine
 10
30.81319458910002
 20
53.47488957072279
 30
0.0
 11
35.35248629569589
 21
49.12552693184827
 31
0.0
1001
AcDbBlockRepETag
1070
     1
1071
       84
1005
974F
  0
LINE
  5
9750
330
7441
100
AcDbEntity
  8
0
  6
Continuous
370
     9
100
AcDbLine
 10
30.76358784012378
 20
52.33870822251958
 30
0.0
 11
35.35248629569716
 21
49.12552693184842
 31
0.0
1001
AcDbBlockRepETag
1070
     1
1071
       85
1005
9750
  0
LINE
  5
9751
330
7441
100
AcDbEntity
  8
0
  6
Continuous
370
     9
100
AcDbLine
 10
26.38303107578395
 20
50.91713347375574
 30
0.0
 11
30.9223227823799
 21
46.56777083488125
 31
0.0
1001
AcDbBlockRepETag
1070
     1
1071
       86
1005
9751
  0
LINE
  5
9752
330
7441
100
AcDbEntity
  8
0
  6
Continuous
370
     9
100
AcDbLine
 10
26.33342432680777
 20
49.78095212555253
 30
0.0
 11
30.92232278238116
 21
46.56777083488136
 31
0.0
1001
AcDbBlockRepETag
1070
     1
1071
       87
1005
9752
  0
LINE
  5
9753
330
7441
100
AcDbEntity
  8
0
  6
Continuous
370
     9
100
AcDbLine
 10
24.16794931913081
 20
49.63825542527501
 30
0.0
 11
28.70724102572676
 21
45.28889278640053
 31
0.0
1001
AcDbBlockRepETag
1070
     1
1071
       88
1005
9753
  0
LINE
  5
9754
330
7441
100
AcDbEntity
  8
0
  6
Continuous
370
     9
100
AcDbLine
 10
24.11834257015471
 20
48.50207407707188
 30
0.0
 11
28.70724102572818
 21
45.28889278640075
 31
0.0
1001
AcDbBlockRepETag
1070
     1
1071
       89
1005
9754
  0
LINE
  5
9755
330
7441
100
AcDbEntity
  8
0
  6
Continuous
370
     9
100
AcDbLine
 10
28.59811283244703
 20
52.19601152224221
 30
0.0
 11
33.13740453904298
 21
47.84664888336773
 31
0.0
1001
AcDbBlockRepETag
1070
     1
1071
       90
1005
9755
  0
LINE
  5
9756
330
7441
100
AcDbEntity
  8
0
  6
Continuous
370
     9
100
AcDbLine
 10
28.54850608346076
 20
51.05983017403318
 30
0.0
 11
33.13740453903424
 21
47.84664888336205
 31
0.0
1001
AcDbBlockRepETag
1070
     1
1071
       91
1005
9756
  0
LINE
  5
9757
330
7441
100
AcDbEntity
  8
0
  6
Continuous
370
     9
100
AcDbLine
 10
30.92232278237873
 20
46.56777083488094
 30
0.0
 11
30.9719295313563
 21
47.70395218308422
 31
0.0
1001
AcDbBlockRepETag
1070
     1
1071
       92
1005
9757
  0
LINE
  5
9758
330
7441
100
AcDbEntity
  8
0
  6
Continuous
370
     9
100
AcDbLine
 10
28.70724102572573
 20
45.28889278640022
 30
0.0
 11
28.75684777470323
 21
46.42507413460346
 31
0.0
1001
AcDbBlockRepETag
1070
     1
1071
       93
1005
9758
  0
LINE
  5
9759
330
7441
100
AcDbEntity
  8
0
  6
Continuous
370
     9
100
AcDbLine
 10
33.13740453904181
 20
47.84664888336735
 30
0.0
 11
33.18701128801938
 21
48.98283023157063
 31
0.0
1001
AcDbBlockRepETag
1070
     1
1071
       94
1005
9759
  0
LINE
  5
975A
330
7441
100
AcDbEntity
  8
0
  6
Continuous
370
     9
100
AcDbLine
 10
30.81319458910002
 20
53.47488957072279
 30
0.0
 11
35.40209304467346
 21
50.26170828005155
 31
0.0
1001
AcDbBlockRepETag
1070
     1
1071
       95
1005
975A
  0
LINE
  5
975B
330
7441
100
AcDbEntity
  8
0
  6
Continuous
370
     9
100
AcDbLine
 10
35.3524862956948
 20
49.125526931848
 30
0.0
 11
35.40209304467237
 21
50.26170828005128
 31
0.0
1001
AcDbBlockRepETag
1070
     1
1071
       96
1005
975B
  0
LINE
  5
975C
330
7441
100
AcDbEntity
  8
0
  6
Continuous
370
     9
100
AcDbLine
 10
31.68011495223702
 20
52.86786539741783
 30
0.0
 11
32.97866959677077
 21
53.61758627099683
 31
0.0
1001
AcDbBlockRepETag
1070
     1
1071
       97
1005
975C
  0
LINE
  5
975D
330
7441
100
AcDbEntity
  8
0
  6
Continuous
370
     9
100
AcDbLine
 10
-12.95502981099886
 20
23.52301902484619
 30
0.0
 11
-12.90542306202032
 21
24.65920037305015
 31
0.0
1001
AcDbBlockRepETag
1070
     1
1071
       98
1005
975D
  0
LINE
  5
975E
330
7441
100
AcDbEntity
  8
0
  6
Continuous
370
     9
100
AcDbLine
 10
13.04293378687944
 20
42.10768383466273
 30
0.0
 11
17.63183224245284
 21
38.89450254399156
 31
0.0
1001
AcDbBlockRepETag
1070
     1
1071
       99
1005
975E
  0
LINE
  5
975F
330
7441
100
AcDbEntity
  8
0
  6
Continuous
370
     9
100
AcDbLine
 10
13.04293378687944
 20
42.10768383466273
 30
0.0
 11
13.09254053585697
 21
43.24386518286609
 31
0.0
1001
AcDbBlockRepETag
1070
     1
1071
      100
1005
975F
  0
LINE
  5
9760
330
7441
100
AcDbEntity
  8
0
  6
Continuous
370
     9
100
AcDbLine
 10
13.09254053585569
 20
43.24386518286601
 30
0.0
 11
17.63183224245155
 21
38.89450254399149
 31
0.0
1001
AcDbBlockRepETag
1070
     1
1071
      101
1005
9760
  0
LINE
  5
9761
330
7441
100
AcDbEntity
  8
0
  6
Continuous
370
     9
100
AcDbLine
 10
13.09254053585569
 20
43.24386518286601
 30
0.0
 11
17.68143899142912
 21
40.03068389219477
 31
0.0
1001
AcDbBlockRepETag
1070
     1
1071
      102
1005
9761
  0
LINE
  5
9762
330
7441
100
AcDbEntity
  8
0
  6
Continuous
370
     9
100
AcDbLine
 10
17.63183224245047
 20
38.89450254399108
 30
0.0
 11
17.68143899142804
 21
40.03068389219436
 31
0.0
1001
AcDbBlockRepETag
1070
     1
1071
      103
1005
9762
  0
LINE
  5
9763
330
7441
100
AcDbEntity
  8
0
  6
Continuous
370
     9
100
AcDbLine
 10
17.68143899142664
 20
40.03068389219443
 30
0.0
 11
18.9799936359604
 21
40.78040476577343
 31
0.0
1001
AcDbBlockRepETag
1070
     1
1071
      104
1005
9763
  0
LINE
  5
9764
330
7441
100
AcDbEntity
  8
0
  6
Continuous
370
     9
100
AcDbLine
 10
13.95946089900278
 20
42.63684100956666
 30
0.0
 11
15.25801554353653
 21
43.38656188314566
 31
0.0
1001
AcDbBlockRepETag
1070
     1
1071
      105
1005
9764
  0
LINE
  5
9765
330
7441
100
AcDbEntity
  8
0
  6
Continuous
370
     9
100
AcDbLine
 10
10.82785203022638
 20
40.82880578618208
 30
0.0
 11
15.41675048579977
 21
37.61562449551091
 31
0.0
1001
AcDbBlockRepETag
1070
     1
1071
      106
1005
9765
  0
LINE
  5
9766
330
7441
100
AcDbEntity
  8
0
  6
Continuous
370
     9
100
AcDbLine
 10
10.82785203022638
 20
40.82880578618208
 30
0.0
 11
10.8774587792039
 21
41.96498713438544
 31
0.0
1001
AcDbBlockRepETag
1070
     1
1071
      107
1005
9766
  0
LINE
  5
9767
330
7441
100
AcDbEntity
  8
0
  6
Continuous
370
     9
100
AcDbLine
 10
10.87745877920269
 20
41.96498713438529
 30
0.0
 11
15.41675048579856
 21
37.61562449551077
 31
0.0
1001
AcDbBlockRepETag
1070
     1
1071
      108
1005
9767
  0
LINE
  5
9768
330
7441
100
AcDbEntity
  8
0
  6
Continuous
370
     9
100
AcDbLine
 10
10.87745877920269
 20
41.96498713438529
 30
0.0
 11
15.46635723477613
 21
38.75180584371405
 31
0.0
1001
AcDbBlockRepETag
1070
     1
1071
      109
1005
9768
  0
LINE
  5
9769
330
7441
100
AcDbEntity
  8
0
  6
Continuous
370
     9
100
AcDbLine
 10
15.41675048579748
 20
37.61562449551043
 30
0.0
 11
15.46635723477505
 21
38.75180584371371
 31
0.0
1001
AcDbBlockRepETag
1070
     1
1071
      110
1005
9769
  0
LINE
  5
976A
330
7441
100
AcDbEntity
  8
0
  6
Continuous
370
     9
100
AcDbLine
 10
15.46635723477365
 20
38.75180584371378
 30
0.0
 11
16.7649118793074
 21
39.50152671729279
 31
0.0
1001
AcDbBlockRepETag
1070
     1
1071
      111
1005
976A
  0
LINE
  5
976B
330
7441
100
AcDbEntity
  8
0
  6
Continuous
370
     9
100
AcDbLine
 10
11.74437914234964
 20
41.35796296108601
 30
0.0
 11
13.04293378688339
 21
42.10768383466501
 31
0.0
1001
AcDbBlockRepETag
1070
     1
1071
      112
1005
976B
  0
LINE
  5
976C
330
7441
100
AcDbEntity
  8
0
  6
Continuous
370
     9
100
AcDbLine
 10
8.612770273573389
 20
39.54992773770144
 30
0.0
 11
13.20166872914678
 21
36.33674644703027
 31
0.0
1001
AcDbBlockRepETag
1070
     1
1071
      113
1005
976C
  0
LINE
  5
976D
330
7441
100
AcDbEntity
  8
0
  6
Continuous
370
     9
100
AcDbLine
 10
8.612770273573389
 20
39.54992773770144
 30
0.0
 11
8.662377022550915
 21
40.68610908590479
 31
0.0
1001
AcDbBlockRepETag
1070
     1
1071
      114
1005
976D
  0
LINE
  5
976E
330
7441
100
AcDbEntity
  8
0
  6
Continuous
370
     9
100
AcDbLine
 10
8.662377022549634
 20
40.68610908590464
 30
0.0
 11
13.2016687291455
 21
36.33674644703012
 31
0.0
1001
AcDbBlockRepETag
1070
     1
1071
      115
1005
976E
  0
LINE
  5
976F
330
7441
100
AcDbEntity
  8
0
  6
Continuous
370
     9
100
AcDbLine
 10
8.662377022549634
 20
40.68610908590464
 30
0.0
 11
13.25127547812307
 21
37.4729277952334
 31
0.0
1001
AcDbBlockRepETag
1070
     1
1071
      116
1005
976F
  0
LINE
  5
9770
330
7441
100
AcDbEntity
  8
0
  6
Continuous
370
     9
100
AcDbLine
 10
13.20166872914441
 20
36.33674644702978
 30
0.0
 11
13.25127547812198
 21
37.47292779523306
 31
0.0
1001
AcDbBlockRepETag
1070
     1
1071
      117
1005
9770
  0
LINE
  5
9771
330
7441
100
AcDbEntity
  8
0
  6
Continuous
370
     9
100
AcDbLine
 10
13.25127547812208
 20
37.47292779523057
 30
0.0
 11
14.54983012265583
 21
38.22264866880958
 31
0.0
1001
AcDbBlockRepETag
1070
     1
1071
      118
1005
9771
  0
LINE
  5
9772
330
7441
100
AcDbEntity
  8
0
  6
Continuous
370
     9
100
AcDbLine
 10
9.529297385686561
 20
40.07908491259961
 30
0.0
 11
10.82785203022031
 21
40.82880578617861
 31
0.0
1001
AcDbBlockRepETag
1070
     1
1071
      119
1005
9772
  0
LINE
  5
9773
330
7441
100
AcDbEntity
  8
0
  6
Continuous
370
     9
100
AcDbLine
 10
6.397688516910235
 20
38.27104968921496
 30
0.0
 11
10.98658697248362
 21
35.05786839854379
 31
0.0
1001
AcDbBlockRepETag
1070
     1
1071
      120
1005
9773
  0
LINE
  5
9774
330
7441
100
AcDbEntity
  8
0
  6
Continuous
370
     9
100
AcDbLine
 10
6.397688516910235
 20
38.27104968921496
 30
0.0
 11
6.447295265887761
 21
39.40723103741832
 31
0.0
1001
AcDbBlockRepETag
1070
     1
1071
      121
1005
9774
  0
LINE
  5
9775
330
7441
100
AcDbEntity
  8
0
  6
Continuous
370
     9
100
AcDbLine
 10
6.447295265896642
 20
39.407231037424
 30
0.0
 11
10.9865869724925
 21
35.05786839854947
 31
0.0
1001
AcDbBlockRepETag
1070
     1
1071
      122
1005
9775
  0
LINE
  5
9776
330
7441
100
AcDbEntity
  8
0
  6
Continuous
370
     9
100
AcDbLine
 10
6.447295265896642
 20
39.407231037424
 30
0.0
 11
11.03619372147008
 21
36.19404974675275
 31
0.0
1001
AcDbBlockRepETag
1070
     1
1071
      123
1005
9776
  0
LINE
  5
9777
330
7441
100
AcDbEntity
  8
0
  6
Continuous
370
     9
100
AcDbLine
 10
39.83225655797717
 20
52.81946437701257
 30
0.0
 11
41.13081120251101
 21
53.56918525059163
 31
0.0
1001
AcDbBlockRepETag
1070
     1
1071
      124
1005
9777
  0
LINE
  5
9778
330
7441
100
AcDbEntity
  8
0
  6
Continuous
370
     9
100
AcDbLine
 10
36.11027846555324
 20
55.42562149438488
 30
0.0
 11
37.40883311008707
 21
56.17534236796394
 31
0.0
1001
AcDbBlockRepETag
1070
     1
1071
      125
1005
9778
  0
LINE
  5
9779
330
7441
100
AcDbEntity
  8
0
  6
Continuous
370
     9
100
AcDbLine
 10
37.40883311008289
 20
56.1753423679616
 30
0.0
 11
37.45843985906034
 21
57.31152371616492
 31
0.0
1001
AcDbBlockRepETag
1070
     1
1071
      126
1005
9779
  0
LINE
  5
977A
330
7441
100
AcDbEntity
  8
0
  6
Continuous
370
     9
100
AcDbLine
 10
37.45843985905914
 20
57.31152371616474
 30
0.0
 11
42.04733831463265
 21
54.09834242549354
 31
0.0
1001
AcDbBlockRepETag
1070
     1
1071
      127
1005
977A
  0
LINE
  5
977B
330
7441
100
AcDbEntity
  8
0
  6
Continuous
370
     9
100
AcDbLine
 10
37.45843985905914
 20
57.31152371616474
 30
0.0
 11
41.99773156565508
 21
52.96216107729026
 31
0.0
1001
AcDbBlockRepETag
1070
     1
1071
      128
1005
977B
  0
LINE
  5
977C
330
7441
100
AcDbEntity
  8
0
  6
Continuous
370
     9
100
AcDbLine
 10
37.40883311008289
 20
56.1753423679616
 30
0.0
 11
41.99773156565628
 21
52.96216107729044
 31
0.0
1001
AcDbBlockRepETag
1070
     1
1071
      129
1005
977C
  0
LINE
  5
977D
330
7441
100
AcDbEntity
  8
0
  6
Continuous
370
     9
100
AcDbLine
 10
41.99773156565392
 20
52.96216107728994
 30
0.0
 11
42.04733831463149
 21
54.09834242549322
 31
0.0
1001
AcDbBlockRepETag
1070
     1
1071
      130
1005
977D
  0
LINE
  5
977E
330
7441
100
AcDbEntity
  8
0
  6
Continuous
370
     9
100
AcDbLine
 10
10.98658697249142
 20
35.05786839854913
 30
0.0
 11
11.03619372146899
 21
36.19404974675241
 31
0.0
1001
AcDbBlockRepETag
1070
     1
1071
      131
1005
977E
  0
LINE
  5
977F
330
7441
100
AcDbEntity
  8
0
  6
Continuous
370
     9
100
AcDbLine
 10
11.03619372146916
 20
36.19404974674993
 30
0.0
 11
12.33474836600291
 21
36.94377062032893
 31
0.0
1001
AcDbBlockRepETag
1070
     1
1071
      132
1005
977F
  0
LINE
  5
9780
330
7441
100
AcDbEntity
  8
0
  6
Continuous
370
     9
100
AcDbLine
 10
7.314215629033569
 20
38.80020686411896
 30
0.0
 11
8.612770273567321
 21
39.54992773769797
 31
0.0
1001
AcDbBlockRepETag
1070
     1
1071
      133
1005
9780
  0
LINE
  5
9781
330
7441
100
AcDbEntity
  8
0
  6
Continuous
370
     9
100
AcDbLine
 10
4.182606760257243
 20
36.99217164073431
 30
0.0
 11
8.771505215830634
 21
33.77899035006314
 31
0.0
1001
AcDbBlockRepETag
1070
     1
1071
      134
1005
9781
  0
LINE
  5
9782
330
7441
100
AcDbEntity
  8
0
  6
Continuous
370
     9
100
AcDbLine
 10
4.182606760257243
 20
36.99217164073431
 30
0.0
 11
4.232213509234768
 21
38.12835298893767
 31
0.0
1001
AcDbBlockRepETag
1070
     1
1071
      135
1005
9782
  0
LINE
  5
9783
330
7441
100
AcDbEntity
  8
0
  6
Continuous
370
     9
100
AcDbLine
 10
4.232213509233488
 20
38.12835298893752
 30
0.0
 11
8.771505215829355
 21
33.77899035006299
 31
0.0
1001
AcDbBlockRepETag
1070
     1
1071
      136
1005
9783
  0
LINE
  5
9784
330
7441
100
AcDbEntity
  8
0
  6
Continuous
370
     9
100
AcDbLine
 10
4.232213509233488
 20
38.12835298893752
 30
0.0
 11
8.821111964806924
 21
34.91517169826627
 31
0.0
1001
AcDbBlockRepETag
1070
     1
1071
      137
1005
9784
  0
LINE
  5
9785
330
7441
100
AcDbEntity
  8
0
  6
Continuous
370
     9
100
AcDbLine
 10
8.77150521582827
 20
33.77899035006273
 30
0.0
 11
8.82111196480584
 21
34.91517169826601
 31
0.0
1001
AcDbBlockRepETag
1070
     1
1071
      138
1005
9785
  0
LINE
  5
9786
330
7441
100
AcDbEntity
  8
0
  6
Continuous
370
     9
100
AcDbLine
 10
8.821111964816026
 20
34.91517169826928
 30
0.0
 11
10.11966660934978
 21
35.66489257184828
 31
0.0
1001
AcDbBlockRepETag
1070
     1
1071
      139
1005
9786
  0
LINE
  5
9787
330
7441
100
AcDbEntity
  8
0
  6
Continuous
370
     9
100
AcDbLine
 10
5.099133872380647
 20
37.52132881563831
 30
0.0
 11
6.3976885169144
 21
38.27104968921732
 31
0.0
1001
AcDbBlockRepETag
1070
     1
1071
      140
1005
9787
  0
LINE
  5
9788
330
7441
100
AcDbEntity
  8
0
  6
Continuous
370
     9
100
AcDbLine
 10
1.96752500360418
 20
35.71329359225366
 30
0.0
 11
6.556423459177571
 21
32.50011230158249
 31
0.0
1001
AcDbBlockRepETag
1070
     1
1071
      141
1005
9788
  0
LINE
  5
9789
330
7441
100
AcDbEntity
  8
0
  6
Continuous
370
     9
100
AcDbLine
 10
1.96752500360418
 20
35.71329359225366
 30
0.0
 11
2.017131752581705
 21
36.84947494045702
 31
0.0
1001
AcDbBlockRepETag
1070
     1
1071
      142
1005
9789
  0
LINE
  5
978A
330
7441
100
AcDbEntity
  8
0
  6
Continuous
370
     9
100
AcDbLine
 10
2.017131752580496
 20
36.84947494045687
 30
0.0
 11
6.556423459176362
 21
32.50011230158234
 31
0.0
1001
AcDbBlockRepETag
1070
     1
1071
      143
1005
978A
  0
LINE
  5
978B
330
7441
100
AcDbEntity
  8
0
  6
Continuous
370
     9
100
AcDbLine
 10
2.017131752580496
 20
36.84947494045687
 30
0.0
 11
6.606030208153931
 21
33.63629364978562
 31
0.0
1001
AcDbBlockRepETag
1070
     1
1071
      144
1005
978B
  0
LINE
  5
978C
330
7441
100
AcDbEntity
  8
0
  6
Continuous
370
     9
100
AcDbLine
 10
6.556423459175277
 20
32.50011230158201
 30
0.0
 11
6.606030208152848
 21
33.63629364978529
 31
0.0
1001
AcDbBlockRepETag
1070
     1
1071
      145
1005
978C
  0
LINE
  5
978D
330
7441
100
AcDbEntity
  8
0
  6
Continuous
370
     9
100
AcDbLine
 10
6.606030208152944
 20
33.6362936497828
 30
0.0
 11
7.904584852686697
 21
34.3860145233618
 31
0.0
1001
AcDbBlockRepETag
1070
     1
1071
      146
1005
978D
  0
LINE
  5
978E
330
7441
100
AcDbEntity
  8
0
  6
Continuous
370
     9
100
AcDbLine
 10
2.884052115727513
 20
36.24245076715766
 30
0.0
 11
4.182606760261266
 21
36.99217164073667
 31
0.0
1001
AcDbBlockRepETag
1070
     1
1071
      147
1005
978E
  0
LINE
  5
978F
330
7441
100
AcDbEntity
  8
0
  6
Continuous
370
     9
100
AcDbLine
 10
-0.2475567530488121
 20
34.43441554377301
 30
0.0
 11
4.341341702524578
 21
31.22123425310184
 31
0.0
1001
AcDbBlockRepETag
1070
     1
1071
      148
1005
978F
  0
LINE
  5
9790
330
7441
100
AcDbEntity
  8
0
  6
Continuous
370
     9
100
AcDbLine
 10
-0.2475567530488121
 20
34.43441554377301
 30
0.0
 11
-0.1979500040712869
 21
35.57059689197637
 31
0.0
1001
AcDbBlockRepETag
1070
     1
1071
      149
1005
9790
  0
LINE
  5
9791
330
7441
100
AcDbEntity
  8
0
  6
Continuous
370
     9
100
AcDbLine
 10
-0.1979500040725668
 20
35.57059689197615
 30
0.0
 11
4.341341702523298
 21
31.22123425310162
 31
0.0
1001
AcDbBlockRepETag
1070
     1
1071
      150
1005
9791
  0
LINE
  5
9792
330
7441
100
AcDbEntity
  8
0
  6
Continuous
370
     9
100
AcDbLine
 10
-0.1979500040725668
 20
35.57059689197615
 30
0.0
 11
4.390948451500868
 21
32.3574156013049
 31
0.0
1001
AcDbBlockRepETag
1070
     1
1071
      151
1005
9792
  0
LINE
  5
9793
330
7441
100
AcDbEntity
  8
0
  6
Continuous
370
     9
100
AcDbLine
 10
4.341341702523706
 20
31.22123425309887
 30
0.0
 11
4.390948451501277
 21
32.35741560130215
 31
0.0
1001
AcDbBlockRepETag
1070
     1
1071
      152
1005
9793
  0
LINE
  5
9794
330
7441
100
AcDbEntity
  8
0
  6
Continuous
370
     9
100
AcDbLine
 10
4.390948451499951
 20
32.35741560130215
 30
0.0
 11
5.689503096033704
 21
33.10713647488115
 31
0.0
1001
AcDbBlockRepETag
1070
     1
1071
      153
1005
9794
  0
LINE
  5
9795
330
7441
100
AcDbEntity
  8
0
  6
Continuous
370
     9
100
AcDbLine
 10
0.6689703590745211
 20
34.96357271867694
 30
0.0
 11
1.967525003608273
 21
35.71329359225595
 31
0.0
1001
AcDbBlockRepETag
1070
     1
1071
      154
1005
9795
  0
LINE
  5
9796
330
7441
100
AcDbEntity
  8
0
  6
Continuous
370
     9
100
AcDbLine
 10
-2.462638509701804
 20
33.15553749529236
 30
0.0
 11
2.126259945871586
 21
29.94235620462119
 31
0.0
1001
AcDbBlockRepETag
1070
     1
1071
      155
1005
9796
  0
LINE
  5
9797
330
7441
100
AcDbEntity
  8
0
  6
Continuous
370
     9
100
AcDbLine
 10
-2.462638509701804
 20
33.15553749529236
 30
0.0
 11
-2.413031760724279
 21
34.29171884349572
 31
0.0
1001
AcDbBlockRepETag
1070
     1
1071
      156
1005
9797
  0
LINE
  5
9798
330
7441
100
AcDbEntity
  8
0
  6
Continuous
370
     9
100
AcDbLine
 10
-2.413031760725559
 20
34.2917188434955
 30
0.0
 11
2.126259945870306
 21
29.94235620462097
 31
0.0
1001
AcDbBlockRepETag
1070
     1
1071
      157
1005
9798
  0
LINE
  5
9799
330
7441
100
AcDbEntity
  8
0
  6
Continuous
370
     9
100
AcDbLine
 10
-2.413031760725559
 20
34.2917188434955
 30
0.0
 11
2.175866694847876
 21
31.07853755282425
 31
0.0
1001
AcDbBlockRepETag
1070
     1
1071
      158
1005
9799
  0
LINE
  5
979A
330
7441
100
AcDbEntity
  8
0
  6
Continuous
370
     9
100
AcDbLine
 10
2.126259945870643
 20
29.94235620461822
 30
0.0
 11
2.175866694848213
 21
31.0785375528215
 31
0.0
1001
AcDbBlockRepETag
1070
     1
1071
      159
1005
979A
  0
LINE
  5
979B
330
7441
100
AcDbEntity
  8
0
  6
Continuous
370
     9
100
AcDbLine
 10
2.175866694846817
 20
31.0785375528215
 30
0.0
 11
3.47442133938057
 21
31.8282584264005
 31
0.0
1001
AcDbBlockRepETag
1070
     1
1071
      160
1005
979B
  0
LINE
  5
979C
330
7441
100
AcDbEntity
  8
0
  6
Continuous
370
     9
100
AcDbLine
 10
-1.54611139758856
 20
33.68469467019047
 30
0.0
 11
-0.2475567530548084
 21
34.43441554376947
 31
0.0
1001
AcDbBlockRepETag
1070
     1
1071
      161
1005
979C
  0
LINE
  5
979D
330
7441
100
AcDbEntity
  8
0
  6
Continuous
370
     9
100
AcDbLine
 10
-4.677720266364886
 20
31.87665944680589
 30
0.0
 11
-0.0888218107914951
 21
28.66347815613472
 31
0.0
1001
AcDbBlockRepETag
1070
     1
1071
      162
1005
979D
  0
LINE
  5
979E
330
7441
100
AcDbEntity
  8
0
  6
Continuous
370
     9
100
AcDbLine
 10
-4.677720266364886
 20
31.87665944680589
 30
0.0
 11
-4.628113517387361
 21
33.01284079500925
 31
0.0
1001
AcDbBlockRepETag
1070
     1
1071
      163
1005
979E
  0
LINE
  5
979F
330
7441
100
AcDbEntity
  8
0
  6
Continuous
370
     9
100
AcDbLine
 10
-4.628113517378693
 20
33.01284079501485
 30
0.0
 11
-0.0888218107828276
 21
28.66347815614032
 31
0.0
1001
AcDbBlockRepETag
1070
     1
1071
      164
1005
979F
  0
LINE
  5
97A0
330
7441
100
AcDbEntity
  8
0
  6
Continuous
370
     9
100
AcDbLine
 10
-4.628113517378693
 20
33.01284079501485
 30
0.0
 11
-0.0392150618052578
 21
29.7996595043436
 31
0.0
1001
AcDbBlockRepETag
1070
     1
1071
      165
1005
97A0
  0
LINE
  5
97A1
330
7441
100
AcDbEntity
  8
0
  6
Continuous
370
     9
100
AcDbLine
 10
-0.0888218107823491
 20
28.66347815613757
 30
0.0
 11
-0.0392150618047785
 21
29.79965950434085
 31
0.0
1001
AcDbBlockRepETag
1070
     1
1071
      166
1005
97A1
  0
LINE
  5
97A2
330
7441
100
AcDbEntity
  8
0
  6
Continuous
370
     9
100
AcDbLine
 10
-0.0392150618061749
 20
29.79965950434085
 30
0.0
 11
1.259339582727577
 21
30.54938037791985
 31
0.0
1001
AcDbBlockRepETag
1070
     1
1071
      167
1005
97A2
  0
LINE
  5
97A3
330
7441
100
AcDbEntity
  8
0
  6
Continuous
370
     9
100
AcDbLine
 10
-3.761193154241553
 20
32.40581662170982
 30
0.0
 11
-2.4626385097078
 21
33.15553749528882
 31
0.0
1001
AcDbBlockRepETag
1070
     1
1071
      168
1005
97A3
  0
LINE
  5
97A4
330
7441
100
AcDbEntity
  8
0
  6
Continuous
370
     9
100
AcDbLine
 10
-6.892802023017949
 20
30.59778139832524
 30
0.0
 11
-2.303903567444558
 21
27.38460010765407
 31
0.0
1001
AcDbBlockRepETag
1070
     1
1071
      169
1005
97A4
  0
LINE
  5
97A5
330
7441
100
AcDbEntity
  8
0
  6
Continuous
370
     9
100
AcDbLine
 10
-6.892802023017949
 20
30.59778139832524
 30
0.0
 11
-6.843195274040424
 21
31.7339627465286
 31
0.0
1001
AcDbBlockRepETag
1070
     1
1071
      170
1005
97A5
  0
LINE
  5
97A6
330
7441
100
AcDbEntity
  8
0
  6
Continuous
370
     9
100
AcDbLine
 10
-6.843195274041775
 20
31.73396274652845
 30
0.0
 11
-2.303903567445909
 21
27.38460010765392
 31
0.0
1001
AcDbBlockRepETag
1070
     1
1071
      171
1005
97A6
  0
LINE
  5
97A7
330
7441
100
AcDbEntity
  8
0
  6
Continuous
370
     9
100
AcDbLine
 10
-6.843195274041775
 20
31.73396274652845
 30
0.0
 11
-2.254296818468339
 21
28.5207814558572
 31
0.0
1001
AcDbBlockRepETag
1070
     1
1071
      172
1005
97A7
  0
LINE
  5
97A8
330
7441
100
AcDbEntity
  8
0
  6
Continuous
370
     9
100
AcDbLine
 10
-2.303903567445502
 20
27.38460010765117
 30
0.0
 11
-2.254296818467931
 21
28.52078145585445
 31
0.0
1001
AcDbBlockRepETag
1070
     1
1071
      173
1005
97A8
  0
LINE
  5
97A9
330
7441
100
AcDbEntity
  8
0
  6
Continuous
370
     9
100
AcDbLine
 10
-2.254296818459167
 20
28.5207814558602
 30
0.0
 11
-0.9557421739254145
 21
29.2705023294392
 31
0.0
1001
AcDbBlockRepETag
1070
     1
1071
      174
1005
97A9
  0
LINE
  5
97AA
330
7441
100
AcDbEntity
  8
0
  6
Continuous
370
     9
100
AcDbLine
 10
-5.976274910894687
 20
31.12693857322924
 30
0.0
 11
-4.677720266360934
 21
31.87665944680824
 31
0.0
1001
AcDbBlockRepETag
1070
     1
1071
      175
1005
97AA
  0
LINE
  5
97AB
330
7441
100
AcDbEntity
  8
0
  6
Continuous
370
     9
100
AcDbLine
 10
-9.107883779670942
 20
29.31890334984459
 30
0.0
 11
-4.518985324097551
 21
26.10572205917342
 31
0.0
1001
AcDbBlockRepETag
1070
     1
1071
      176
1005
97AB
  0
LINE
  5
97AC
330
7441
100
AcDbEntity
  8
0
  6
Continuous
370
     9
100
AcDbLine
 10
-9.107883779670942
 20
29.31890334984459
 30
0.0
 11
-9.058277030693416
 21
30.45508469804795
 31
0.0
1001
AcDbBlockRepETag
1070
     1
1071
      177
1005
97AC
  0
LINE
  5
97AD
330
7441
100
AcDbEntity
  8
0
  6
Continuous
370
     9
100
AcDbLine
 10
-9.058277030694767
 20
30.4550846980478
 30
0.0
 11
-4.518985324098902
 21
26.10572205917327
 31
0.0
1001
AcDbBlockRepETag
1070
     1
1071
      178
1005
97AD
  0
LINE
  5
97AE
330
7441
100
AcDbEntity
  8
0
  6
Continuous
370
     9
100
AcDbLine
 10
-9.058277030694767
 20
30.4550846980478
 30
0.0
 11
-4.469378575121332
 21
27.24190340737655
 31
0.0
1001
AcDbBlockRepETag
1070
     1
1071
      179
1005
97AE
  0
LINE
  5
97AF
330
7441
100
AcDbEntity
  8
0
  6
Continuous
370
     9
100
AcDbLine
 10
-4.518985324098494
 20
26.10572205917052
 30
0.0
 11
-4.469378575120924
 21
27.2419034073738
 31
0.0
1001
AcDbBlockRepETag
1070
     1
1071
      180
1005
97AF
  0
LINE
  5
97B0
330
7441
100
AcDbEntity
  8
0
  6
Continuous
370
     9
100
AcDbLine
 10
-4.469378575122249
 20
27.24190340737365
 30
0.0
 11
-3.170823930588496
 21
27.99162428095265
 31
0.0
1001
AcDbBlockRepETag
1070
     1
1071
      181
1005
97B0
  0
LINE
  5
97B1
330
7441
100
AcDbEntity
  8
0
  6
Continuous
370
     9
100
AcDbLine
 10
-8.19135666754768
 20
29.84806052474859
 30
0.0
 11
-6.892802023013927
 21
30.59778139832759
 31
0.0
1001
AcDbBlockRepETag
1070
     1
1071
      182
1005
97B1
  0
LINE
  5
97B2
330
7441
100
AcDbEntity
  8
0
  6
Continuous
370
     9
100
AcDbLine
 10
-11.32296553632393
 20
28.04002530136394
 30
0.0
 11
-6.734067080750543
 21
24.82684401069277
 31
0.0
1001
AcDbBlockRepETag
1070
     1
1071
      183
1005
97B2
  0
LINE
  5
97B3
330
7441
100
AcDbEntity
  8
0
  6
Continuous
370
     9
100
AcDbLine
 10
-11.32296553632393
 20
28.04002530136394
 30
0.0
 11
-11.27335878734641
 21
29.1762066495673
 31
0.0
1001
AcDbBlockRepETag
1070
     1
1071
      184
1005
97B3
  0
LINE
  5
97B4
330
7441
100
AcDbEntity
  8
0
  6
Continuous
370
     9
100
AcDbLine
 10
-11.27335878734769
 20
29.17620664956715
 30
0.0
 11
-6.734067080751823
 21
24.82684401069262
 31
0.0
1001
AcDbBlockRepETag
1070
     1
1071
      185
1005
97B4
  0
LINE
  5
97B5
330
7441
100
AcDbEntity
  8
0
  6
Continuous
370
     9
100
AcDbLine
 10
-11.27335878734769
 20
29.17620664956715
 30
0.0
 11
-6.684460331774253
 21
25.9630253588959
 31
0.0
1001
AcDbBlockRepETag
1070
     1
1071
      186
1005
97B5
  0
LINE
  5
97B6
330
7441
100
AcDbEntity
  8
0
  6
Continuous
370
     9
100
AcDbLine
 10
-6.734067080751557
 20
24.8268440106898
 30
0.0
 11
-6.684460331773987
 21
25.96302535889308
 31
0.0
1001
AcDbBlockRepETag
1070
     1
1071
      187
1005
97B6
  0
LINE
  5
97B7
330
7441
100
AcDbEntity
  8
0
  6
Continuous
370
     9
100
AcDbLine
 10
-6.684460331775383
 20
25.96302535889301
 30
0.0
 11
-5.38590568724163
 21
26.712746232472
 31
0.0
1001
AcDbBlockRepETag
1070
     1
1071
      188
1005
97B7
  0
LINE
  5
97B8
330
7441
100
AcDbEntity
  8
0
  6
Continuous
370
     9
100
AcDbLine
 10
-10.40643842420074
 20
28.56918247626794
 30
0.0
 11
-9.107883779666991
 21
29.31890334984694
 31
0.0
1001
AcDbBlockRepETag
1070
     1
1071
      189
1005
97B8
  0
LINE
  5
97B9
330
7441
100
AcDbEntity
  8
0
  6
Continuous
370
     9
100
AcDbLine
 10
-13.53804729297707
 20
26.76114725288329
 30
0.0
 11
-8.949148837403678
 21
23.54796596221212
 31
0.0
1001
AcDbBlockRepETag
1070
     1
1071
      190
1005
97B9
  0
LINE
  5
97BA
330
7441
100
AcDbEntity
  8
0
  6
Continuous
370
     9
100
AcDbLine
 10
-13.53804729297707
 20
26.76114725288329
 30
0.0
 11
-13.48844054399954
 21
27.89732860108665
 31
0.0
1001
AcDbBlockRepETag
1070
     1
1071
      191
1005
97BA
  0
LINE
  5
97BB
330
7441
100
AcDbEntity
  8
0
  6
Continuous
370
     9
100
AcDbLine
 10
-13.48844054400082
 20
27.89732860108643
 30
0.0
 11
-8.949148837404957
 21
23.5479659622119
 31
0.0
1001
AcDbBlockRepETag
1070
     1
1071
      192
1005
97BB
  0
LINE
  5
97BC
330
7441
100
AcDbEntity
  8
0
  6
Continuous
370
     9
100
AcDbLine
 10
-13.48844054400082
 20
27.89732860108643
 30
0.0
 11
-8.899542088427388
 21
24.68414731041518
 31
0.0
1001
AcDbBlockRepETag
1070
     1
1071
      193
1005
97BC
  0
LINE
  5
97BD
330
7441
100
AcDbEntity
  8
0
  6
Continuous
370
     9
100
AcDbLine
 10
-8.949148837404621
 20
23.54796596220915
 30
0.0
 11
-8.89954208842705
 21
24.68414731041243
 31
0.0
1001
AcDbBlockRepETag
1070
     1
1071
      194
1005
97BD
  0
LINE
  5
97BE
330
7441
100
AcDbEntity
  8
0
  6
Continuous
370
     9
100
AcDbLine
 10
-8.899542088428376
 20
24.68414731041236
 30
0.0
 11
-7.600987443894623
 21
25.43386818399135
 31
0.0
1001
AcDbBlockRepETag
1070
     1
1071
      195
1005
97BE
  0
LINE
  5
97BF
330
7441
100
AcDbEntity
  8
0
  6
Continuous
370
     9
100
AcDbLine
 10
-12.62152018086389
 20
27.29030442778139
 30
0.0
 11
-11.32296553633014
 21
28.04002530136039
 31
0.0
1001
AcDbBlockRepETag
1070
     1
1071
      196
1005
97BF
  0
LINE
  5
97C0
330
7441
100
AcDbEntity
  8
0
370
     9
100
AcDbLine
 10
-13.53804729297707
 20
26.76114725288329
 30
0.0
 11
-43.44732128500559
 21
9.493019862319361
 31
0.0
1001
AcDbBlockRepETag
1070
     1
1071
      197
1005
97C0
  0
ELLIPSE
  5
97C5
330
7441
100
AcDbEntity
  8
0
  6
Continuous
370
     9
100
AcDbEllipse
 10
-47.84725318215411
 20
3.488158304666822
 30
0.0
 11
5.263922635550263
 21
5.263922635550263
 31
0.0
210
0.0
220
0.0
230
1.0
 40
1.0
 41
5.520641294247086
 42
6.78392993231294
1001
AcDbBlockRepETag
1070
     1
1071
      199
1005
97C5
  0
ELLIPSE
  5
97C7
330
7441
100
AcDbEntity
  8
0
  6
Continuous
370
     9
100
AcDbEllipse
 10
-42.8056197805792
 20
7.356739677191445
 30
0.0
 11
-5.263922635550266
 21
5.263922635550267
 31
0.0
210
0.0
220
0.0
230
1.0
 40
0.9999999999999982
 41
0.8082523138623972
 42
2.071540951928239
1001
AcDbBlockRepETag
1070
     1
1071
      200
1005
97C7
  0
ELLIPSE
  5
97C8
330
7441
100
AcDbEntity
  8
0
  6
Continuous
370
     9
100
AcDbEllipse
 10
-46.74163358264883
 20
7.266769760891361
 30
0.0
 11
-2.480013582008825
 21
2.480013582008825
 31
0.0
210
0.0
220
0.0
230
1.0
 40
0.9999999999999984
 41
-1.070051701672418
 42
0.8082523138732602
1001
AcDbBlockRepETag
1070
     1
1071
      201
1005
97C8
  0
ELLIPSE
  5
97C9
330
7441
100
AcDbEntity
  8
0
  6
Continuous
370
     9
100
AcDbEllipse
 10
-43.91123938008447
 20
3.578128220966907
 30
0.0
 11
2.480013582008825
 21
2.480013582008824
 31
0.0
210
0.0
220
0.0
230
1.0
 40
1.0
 41
3.642337278712269
 42
5.520641294257948
1001
AcDbBlockRepETag
1070
     1
1071
      202
1005
97C9
  0
ELLIPSE
  5
97CA
330
7441
100
AcDbEntity
  8
0
  6
Continuous
370
     9
100
AcDbEllipse
 10
-49.17544182684435
 20
2.537435943556159
 30
0.0
 11
-5.704358206400055
 21
5.704358206400056
 31
0.0
210
0.0
220
0.0
230
1.0
 40
0.9999999999999996
 41
4.001410460751647
 42
5.161568112218578
1001
AcDbBlockRepETag
1070
     1
1071
      203
1005
97CA
  0
ELLIPSE
  5
97CB
330
7441
100
AcDbEntity
  8
0
  6
Continuous
370
     9
100
AcDbEllipse
 10
-42.34451424187631
 20
7.7789910324321
 30
0.0
 11
5.704358206400053
 21
5.704358206400052
 31
0.0
210
0.0
220
0.0
230
1.0
 40
0.9999999999999996
 41
2.430614133956751
 42
3.59077178542369
1001
AcDbBlockRepETag
1070
     1
1071
      204
1005
97CB
  0
ELLIPSE
  5
97CC
330
7441
100
AcDbEntity
  8
0
  6
Continuous
370
     9
100
AcDbEllipse
 10
-47.4773240679984
 20
7.396302412979487
 30
0.0
 11
2.064839880412891
 21
2.064839880412891
 31
0.0
210
0.0
220
0.0
230
1.0
 40
0.9999999999999996
 41
0.4491791319566909
 42
2.430614133833948
1001
AcDbBlockRepETag
1070
     1
1071
      205
1005
97CC
  0
ELLIPSE
  5
97CD
330
7441
100
AcDbEntity
  8
0
  6
Continuous
370
     9
100
AcDbEllipse
 10
-44.04263200072224
 20
2.920124563008772
 30
0.0
 11
-2.064839880412893
 21
2.064839880412893
 31
0.0
210
0.0
220
0.0
230
1.0
 40
0.9999999999999982
 41
2.019975458751609
 42
4.001410460628844
1001
AcDbBlockRepETag
1070
     1
1071
      206
1005
97CD
  0
LINE
  5
97CE
330
7441
100
AcDbEntity
  8
0
  6
Continuous
370
     9
100
AcDbLine
 10
-45.65456390085143
 20
8.626785560650768
 30
0.0
 11
-45.65456390085143
 21
1.443590399376909
 31
0.0
1001
AcDbBlockRepETag
1070
     1
1071
      207
1005
97CE
  0
LINE
  5
97CF
330
7441
100
AcDbEntity
  8
0
  6
Continuous
370
     9
100
AcDbLine
 10
-43.07310313973604
 20
3.127151765295818
 30
0.0
 11
-48.61090932240973
 21
7.376459903458082
 31
0.0
1001
AcDbBlockRepETag
1070
     1
1071
      208
1005
97CF
  0
ENDBLK
  5
750A
330
7441
100
AcDbEntity
  8
CAD_DEFAULT_LAYER
100
AcDbBlockEnd
  0
BLOCK
  5
9994
330
9993
100
AcDbEntity
  8
0
100
AcDbBlockBegin
  2
mp000096
 70
     0
 10
0.0
 20
0.0
 30
0.0
  3
mp000096
  1
V:\mpcaddb\mp000000\mp000096.dwg
  0
MTEXT
  5
ABD4
102
{ACAD_XDICTIONARY
360
AC21
102
}
330
9993
100
AcDbEntity
  8
defpoints
 62
   253
370
     0
100
AcDbMText
 10
0.0
 20
-15.07001755932378
 30
0.0
 40
20.0
 41
1024.436706887209
 46
0.0
 71
     5
 72
     5
  3
The information provided is for guide only and must be used along side professional architectural/structural design. Professional architectural/structural design takes preference with any conflicting areas of the building design.\PAll documents or da
  3
ta downloaded from www.mpb.co.nz or emailed from MASONS Plastabrick Limited is the intellectual property of MASONS Plastabrick Limited. MASONS Plastabrick Limited takes no responsibility for any of the documents or data being used for any other purpo
  1
se than for professional architectural/structural design.
  7
mp000096$0$2mm
 73
     1
 44
1.0
1001
ACAD_MLEADERVER
1070
     2
  0
LWPOLYLINE
  5
ABD6
330
9993
100
AcDbEntity
  8
defpoints
 62
   253
100
AcDbPolyline
 90
        5
 70
     0
 43
0.0
 10
531.1521450536488
 20
-172.9993298591076
 10
531.1521450536488
 20
205.6618318460798
 10
-530.9433261265999
 20
205.6618318460798
 10
-530.9433261265999
 20
-172.9993298591076
 10
531.1521450536488
 20
-172.9993298591076
  0
MTEXT
  5
ABD7
330
9993
100
AcDbEntity
  8
defpoints
 62
   253
370
     0
100
AcDbMText
 10
0.0
 20
159.8871316540671
 30
0.0
 40
30.0
 41
1026.407338423251
 46
0.0
 71
     5
 72
     5
  1
DISCLOSURE NOTE:
  7
mp000096$0$2mm
 73
     1
 44
1.0
1001
ACAD_MLEADERVER
1070
     2
  0
LWPOLYLINE
  5
ABD8
330
9993
100
AcDbEntity
  8
defpoints
 62
   253
100
AcDbPolyline
 90
        4
 70
     1
 43
0.0
 10
536.1521450536488
 20
-177.9993298591076
 10
536.1521450536488
 20
210.6618318460799
 10
-535.9433261265999
 20
210.6618318460798
 10
-535.9433261265999
 20
-177.9993298591077
  0
ENDBLK
  5
9995
330
9993
100
AcDbEntity
  8
0
100
AcDbBlockEnd
  0
BLOCK
  5
ABE0
330
ABDF
100
AcDbEntity
  8
0
100
AcDbBlockBegin
  2
mp000096$0$_OBLIQUE
 70
     0
 10
0.0
 20
0.0
 30
0.0
  3
mp000096$0$_OBLIQUE
  1

  0
LINE
  5
ABE1
330
ABDF
100
AcDbEntity
  8
0
  6
ByBlock
 62
     0
100
AcDbLine
 10
-0.5
 20
-0.5
 30
0.0
 11
0.5
 21
0.5
 31
0.0
  0
ENDBLK
  5
ABE2
330
ABDF
100
AcDbEntity
  8
0
100
AcDbBlockEnd
  0
BLOCK
  5
ABE4
330
ABE3
100
AcDbEntity
  8
0
100
AcDbBlockBegin
  2
mp000096$0$_DetailCallout
 70
     2
 10
0.0
 20
0.0
 30
0.0
  3
mp000096$0$_DetailCallout
  1

  0
CIRCLE
  5
ABE5
330
ABE3
100
AcDbEntity
  8
0
  6
ByBlock
 62
     0
370
    -2
100
AcDbCircle
 10
0.0
 20
0.0
 30
0.0
 40
8.0
  0
LINE
  5
ABE6
330
ABE3
100
AcDbEntity
  8
0
  6
ByBlock
 62
     0
370
    -2
100
AcDbLine
 10
8.0
 20
0.0
 30
0.0
 11
-8.0
 21
0.0
 31
0.0
  0
ATTDEF
  5
ABE7
330
ABE3
100
AcDbEntity
  8
0
 62
     0
100
AcDbText
 10
-15.0
 20
1.0
 30
0.0
 40
3.0
  1
VIEWNUMBER
  7
mp000096$0$x01
 72
     1
 11
0.0
 21
1.0
 31
0.0
100
AcDbAttributeDefinition
  3
Enter view number
  2
VIEWNUMBER
 70
     0
280
     0
  0
ATTDEF
  5
ABE9
330
ABE3
100
AcDbEntity
  8
0
 62
     0
100
AcDbText
 10
-16.0
 20
-6.0
 30
0.0
 40
3.0
  1
SHEETNUMBER
  7
mp000096$0$x01
 72
     1
 11
0.0
 21
-6.0
 31
0.0
100
AcDbAttributeDefinition
  3
Enter sheet number
  2
SHEETNUMBER
 70
     0
280
     0
  0
ENDBLK
  5
ABEA
330
ABE3
100
AcDbEntity
  8
0
100
AcDbBlockEnd
  0
ENDSEC
  0
SECTION
  2
ENTITIES
  0
LWPOLYLINE
  5
7B40
330
1F
100
AcDbEntity
  8
MP Timber Perimeter (00134144)
100
AcDbPolyline
 90
        9
 70
     0
 43
0.0
 10
93.39966348106145
 20
542.6810760902364
 10
87.56720566531953
 20
546.0484471801922
 42
-0.5073453582770937
 10
87.56731592321193
 20
547.9958217852813
 10
119.3314911552568
 20
566.3372749144982
 42
-0.2360679774997958
 10
122.3418251951586
 20
566.3372749144982
 10
197.4415663089405
 20
522.9784191663886
 42
-0.5565833569631585
 10
197.4415663089405
 20
521.4343623982909
 10
165.0221896711455
 20
502.7194737217759
 42
-0.2360679774997942
 10
162.6151891350996
 20
502.7194737217759
  0
INSERT
  5
7B9C
330
1F
100
AcDbEntity
  8
MP Fixings (00134143)
100
AcDbBlockReference
  2
block227
 10
189.4890871948703
 20
161.5276928675358
 30
0.0
  0
LINE
  5
7CA2
330
1F
100
AcDbEntity
  8
MP Timber Perimeter (00134144)
100
AcDbLine
 10
-5.106855506499641
 20
492.9479122833935
 30
0.0
 11
64.1086701475383
 21
452.9863099149331
 31
0.0
  0
LINE
  5
7CA3
330
1F
100
AcDbEntity
  8
MP Timber Perimeter (00134144)
100
AcDbLine
 10
45.37699867451055
 20
522.2390530134816
 30
0.0
 11
114.5925243285487
 21
482.2774506450211
 31
0.0
  0
LINE
  5
7CA5
330
1F
100
AcDbEntity
  8
MP Timber Perimeter (00134144)
100
AcDbLine
 10
239.4744659784795
 20
417.5061500084401
 30
0.0
 11
308.6899916325176
 21
457.4677523769007
 31
0.0
  0
LINE
  5
7DF2
330
1F
100
AcDbEntity
  8
MP Timber Perimeter (00134144)
100
AcDbLine
 10
266.9114606726254
 20
393.4946294499793
 30
0.0
 11
266.9114606726254
 21
385.9916387109984
 31
0.0
  0
LINE
  5
7DF3
330
1F
100
AcDbEntity
  8
MP Timber Perimeter (00134144)
100
AcDbLine
 10
233.148068698036
 20
413.1667917786971
 30
0.0
 11
233.148068698036
 21
405.32974582318
 31
0.0
  0
LINE
  5
7F47
330
1F
100
AcDbEntity
  8
MP Panel Perimeter (00134148)
100
AcDbLine
 10
121.0610885947253
 20
218.64453383177
 30
0.0
 11
121.0610885947253
 21
33.00023648857353
 31
0.0
  0
LINE
  5
7F4A
330
1F
100
AcDbEntity
  8
MP Timber Perimeter (00134144)
100
AcDbLine
 10
343.9460669560229
 20
437.9740701514801
 30
0.0
 11
343.9460669560229
 21
164.505257779808
 31
0.0
  0
LINE
  5
7F4B
330
1F
100
AcDbEntity
  8
MP Timber Perimeter (00134144)
100
AcDbLine
 10
-40.36293079512051
 20
473.4612469722453
 30
0.0
 11
-40.36293079512051
 21
200.8335797045299
 31
0.0
  0
LINE
  5
7F4C
330
1F
100
AcDbEntity
  8
MP Timber Perimeter (00134144)
100
AcDbLine
 10
232.7755643013857
 20
500.6453619037599
 30
0.0
 11
160.8974899716715
 21
459.1465363406677
 31
0.0
  0
LWPOLYLINE
  5
7F4D
330
1F
100
AcDbEntity
  8
MP Timber Perimeter (00134144)
100
AcDbPolyline
 90
        9
 70
     0
 43
0.0
 10
64.10867014753853
 20
452.9863099149331
 10
69.94112796328067
 20
449.6189388249772
 42
-0.507345358277097
 10
69.94101770538804
 20
447.671564219888
 10
38.17684247334319
 20
429.3301110906713
 42
-0.2360679774997909
 10
35.16650843344133
 20
429.3301110906713
 10
-39.93323268034032
 20
472.6889668387808
 42
-0.5565833569631388
 10
-39.93323268034055
 20
474.2330236068787
 10
-7.513856042545512
 20
492.9479122833935
 42
-0.2360679774997881
 10
-5.106855506499641
 20
492.9479122833935
  0
LINE
  5
7F4E
330
1F
100
AcDbEntity
  8
MP Timber Perimeter (00134144)
100
AcDbLine
 10
10.12092335100497
 20
502.7521359529178
 30
0.0
 11
10.12092335100497
 21
484.2827315017038
 31
0.0
  0
LINE
  5
7F4F
330
1F
100
AcDbEntity
  8
MP Timber Inner (00134145)
100
AcDbLine
 10
120.8366581752077
 20
566.6925966486975
 30
0.0
 11
163.8186894031225
 21
502.4353658475833
 31
0.0
  0
LWPOLYLINE
  5
7F51
330
1F
100
AcDbEntity
  8
MP Timber Perimeter (00134144)
100
AcDbPolyline
 90
        9
 70
     0
 43
0.0
 10
308.6899916325176
 20
457.4677523769007
 42
-0.2360679774997913
 10
311.096992168563
 20
457.4677523769007
 10
343.5163688063583
 20
438.7528637003858
 42
-0.5565833569631557
 10
343.5163688063583
 20
437.2088069322883
 10
268.4166276925764
 20
393.8499511841787
 42
-0.2360679774997937
 10
265.4062936526746
 20
393.8499511841785
 10
233.6421184206297
 20
412.1914043133953
 42
-0.5073453582770995
 10
233.6420081627373
 20
414.1387789184845
 10
239.4744659784792
 20
417.5061500084404
  0
LINE
  5
7F53
330
1F
100
AcDbEntity
  8
MP Timber Perimeter (00134144)
100
AcDbLine
 10
162.6151891350996
 20
502.7194737217759
 30
0.0
 11
93.39966348106122
 21
542.6810760902364
 31
0.0
  0
LWPOLYLINE
  5
7F54
330
1F
100
AcDbEntity
  8
MP Timber Perimeter (00134144)
100
AcDbPolyline
 90
        9
 70
     0
 43
0.0
 10
164.0673991117376
 20
460.9766842359915
 10
157.7275808316053
 20
457.3163884453437
 42
-0.2360679774997972
 10
155.3195206994953
 20
457.3145530511407
 10
122.9012036577644
 20
476.0312771218586
 42
-0.5565833569631585
 10
122.9012036577662
 20
477.5753338899536
 10
198.0009447715463
 20
520.934189638066
 42
-0.2360679774997934
 10
201.0102403924332
 20
520.9323911611547
 10
232.7754540434932
 20
502.5927365088491
 42
-0.5073453582770979
 10
232.7755643013857
 20
500.6453619037601
  0
LWPOLYLINE
  5
7F55
330
1F
100
AcDbEntity
  8
MP Timber Perimeter (00134144)
100
AcDbPolyline
 90
        9
 70
     0
 43
0.0
 10
114.5925243285487
 20
482.2774506450211
 10
120.4249821442909
 20
478.9100795550655
 42
-0.507345358277097
 10
120.4248718863982
 20
476.9627049499763
 10
88.66069665435338
 20
458.6212518207593
 42
-0.2360679774997909
 10
85.65036261445152
 20
458.6212518207593
 10
10.55062150066987
 20
501.9801075688689
 42
-0.5565833569631487
 10
10.55062150066965
 20
503.5241643369667
 10
42.96999813846468
 20
522.2390530134816
 42
-0.2360679774997877
 10
45.37699867451055
 20
522.2390530134816
  0
LINE
  5
7F56
330
1F
100
AcDbEntity
  8
MP Timber Inner (00134145)
100
AcDbLine
 10
87.07326506090637
 20
547.0221624521517
 30
0.0
 11
197.4415663089389
 21
522.9784191663859
 31
0.0
  0
LINE
  5
7F57
330
1F
100
AcDbEntity
  8
MP Timber Inner (00134145)
100
AcDbLine
 10
201.0102403924332
 20
520.9323911611547
 30
0.0
 11
155.3205802955597
 21
457.3163884453437
 31
0.0
  0
LINE
  5
7F58
330
1F
100
AcDbEntity
  8
MP Timber Perimeter (00134144)
100
AcDbLine
 10
87.07326505897231
 20
547.0074242746248
 30
0.0
 11
87.07326505897231
 21
498.1657023922102
 31
0.0
  0
LINE
  5
7F59
330
1F
100
AcDbEntity
  8
MP Timber Inner (00134145)
100
AcDbLine
 10
122.4715055081013
 20
476.8033055059055
 30
0.0
 11
232.7755643013854
 21
500.6453619037599
 31
0.0
  0
LINE
  5
7F5A
330
1F
100
AcDbEntity
  8
MP Timber Inner (00134145)
100
AcDbLine
 10
343.9460669560229
 20
437.9740701514801
 30
0.0
 11
233.2089525716606
 21
413.5435752009214
 31
0.0
  0
LINE
  5
7F5B
330
1F
100
AcDbEntity
  8
MP Timber Inner (00134145)
100
AcDbLine
 10
308.6899916325176
 20
457.4677523769007
 30
0.0
 11
266.9114606726255
 21
393.4946294499793
 31
0.0
  0
LINE
  5
7F5C
330
1F
100
AcDbEntity
  8
MP Timber Perimeter (00134144)
100
AcDbLine
 10
233.2089525716608
 20
501.68466710865
 30
0.0
 11
233.2089525716606
 21
413.1667499018892
 31
0.0
  0
LINE
  5
7F60
330
1F
100
AcDbEntity
  8
MP Timber Inner (00134145)
100
AcDbLine
 10
44.17349840648762
 20
522.5231608876742
 30
0.0
 11
87.15552963440245
 21
458.2659300865601
 31
0.0
  0
LINE
  5
7F61
330
1F
100
AcDbEntity
  8
MP Timber Perimeter (00134144)
100
AcDbLine
 10
120.9189227506378
 20
469.6094025316305
 30
0.0
 11
120.9189227506378
 21
477.9364325986015
 31
0.0
  0
LINE
  5
7F62
330
1F
100
AcDbEntity
  8
MP Timber Inner (00134145)
100
AcDbLine
 10
120.9189227506378
 20
477.9364325986015
 30
0.0
 11
10.12092335100497
 21
502.7521359529178
 31
0.0
  0
LINE
  5
7F63
330
1F
100
AcDbEntity
  8
MP Timber Inner (00134145)
100
AcDbLine
 10
-6.310355774522577
 20
493.2320201575861
 30
0.0
 11
36.59242031745339
 21
428.9757226437747
 31
0.0
  0
LINE
  5
7F64
330
1F
100
AcDbEntity
  8
MP Timber Inner (00134145)
100
AcDbLine
 10
-40.36293079512051
 20
473.4612469722453
 30
0.0
 11
69.94112796328067
 21
449.6189388249773
 31
0.0
  0
LINE
  5
7F65
330
1F
100
AcDbEntity
  8
MP Timber Perimeter (00134144)
100
AcDbLine
 10
156.5217153713469
 20
457.0312370236822
 30
0.0
 11
156.5217153713469
 21
449.2177719244265
 31
0.0
  0
LINE
  5
7F93
330
1F
100
AcDbEntity
  8
MP Timber Perimeter (00134144)
100
AcDbLine
 10
122.4715055081013
 20
476.8033055059055
 30
0.0
 11
122.4715055081013
 21
468.7201550387556
 31
0.0
  0
LINE
  5
7F94
330
1F
100
AcDbEntity
  8
MP Timber Perimeter (00134144)
100
AcDbLine
 10
36.59242031745339
 20
428.9757226437747
 30
0.0
 11
36.59242031745339
 21
420.4706241070993
 31
0.0
  0
LINE
  5
7F95
330
1F
100
AcDbEntity
  8
MP Timber Perimeter (00134144)
100
AcDbLine
 10
86.87617031165178
 20
458.2775439470096
 30
0.0
 11
86.87617031165178
 21
449.7719941156232
 31
0.0
  0
LINE
  5
7F96
330
1F
100
AcDbEntity
  8
MP Timber Perimeter (00134144)
100
AcDbLine
 10
70.43506856962768
 20
448.6452918685133
 30
0.0
 11
70.43506856962768
 21
440.1914277189957
 31
0.0
  0
LINE
  5
7F97
330
1F
100
AcDbEntity
  8
MP Timber Perimeter (00134144)
100
AcDbLine
 10
163.8186894031225
 20
502.4353658475834
 30
0.0
 11
163.8186894031225
 21
501.1990552995979
 31
0.0
  0
LINE
  5
7F98
330
1F
100
AcDbEntity
  8
MP Timber Perimeter (00134144)
100
AcDbLine
 10
197.8712382498081
 20
522.1994904191567
 30
0.0
 11
197.8712382498081
 21
520.8593035428248
 31
0.0
  0
INSERT
  5
99A7
330
1F
100
AcDbEntity
  8
0
100
AcDbBlockReference
  2
mp000096
 10
159.3860319803079
 20
-240.3282206866491
 30
0.0
 41
0.25
 42
0.25
 43
0.25
1001
AEC_XDATA_BOUND_SPACE
1070
   100
1070
     1
  0
LINE
  5
9D94
330
1F
100
AcDbEntity
  8
MP Barricade Building Wrap Perimeter Isometric (00134183)
100
AcDbLine
 10
-18.83191125910753
 20
212.9227855426936
 30
0.0
 11
-18.86253865280087
 21
324.0366251369009
 31
0.0
  0
LINE
  5
9D96
330
1F
100
AcDbEntity
  8
MP Barricade Building Wrap Perimeter Isometric (00134183)
100
AcDbLine
 10
-18.86567302965305
 20
334.6638137575596
 30
0.0
 11
-23.06952300265857
 21
332.2367198440126
 31
0.0
  0
LINE
  5
9D97
330
1F
100
AcDbEntity
  8
MP Barricade Building Wrap Perimeter Isometric (00134183)
100
AcDbLine
 10
-23.06952300265857
 20
332.2367198440126
 30
0.0
 11
-14.16145359900656
 21
327.0936435758551
 31
0.0
  0
LINE
  5
9D98
330
1F
100
AcDbEntity
  8
MP Barricade Building Wrap Perimeter Isometric (00134183)
100
AcDbLine
 10
-14.16145359900656
 20
327.0936435758551
 30
0.0
 11
-18.86253865280087
 21
324.0366251369009
 31
0.0
  0
LINE
  5
9D99
330
1F
100
AcDbEntity
  8
MP Barricade Building Wrap Perimeter Isometric (00134183)
100
AcDbLine
 10
-18.86567302965305
 20
334.6638137575596
 30
0.0
 11
-18.88359078966846
 21
388.1436173060092
 31
0.0
  0
LWPOLYLINE
  5
A138
330
1F
100
AcDbEntity
  8
MP Timber Perimeter (00134144)
100
AcDbPolyline
 90
        2
 70
     0
 43
0.0
 10
254.5345336493137
 20
356.9470106448012
 10
254.5847487447197
 20
216.0980389042469
  0
LINE
  5
A139
330
1F
100
AcDbEntity
  8
MP Timber Inner (00134145)
100
AcDbLine
 10
40.93282138447716
 20
415.2219328551202
 30
0.0
 11
89.63214025818501
 21
424.1231823088181
 31
0.0
  0
LWPOLYLINE
  5
A13A
330
1F
100
AcDbEntity
  8
MP Timber Perimeter (00134144)
100
AcDbPolyline
 90
        4
 70
     1
 43
0.0
 10
240.3488916169726
 20
385.7678420435377
 10
222.4152173150958
 20
375.4077942107156
 10
190.3332112133887
 20
393.981196270957
 10
208.2947112747606
 20
404.3655235636474
  0
LINE
  5
A13B
330
1F
100
AcDbEntity
  8
MP Timber Inner (00134145)
100
AcDbLine
 10
208.2947112747606
 20
404.3655235636474
 30
0.0
 11
222.4152173150958
 21
375.4077942107156
 31
0.0
  0
LINE
  5
A13C
330
1F
100
AcDbEntity
  8
MP Timber Inner (00134145)
100
AcDbLine
 10
240.3488916169726
 20
385.7678420435377
 30
0.0
 11
190.3332112133887
 21
393.981196270957
 31
0.0
  0
LWPOLYLINE
  5
A13D
330
1F
100
AcDbEntity
  8
MP Timber Perimeter (00134144)
100
AcDbPolyline
 90
        4
 70
     1
 43
0.0
 10
272.2882888198985
 20
367.2367571496877
 10
254.5345336493137
 20
356.9470106448012
 10
222.4152173150958
 20
375.4077942107156
 10
240.3488916169726
 20
385.7678420435377
  0
LINE
  5
A13E
330
1F
100
AcDbEntity
  8
MP Timber Inner (00134145)
100
AcDbLine
 10
240.3488916169726
 20
385.7678420435377
 30
0.0
 11
254.5345336493137
 21
356.9470106448012
 31
0.0
  0
LINE
  5
A13F
330
1F
100
AcDbEntity
  8
MP Timber Inner (00134145)
100
AcDbLine
 10
272.2882888198985
 20
367.2367571496877
 30
0.0
 11
222.4152173150958
 21
375.4077942107156
 31
0.0
  0
LINE
  5
A436
330
1F
100
AcDbEntity
  8
MP Timber Perimeter (00134144)
100
AcDbLine
 10
222.4152173150958
 20
375.4077942107156
 30
0.0
 11
222.4152173150958
 21
234.6711265348432
 31
0.0
  0
HATCH
  5
A735
330
1F
100
AcDbEntity
  8
MP Barricade Building Wrap Hatch (00134140
100
AcDbHatch
 10
0.0
 20
0.0
 30
0.0
210
0.0
220
0.0
230
1.0
  2
ANSI31
 70
     0
 71
     0
 91
        1
 92
        7
 72
     0
 73
     1
 93
       26
 10
89.63214025818501
 20
275.1399408227297
 10
121.0781832116368
 20
293.178021735332
 10
185.6175298603286
 20
255.9162125743873
 10
190.3332112133887
 20
253.1936813938056
 10
190.3332112133887
 20
307.6637286075929
 10
190.3332112133887
 20
393.981196270957
 10
208.2947112747606
 20
404.3655235636474
 10
272.2882888198986
 20
367.2367571496877
 10
272.2882888198985
 20
205.8768185004325
 10
310.4437515860338
 20
183.8478285771526
 10
310.6097357663544
 20
287.9685774415545
 10
315.1974408904828
 20
291.0255624402978
 10
306.2893714868308
 20
296.1686387084554
 10
310.6167759228708
 20
298.6670668244951
 10
310.4713491132454
 20
361.0425521650326
 10
120.9189227506378
 20
469.6094025316305
 10
-18.88359078966846
 20
388.1436173060092
 10
-18.86567302965305
 20
334.6638137575596
 10
-23.06952300265855
 20
332.2367198440125
 10
-14.16145359900657
 20
327.093643575855
 10
-18.86253865280087
 20
324.0366251369009
 10
-18.83191125910753
 20
212.9227855426936
 10
40.93282138447716
 20
247.2050348145911
 10
40.93282138447716
 20
415.2219328551201
 10
72.99118897365653
 20
433.7308400125113
 10
89.63214025818501
 20
424.1231823088183
 97
        0
 75
     0
 76
     1
 52
15.0
 41
50.0
 77
     0
 78
     1
 53
60.0
 43
0.0
 44
-500.0
 45
-5.41265877365274
 46
3.125
 79
     0
 47
1.22321579145795
 98
        1
 10
122.1646066224157
 20
344.30572773533
1001
ACAD
1010
0.0
1020
0.0
1030
0.0
  0
HATCH
  5
A914
330
1F
100
AcDbEntity
  8
MP Panel Hatch (00134149)
100
AcDbHatch
 10
0.0
 20
0.0
 30
0.0
210
0.0
220
0.0
230
1.0
  2
AR-CONC
 70
     0
 71
     0
 91
        4
 92
        7
 72
     0
 73
     1
 93
       12
 10
365.0034675171139
 20
152.3476931794166
 10
341.1653681806997
 20
138.5847601105706
 10
346.1236682779079
 20
126.21711072313
 10
319.2720893821347
 20
141.2372149083834
 10
324.2573314960186
 20
128.8229005792017
 10
300.4470262515042
 20
115.0760144367954
 10
300.4470262515044
 20
-43.19496146672202
 10
327.3948257520792
 20
-27.63664217099836
 10
332.7252468843092
 20
-9.282703986148646
 10
332.7252468843092
 20
-39.83554020467511
 10
338.0556680165391
 20
-21.481602019825
 10
365.0034675171141
 20
-5.923282724101284
 97
        0
 92
        7
 72
     0
 73
     1
 93
        8
 10
185.6175298603286
 20
255.9162125743874
 10
121.0610885947255
 20
218.64453383177
 10
300.4470262515042
 20
115.0760144367954
 10
324.2573314960189
 20
128.8229005792018
 10
319.2720893821345
 20
141.2372149083834
 10
346.1236682779079
 20
126.2171107231301
 10
341.1653681806995
 20
138.5847601105706
 10
365.0034675171139
 20
152.3476931794165
 97
        0
 92
        7
 72
     0
 73
     1
 93
        8
 10
185.6175298603286
 20
255.9162125743873
 10
121.0781832116367
 20
293.1780217353321
 10
-56.8807387057393
 20
191.0972150208976
 10
-36.19908032750277
 20
175.7827405373776
 10
-41.72722760637554
 20
162.3720123012908
 10
-14.98053540968828
 20
177.5749520238262
 10
-20.50868268856118
 20
164.1642237877389
 10
0.1729756896752406
 20
148.8497493042192
 97
        0
 92
        7
 72
     0
 73
     1
 93
       12
 10
0.1729756896751269
 20
148.8497493042191
 10
-20.50868268856129
 20
164.1642237877391
 10
-14.98053540968828
 20
177.5749520238262
 10
-41.72722760637554
 20
162.3720123012906
 10
-36.19908032750266
 20
175.7827405373778
 10
-56.8807387057393
 20
191.0972150208974
 10
-56.88073870573941
 20
43.67891854102447
 10
-38.57834344725814
 20
29.63499671453468
 10
-30.92843208026238
 20
36.29430903523178
 10
-30.92843208026238
 20
10.24921204962049
 10
-23.2785207132664
 20
17.8950298194498
 10
0.1729756896752406
 20
-0.099936279017129
 97
        0
 75
     0
 76
     1
 52
0.0
 41
3.0
 77
     0
 78
    13
 53
50.0
 43
-56.88073870573941
 44
-43.19496146672202
 45
21.5178054780226
 46
-1.882564049477853
 79
     2
 49
2.25
 49
-24.75
 53
355.0
 43
-56.88073870573941
 44
-43.19496146672202
 45
-4.162540008389999
 46
22.56576401100035
 79
     2
 49
1.799999999999999
 49
-19.8
 53
100.4514
 43
-55.08758830573947
 44
-43.35184166672201
 45
17.35528145142065
 46
20.68318626182861
 79
     2
 49
1.912205699999998
 49
-21.03426335999997
 53
46.1842
 43
-56.88073870573941
 44
-37.19496146672202
 45
32.01723145876933
 46
-4.965570429870542
 79
     2
 49
3.375
 49
-37.125
 53
96.6356
 43
-54.21263635573939
 44
-37.608760676722
 45
28.0398811664611
 46
29.22353612701325
 79
     2
 49
2.86830864
 49
-31.55139
 53
351.1842000000001
 43
-56.88073870573941
 44
-37.19496146672202
 45
28.03985835400882
 46
29.22355802775974
 79
     2
 49
2.7
 49
-29.7
 53
21.0
 43
-53.88073870573942
 44
-38.69496146672202
 45
17.90721156355385
 46
-12.07856671996016
 79
     2
 49
2.25
 49
-24.75
 53
326.0
 43
-53.88073870573942
 44
-38.69496146672202
 45
7.299459957647451
 46
21.75450135140559
 79
     2
 49
1.799999999999999
 49
-19.8
 53
71.45140000000001
 43
-52.38847171573945
 44
-39.701509646722
 45
25.2066788574447
 46
9.675914901298572
 79
     2
 49
1.9122057
 49
-21.03426336
 53
37.5
 43
-56.88073870573941
 44
-43.19496146672202
 45
0.3647956595187201
 46
9.986815614939345
 79
     6
 49
0.0
 49
-19.56
 49
0.0
 49
-20.1
 49
0.0
 49
-19.875
 53
7.499999999999999
 43
-56.88073870573941
 44
-43.19496146672202
 45
7.892086123264458
 46
11.8323513564708
 79
     6
 49
0.0
 49
-11.46
 49
0.0
 49
-19.11
 49
0.0
 49
-7.574999999999999
 53
327.5
 43
-63.57073870573947
 44
-43.19496146672202
 45
16.01467308517227
 46
-0.676646152031394
 79
     6
 49
0.0
 49
-7.5
 49
0.0
 49
-23.4
 49
0.0
 49
-31.05
 53
317.5
 43
-66.57073870573947
 44
-43.19496146672202
 45
17.49558508027159
 46
3.003149469969529
 79
     6
 49
0.0
 49
-9.75
 49
0.0
 49
-15.54
 49
0.0
 49
-22.05
 47
1.301008112708159
 98
        4
 10
347.3672962380383
 20
93.34178576733796
 10
243.3183248572982
 20
180.5093308587201
 10
95.04853586702983
 20
248.1617507096479
 10
-33.71206860299253
 20
88.1377530682243
1001
ACAD
1010
0.0
1020
0.0
1030
0.0
  0
LWPOLYLINE
  5
A915
330
1F
100
AcDbEntity
  8
MP Panel Perimeter (00134148)
100
AcDbPolyline
 90
       13
 70
     0
 43
0.0
 10
365.0034675171141
 20
-5.923282724101284
 10
338.0556680165391
 20
-21.48160201982495
 10
332.7252468843092
 20
-39.83554020467466
 10
332.7252468843092
 20
-9.28270398614876
 10
327.3948257520792
 20
-27.63664217099847
 10
300.4470262515042
 20
-43.19496146672213
 10
300.4470262515042
 20
115.0760144367954
 10
324.2573314960189
 20
128.8229005792018
 10
319.2720893821343
 20
141.2372149083834
 10
346.1236682779079
 20
126.2171107231302
 10
341.1653681806995
 20
138.5847601105706
 10
365.0034675171141
 20
152.3476931794166
 10
365.0034675171141
 20
-5.923282724101284
  0
LWPOLYLINE
  5
A916
330
1F
100
AcDbEntity
  8
MP Panel Perimeter (00134148)
100
AcDbPolyline
 90
        4
 70
     0
 43
0.0
 10
365.0034675171141
 20
152.3476931794165
 10
185.6175298603286
 20
255.9162125743873
 10
121.0610885947253
 20
218.64453383177
 10
300.4470262515042
 20
115.0760144367954
  0
LWPOLYLINE
  5
A917
330
1F
100
AcDbEntity
  8
MP Panel Perimeter (00134148)
100
AcDbPolyline
 90
        8
 70
     1
 43
0.0
 10
185.6175298603286
 20
255.9162125743873
 10
0.1729756896752406
 20
148.8497493042192
 10
-20.50868268856129
 20
164.164223787739
 10
-14.98053540968828
 20
177.5749520238261
 10
-41.72722760637578
 20
162.3720123012907
 10
-36.19908032750277
 20
175.7827405373778
 10
-56.8807387057393
 20
191.0972150208976
 10
121.0781832116367
 20
293.178021735332
  0
LWPOLYLINE
  5
A918
330
1F
100
AcDbEntity
  8
MP Panel Perimeter (00134148)
100
AcDbPolyline
 90
        8
 70
     0
 43
0.0
 10
0.1729756896752406
 20
148.8497493042191
 10
0.1729756896752406
 20
-0.099936279017129
 10
-23.2785207132664
 20
17.89502981944986
 10
-30.92843208026238
 20
10.24921204962055
 10
-30.92843208026238
 20
36.29430903523172
 10
-38.57834344725802
 20
29.63499671453474
 10
-56.8807387057393
 20
43.67891854102447
 10
-56.8807387057393
 20
191.0972150208974
  0
LINE
  5
A9AD
330
1F
100
AcDbEntity
  8
MP Barricade Building Wrap Perimeter Isometric (00134183)
100
AcDbLine
 10
-18.88359078966846
 20
388.1436173060092
 30
0.0
 11
120.9189227506378
 21
469.6094025316305
 31
0.0
  0
LINE
  5
A9AF
330
1F
100
AcDbEntity
  8
MP Barricade Building Wrap Perimeter Isometric (00134183)
100
AcDbLine
 10
120.9189227506378
 20
469.6094025316305
 30
0.0
 11
310.4713491132454
 21
361.0425521650327
 31
0.0
  0
LINE
  5
A9B0
330
1F
100
AcDbEntity
  8
MP Barricade Building Wrap Perimeter Isometric (00134183)
100
AcDbLine
 10
310.4713491132454
 20
361.0425521650327
 30
0.0
 11
310.6167759228708
 21
298.6670668244951
 31
0.0
  0
LINE
  5
A9B1
330
1F
100
AcDbEntity
  8
MP Barricade Building Wrap Perimeter Isometric (00134183)
100
AcDbLine
 10
310.6167759228708
 20
298.6670668244951
 30
0.0
 11
306.2893714868307
 21
296.1686387084554
 31
0.0
  0
LINE
  5
A9B2
330
1F
100
AcDbEntity
  8
MP Barricade Building Wrap Perimeter Isometric (00134183)
100
AcDbLine
 10
306.2893714868307
 20
296.1686387084554
 30
0.0
 11
315.1974408904828
 21
291.0255624402978
 31
0.0
  0
LINE
  5
A9B3
330
1F
100
AcDbEntity
  8
MP Barricade Building Wrap Perimeter Isometric (00134183)
100
AcDbLine
 10
315.1974408904828
 20
291.0255624402978
 30
0.0
 11
310.6097357663543
 21
287.9685774415545
 31
0.0
  0
LINE
  5
A9B4
330
1F
100
AcDbEntity
  8
MP Barricade Building Wrap Perimeter Isometric (00134183)
100
AcDbLine
 10
310.6097357663543
 20
287.9685774415545
 30
0.0
 11
310.4437515860338
 21
183.8478285771526
 31
0.0
  0
LINE
  5
A9B6
330
1F
100
AcDbEntity
  8
MP Timber Perimeter (00134144)
100
AcDbLine
 10
272.2882888198985
 20
205.8768185004325
 30
0.0
 11
272.2882888198985
 21
367.2367571496877
 31
0.0
  0
LINE
  5
A9B9
330
1F
100
AcDbEntity
  8
MP Timber Perimeter (00134144)
100
AcDbLine
 10
190.3332112133887
 20
393.981196270957
 30
0.0
 11
190.3332112133887
 21
253.1936126757858
 31
0.0
  0
LINE
  5
A9C0
330
1F
100
AcDbEntity
  8
MP Timber Perimeter (00134144)
100
AcDbLine
 10
89.63214025818501
 20
275.1399408227297
 30
0.0
 11
89.63214025818501
 21
424.1231823088182
 31
0.0
  0
LINE
  5
A9C1
330
1F
100
AcDbEntity
  8
MP Barricade Building Wrap Perimeter Isometric (00134183)
100
AcDbLine
 10
89.63214025818501
 20
424.1231823088182
 30
0.0
 11
72.99118897365656
 21
433.7308400125114
 31
0.0
  0
LINE
  5
A9C2
330
1F
100
AcDbEntity
  8
MP Barricade Building Wrap Perimeter Isometric (00134183)
100
AcDbLine
 10
72.99118897365656
 20
433.7308400125114
 30
0.0
 11
40.93282138447716
 21
415.2219328551201
 31
0.0
  0
LINE
  5
A9C3
330
1F
100
AcDbEntity
  8
MP Timber Perimeter (00134144)
100
AcDbLine
 10
40.93282138447716
 20
415.2219328551201
 30
0.0
 11
40.93282138447716
 21
247.2050348145911
 31
0.0
  0
LINE
  5
A9C5
330
1F
100
AcDbEntity
  8
MP Timber Perimeter (00134144)
100
AcDbLine
 10
72.99118897365656
 20
433.7308400125114
 30
0.0
 11
89.63214025818501
 21
424.1231823088181
 31
0.0
  0
LINE
  5
A9C6
330
1F
100
AcDbEntity
  8
MP Timber Perimeter (00134144)
100
AcDbLine
 10
89.63214025818501
 20
424.1231823088181
 30
0.0
 11
59.24021118659971
 21
405.4689387701303
 31
0.0
  0
LINE
  5
A9C7
330
1F
100
AcDbEntity
  8
MP Timber Perimeter (00134144)
100
AcDbLine
 10
59.24021118659971
 20
405.4689387701303
 30
0.0
 11
40.93282138447716
 21
415.2219328551202
 31
0.0
  0
LINE
  5
A9C8
330
1F
100
AcDbEntity
  8
MP Timber Perimeter (00134144)
100
AcDbLine
 10
40.93282138447716
 20
415.2219328551202
 30
0.0
 11
72.99118897365656
 21
433.7308400125114
 31
0.0
  0
LINE
  5
A9C9
330
1F
100
AcDbEntity
  8
MP Timber Inner (00134145)
100
AcDbLine
 10
72.99118897365656
 20
433.7308400125114
 30
0.0
 11
59.24021118659971
 21
405.4689387701302
 31
0.0
  0
LINE
  5
A9CA
330
1F
100
AcDbEntity
  8
MP Timber Perimeter (00134144)
100
AcDbLine
 10
59.24021118659971
 20
405.4689387701302
 30
0.0
 11
59.24021118659971
 21
257.7325768673308
 31
0.0
  0
LINE
  5
A9D1
330
1F
100
AcDbEntity
  8
MP Barricade Building Wrap Perimeter Isometric (00134183)
100
AcDbLine
 10
120.9189227506378
 20
469.6094025316305
 30
0.0
 11
120.9189227506378
 21
293.0866667408124
 31
0.0
  0
TEXT
  5
AB94
330
1F
100
AcDbEntity
  8
MP Annotation (00134142)
100
AcDbText
 10
-245.186408521617
 20
-67.63992605729329
 30
0.0
 40
22.0
  1
INTERNAL CORNER
100
AcDbText
1001
ACAD_MLEADERVER
1070
     2
  0
TEXT
  5
AB95
330
1F
100
AcDbEntity
  8
MP Annotation (00134142)
100
AcDbText
 10
-244.2409787808257
 20
-104.3966336516543
 30
0.0
 40
22.0
  1
3D View
100
AcDbText
1001
ACAD_MLEADERVER
1070
     2
  0
MTEXT
  5
AB96
330
1F
100
AcDbEntity
  8
MP Annotation (00134142)
100
AcDbMText
 10
490.2582586864721
 20
55.86343009159756
 30
0.0
 40
12.0
 41
151.211042388667
 46
0.0
 71
     1
 72
     5
  1
50mm AAC ENVIRO Panel
 73
     1
 44
1.0
1001
ACAD_MLEADERVER
1070
     2
  0
LINE
  5
AB97
330
1F
100
AcDbEntity
  8
MP Annotation (00134142)
100
AcDbLine
 10
261.532589055269
 20
49.7611108555812
 30
0.0
 11
490.1682586864721
 21
49.7611108555812
 31
0.0
1001
ACAD_MLEADERVER
1070
     2
  0
LWPOLYLINE
  5
AB99
330
1F
100
AcDbEntity
  8
MP Annotation (00134142)
100
AcDbPolyline
 90
        2
 70
     0
 43
0.0
 10
233.8850355924448
 20
76.76015542474829
 10
261.532589055269
 20
49.7611108555812
1001
ACAD_MLEADERVER
1070
     2
  0
SOLID
  5
AB9A
330
1F
100
AcDbEntity
  8
MP Annotation (00134142)
100
AcDbTrace
 10
232.0219259397341
 20
74.85229444105816
 30
0.0
 11
222.4378696903041
 21
87.93881334101291
 31
0.0
 12
235.7481452451556
 22
78.66801640843842
 32
0.0
 13
235.7481452451556
 23
78.66801640843842
 33
0.0
1001
ACAD_MLEADERVER
1070
     2
  0
MTEXT
  5
AB9B
330
1F
100
AcDbEntity
  8
MP Annotation (00134142)
100
AcDbMText
 10
-123.3935179617015
 20
99.8427026697197
 30
0.0
 40
12.0
 41
230.7377449025635
 46
0.0
 71
     3
 72
     5
  1
14gx100 Bugle Head Type 17 Screws embedded 10mm max. into panel. Min 50mm from edge.
 73
     1
 44
1.0
1001
ACAD_MLEADERVER
1070
     2
  0
LINE
  5
AB9C
330
1F
100
AcDbEntity
  8
MP Annotation (00134142)
100
AcDbLine
 10
67.78566080138898
 20
92.07871904079746
 30
0.0
 11
-123.3035179617014
 21
92.07871904079746
 31
0.0
1001
ACAD_MLEADERVER
1070
     2
  0
LWPOLYLINE
  5
AB9D
330
1F
100
AcDbEntity
  8
MP Annotation (00134142)
100
AcDbPolyline
 90
        2
 70
     0
 43
0.0
 10
129.4080142373891
 20
153.0949669653388
 10
67.78566080138898
 20
92.07871904079746
1001
ACAD_MLEADERVER
1070
     2
  0
SOLID
  5
AB9E
330
1F
100
AcDbEntity
  8
MP Annotation (00134142)
100
AcDbTrace
 10
127.531738185812
 20
154.9898810239149
 30
0.0
 11
140.7774985888461
 21
164.3526232748009
 31
0.0
 12
131.2842902889661
 22
151.2000529067626
 32
0.0
 13
131.2842902889661
 23
151.2000529067626
 33
0.0
1001
ACAD_MLEADERVER
1070
     2
  0
MTEXT
  5
AB9F
330
1F
100
AcDbEntity
  8
MP Annotation (00134142)
100
AcDbMText
 10
-123.3935179617015
 20
277.8775663539974
 30
0.0
 40
12.0
 41
163.4126254524094
 46
0.0
 71
     3
 72
     5
  1
MASONS Barricade Building Wrap
 73
     1
 44
1.0
1001
ACAD_MLEADERVER
1070
     2
  0
LINE
  5
ABA0
330
1F
100
AcDbEntity
  8
MP Annotation (00134142)
100
AcDbLine
 10
-70.34913597615059
 20
270.1135827250752
 30
0.0
 11
-123.3035179617014
 21
270.1135827250752
 31
0.0
1001
ACAD_MLEADERVER
1070
     2
  0
LWPOLYLINE
  5
ABA1
330
1F
100
AcDbEntity
  8
MP Annotation (00134142)
100
AcDbPolyline
 90
        2
 70
     0
 43
0.0
 10
7.145253441097338
 20
270.1135827250752
 10
-70.34913597615059
 20
270.1135827250752
1001
ACAD_MLEADERVER
1070
     2
  0
SOLID
  5
ABA2
330
1F
100
AcDbEntity
  8
MP Annotation (00134142)
100
AcDbTrace
 10
7.145253441097338
 20
272.7802493917419
 30
0.0
 11
23.14525344109734
 21
270.1135827250752
 31
0.0
 12
7.145253441097338
 22
267.4469160584085
 32
0.0
 13
7.145253441097338
 23
267.4469160584085
 33
0.0
1001
ACAD_MLEADERVER
1070
     2
  0
MTEXT
  5
ABA3
330
1F
100
AcDbEntity
  8
MP Annotation (00134142)
100
AcDbMText
 10
-123.3935179617014
 20
382.2837668218582
 30
0.0
 40
12.0
 41
156.1232817311174
 46
0.0
 71
     3
 72
     5
  1
50x20mm ventilated EPS or H3.2 timber battens
 73
     1
 44
1.0
1001
ACAD_MLEADERVER
1070
     2
  0
LINE
  5
ABA4
330
1F
100
AcDbEntity
  8
MP Annotation (00134142)
100
AcDbLine
 10
-91.16169309310498
 20
376.1855403552825
 30
0.0
 11
-123.3035179617014
 21
376.1855403552825
 31
0.0
1001
ACAD_MLEADERVER
1070
     2
  0
LWPOLYLINE
  5
ABA5
330
1F
100
AcDbEntity
  8
MP Annotation (00134142)
100
AcDbPolyline
 90
        2
 70
     0
 43
0.0
 10
38.20436477492926
 20
375.1563451610955
 10
-91.16169309310498
 20
376.1855403552825
1001
ACAD_MLEADERVER
1070
     2
  0
SOLID
  5
ABA6
330
1F
100
AcDbEntity
  8
MP Annotation (00134142)
100
AcDbTrace
 10
38.22557925508649
 20
377.8229274412704
 30
0.0
 11
54.20385845597866
 21
375.0290582801521
 31
0.0
 12
38.18315029477203
 22
372.4897628809206
 32
0.0
 13
38.18315029477203
 23
372.4897628809206
 33
0.0
1001
ACAD_MLEADERVER
1070
     2
  0
LWPOLYLINE
  5
ABA7
330
1F
100
AcDbEntity
  8
MP Annotation (00134142)
100
AcDbPolyline
 90
        2
 70
     0
 43
0.0
 10
193.4708993175769
 20
340.7301007894873
 10
-91.16169309310498
 20
376.1855403552825
1001
ACAD_MLEADERVER
1070
     2
  0
SOLID
  5
ABA8
330
1F
100
AcDbEntity
  8
MP Annotation (00134142)
100
AcDbTrace
 10
193.8005268391221
 20
343.3763163529196
 30
0.0
 11
209.3481926981703
 21
338.7523356602157
 31
0.0
 12
193.1412717960316
 22
338.0838852260551
 32
0.0
 13
193.1412717960316
 23
338.0838852260551
 33
0.0
1001
ACAD_MLEADERVER
1070
     2
  0
TEXT
  5
ABA9
330
1F
100
AcDbEntity
  8
MP Annotation (00134142)
100
AcDbText
 10
347.8546795114931
 20
-67.63992605729329
 30
0.0
 40
22.0
  1
Detail 12   NTS
100
AcDbText
1001
ACAD_MLEADERVER
1070
     2
  0
MTEXT
  5
ABAA
330
1F
100
AcDbEntity
  8
MP Annotation (00134142)
100
AcDbMText
 10
494.2582586864721
 20
519.3489855837431
 30
0.0
 40
12.0
 41
0.0
 46
0.0
 71
     1
 72
     5
  1
Timber Studs
 73
     1
 44
1.0
1001
ACAD_MLEADERVER
1070
     2
  0
LINE
  5
ABAB
330
1F
100
AcDbEntity
  8
MP Annotation (00134142)
100
AcDbLine
 10
371.9084470433136
 20
513.2466663477268
 30
0.0
 11
494.1682586864721
 21
513.2466663477268
 31
0.0
1001
ACAD_MLEADERVER
1070
     2
  0
LWPOLYLINE
  5
ABAC
330
1F
100
AcDbEntity
  8
MP Annotation (00134142)
100
AcDbPolyline
 90
        2
 70
     0
 43
0.0
 10
238.9081467223273
 20
502.9186877011485
 10
371.9084470433136
 20
513.2466663477268
1001
ACAD_MLEADERVER
1070
     2
  0
SOLID
  5
ABAD
330
1F
100
AcDbEntity
  8
MP Annotation (00134142)
100
AcDbTrace
 10
239.114601982184
 20
500.2600250040791
 30
0.0
 11
222.9561705399106
 21
501.6799561420084
 31
0.0
 12
238.7016914624706
 22
505.5773503982179
 32
0.0
 13
238.7016914624706
 23
505.5773503982179
 33
0.0
1001
ACAD_MLEADERVER
1070
     2
  0
LWPOLYLINE
  5
ABAE
330
1F
100
AcDbEntity
  8
MP Annotation (00134142)
100
AcDbPolyline
 90
        2
 70
     0
 43
0.0
 10
325.7197889960112
 20
458.7589207134027
 10
371.9084470433136
 20
513.2466663477268
1001
ACAD_MLEADERVER
1070
     2
  0
SOLID
  5
ABAF
330
1F
100
AcDbEntity
  8
MP Annotation (00134142)
100
AcDbTrace
 10
327.7539451924568
 20
457.0345890516935
 30
0.0
 11
315.3737990257555
 21
446.5539835347292
 31
0.0
 12
323.6856327995656
 22
460.483252375112
 32
0.0
 13
323.6856327995656
 23
460.483252375112
 33
0.0
1001
ACAD_MLEADERVER
1070
     2
  0
VIEWPORT
  5
16C0
102
{ACAD_XDICTIONARY
360
16C1
102
}
330
16B9
100
AcDbEntity
 67
     1
  8
0
100
AcDbViewport
 10
225.8770365041225
 20
155.2923108191436
 30
0.0
 40
826.9324418282939
 41
399.4652483540913
 68
     1
 69
     1
 12
225.8770365041225
 22
155.2923108191436
 13
0.0
 23
0.0
 14
10.0
 24
10.0
 15
10.0
 25
10.0
 16
0.0
 26
0.0
 36
1.0
 17
0.0
 27
0.0
 37
0.0
 42
50.0
 43
0.0
 44
0.0
 45
399.4652483540913
 50
0.0
 51
0.0
 72
  1000
 90
   819200
  1

281
     0
 71
     0
 74
     0
110
0.0
120
0.0
130
0.0
111
1.0
121
0.0
131
0.0
112
0.0
122
1.0
132
0.0
 79
     0
146
0.0
170
     0
 61
     5
348
220
292
     1
282
     1
141
0.0
142
0.0
 63
   250
421
  3355443
  0
VIEWPORT
  5
97F7
102
{ACAD_XDICTIONARY
360
97F8
102
}
330
16B9
100
AcDbEntity
 67
     1
  8
0
100
AcDbViewport
 10
147.7062439024448
 20
104.2062515318394
 30
0.0
 40
295.4095336800116
 41
208.4104189386481
 68
     2
 69
     2
 12
162.5761561329604
 22
228.9431384076009
 13
0.0
 23
0.0
 14
0.5
 24
0.5
 15
0.5
 25
0.5
 16
0.0
 26
0.0
 36
152.1773905492729
 17
-17.08379207255076
 27
36.32312325439756
 37
-0.0000000000000539
 42
50.0
 43
0.0
 44
0.0
 45
1042.052094593083
 50
0.0
 51
0.0
 72
  1000
 90
   835680
  1

281
     0
 71
     1
 74
     0
110
0.0
120
0.0
130
0.0
111
1.0
121
0.0
131
0.0
112
0.0
122
1.0
132
0.0
 79
     0
146
0.0
170
     0
 61
     5
348
220
292
     1
282
     1
141
0.0
142
0.0
 63
   250
421
  3355443
  0
ENDSEC
  0
SECTION
  2
OBJECTS
  0
DICTIONARY
  5
C
330
0
100
AcDbDictionary
281
     1
  3
ACAD_BACKGROUND
350
83C
  3
ACAD_COLOR
350
EB
  3
ACAD_DWFDEFINITIONS
350
8EE9
  3
ACAD_FIELDLIST
350
E70
  3
ACAD_FLATSHOT
350
89C
  3
ACAD_GROUP
350
D
  3
ACAD_IMAGE_DICT
350
E6E
  3
ACAD_IMAGE_VARS
350
E74
  3
ACAD_LAYOUT
350
1A
  3
ACAD_MATERIAL
350
EA
  3
ACAD_MLEADERSTYLE
350
2C3
  3
ACAD_MLINESTYLE
350
17
  3
ACAD_PLOTSETTINGS
350
19
  3
ACAD_PLOTSTYLENAME
350
E
  3
ACAD_SCALELIST
350
2A1
  3
ACAD_TABLESTYLE
350
22B
  3
ACAD_VISUALSTYLE
350
21A
  3
ACAD_WIPEOUT_VARS
350
4561
  3
AcAec
350
A21
  3
ACDB_RECOMPOSE_DATA
350
310
  3
AcDbVariableDictionary
350
25B
  3
AEC_DISP_REP_CONFIGURATIONS
350
A0A
  3
AEC_DISP_REP_SETS
350
A01
  3
AEC_DISP_REPS
350
8DB
  3
AEC_DISPLAY_PROPS_DEFAULTS
350
8DF
  3
AEC_LAYERKEY_STYLES
350
A0C
  3
AEC_PROPERTY_SET_DEFS
350
3C2
  3
AEC_VARS
350
8DD
  3
ASE_INDEX_DICTIONARY
350
3E43
  0
DICTIONARY
  5
28F
330
2
100
AcDbDictionary
280
     1
281
     1
  3
ACAD_LAYERFILTERS
360
1BB9
  3
ACAD_LAYERSTATES
360
290
  3
ACLYDICTIONARY
360
1BB8
  0
DICTIONARY
  5
308
330
10
100
AcDbDictionary
280
     1
281
     1
  3
ADSK_XREC_LAYER_RECONCILED
360
3FDB
  0
DICTIONARY
  5
37E
330
37D
100
AcDbDictionary
280
     1
281
     1
  0
DICTIONARY
  5
75E7
330
75E6
100
AcDbDictionary
280
     1
281
     1
  0
DICTIONARY
  5
102E
330
1F
100
AcDbDictionary
280
     1
281
     1
  3
ACAD_SORTENTS
360
9A65
  0
DICTIONARY
  5
97C2
330
7441
100
AcDbDictionary
280
     1
281
     1
  3
ACAD_SORTENTS
360
97C6
  0
DICTIONARY
  5
ABD9
330
9993
100
AcDbDictionary
280
     1
281
     1
  3
ACAD_SORTENTS
360
ABDA
  0
DICTIONARY
  5
AC21
330
ABD4
100
AcDbDictionary
280
     1
281
     1
  3
ACAD_MTEXT_2008_RT
360
AC22
  0
DICTIONARY
  5
16C1
330
16C0
100
AcDbDictionary
280
     1
281
     1
  3
ASDK_XREC_ANNOTATION_SCALE_INFO
360
16C2
  0
DICTIONARY
  5
97F8
330
97F7
100
AcDbDictionary
280
     1
281
     1
  3
ASDK_XREC_ANNOTATION_SCALE_INFO
360
97F9
  0
DICTIONARY
  5
83C
102
{ACAD_REACTORS
330
C
102
}
330
C
100
AcDbDictionary
281
     1
  0
DICTIONARY
  5
EB
102
{ACAD_REACTORS
330
C
102
}
330
C
100
AcDbDictionary
281
     1
  0
DICTIONARY
  5
8EE9
102
{ACAD_REACTORS
330
C
102
}
330
C
100
AcDbDictionary
281
     1
  0
FIELDLIST
  5
E70
102
{ACAD_REACTORS
330
C
102
}
330
C
100
AcDbIdSet
 90
        0
100
AcDbFieldList
  0
XRECORD
  5
89C
102
{ACAD_REACTORS
330
C
102
}
330
C
100
AcDbXrecord
280
     1
 71
     0
  0
DICTIONARY
  5
D
102
{ACAD_REACTORS
330
C
102
}
330
C
100
AcDbDictionary
281
     1
  0
DICTIONARY
  5
E6E
102
{ACAD_REACTORS
330
C
102
}
330
C
100
AcDbDictionary
281
     1
  0
RASTERVARIABLES
  5
E74
102
{ACAD_REACTORS
330
C
102
}
330
C
100
AcDbRasterVariables
 90
        0
 70
     1
 71
     1
 72
     1
  0
DICTIONARY
  5
1A
102
{ACAD_REACTORS
330
C
102
}
330
C
100
AcDbDictionary
281
     1
  3
1
350
16BA
  3
Model
350
22
  0
DICTIONARY
  5
EA
102
{ACAD_REACTORS
330
C
102
}
330
C
100
AcDbDictionary
281
     1
  3
ByBlock
350
218
  3
ByLayer
350
217
  3
Global
350
219
  0
DICTIONARY
  5
2C3
102
{ACAD_REACTORS
330
C
102
}
330
C
100
AcDbDictionary
281
     1
  3
2mm
350
389
  3
Standard
350
2C4
  0
DICTIONARY
  5
17
102
{ACAD_REACTORS
330
C
102
}
330
C
100
AcDbDictionary
281
     1
  3
mp000096$0$STANDARD
350
ABDB
  3
Standard
350
18
  0
DICTIONARY
  5
19
102
{ACAD_REACTORS
330
C
102
}
330
C
100
AcDbDictionary
281
     1
  0
ACDBDICTIONARYWDFLT
  5
E
102
{ACAD_REACTORS
330
C
102
}
330
C
100
AcDbDictionary
281
     1
  3
Normal
350
F
100
AcDbDictionaryWithDefault
340
F
  0
DICTIONARY
  5
2A1
102
{ACAD_REACTORS
330
C
102
}
330
C
100
AcDbDictionary
281
     1
  3
*A1
350
7376
  3
*A10
350
738C
  3
*A11
350
7392
  3
*A12
350
737D
  3
*A13
350
7377
  3
*A14
350
73A1
  3
*A15
350
737B
  3
*A16
350
737C
  3
*A17
350
73B0
  3
*A18
350
7378
  3
*A19
350
7398
  3
*A2
350
7385
  3
*A20
350
737F
  3
*A21
350
73A7
  3
*A22
350
7383
  3
*A23
350
7384
  3
*A24
350
73B3
  3
*A25
350
7380
  3
*A26
350
739D
  3
*A27
350
7387
  3
*A28
350
73AB
  3
*A29
350
738A
  3
*A3
350
738B
  3
*A30
350
737E
  3
*A31
350
7388
  3
*A32
350
73A2
  3
*A33
350
738E
  3
*A34
350
73AF
  3
*A35
350
7391
  3
*A36
350
7386
  3
*A37
350
738F
  3
*A38
350
737A
  3
*A39
350
7394
  3
*A4
350
73B2
  3
*A40
350
7397
  3
*A41
350
738D
  3
*A42
350
7395
  3
*A43
350
7382
  3
*A44
350
739A
  3
*A45
350
7379
  3
*A46
350
7393
  3
*A47
350
739B
  3
*A48
350
7389
  3
*A49
350
739F
  3
*A5
350
7381
  3
*A50
350
7399
  3
*A51
350
73A0
  3
*A52
350
7390
  3
*A53
350
73A5
  3
*A54
350
739E
  3
*A55
350
73A6
  3
*A56
350
7396
  3
*A57
350
73A9
  3
*A58
350
73A3
  3
*A59
350
73AA
  3
*A6
350
739C
  3
*A60
350
73AD
  3
*A61
350
73A8
  3
*A7
350
73AE
  3
*A8
350
73B1
  3
*A9
350
73AC
  3
A0
350
4739
  3
A1
350
475B
  3
A2
350
A6E
  3
A3
350
475C
  3
A4
350
475D
  3
A5
350
475E
  3
A6
350
475F
  3
A7
350
4760
  3
A8
350
4761
  3
A9
350
A7D
  3
B0
350
A7E
  3
B1
350
4762
  3
B2
350
4763
  3
B3
350
A6F
  3
B4
350
4764
  3
B5
350
4765
  3
B6
350
4766
  3
B7
350
A71
  3
B8
350
4767
  3
B9
350
4768
  3
C0
350
4769
  3
C1
350
A75
  3
C2
350
476A
  3
C3
350
2A2
  0
DICTIONARY
  5
22B
102
{ACAD_REACTORS
330
C
102
}
330
C
100
AcDbDictionary
281
     1
  3
mp000096$0$Standard
350
ABDC
  3
Standard
350
22C
  0
DICTIONARY
  5
21A
102
{ACAD_REACTORS
330
C
102
}
330
C
100
AcDbDictionary
281
     1
  3
2dWireframe
350
220
  3
3D Hidden
350
222
  3
3dWireframe
350
221
  3
Basic
350
21F
  3
Brighten
350
226
  3
ColorChange
350
22A
  3
Conceptual
350
223
  3
Dim
350
225
  3
Facepattern
350
229
  3
Flat
350
21B
  3
FlatWithEdges
350
21C
  3
Gouraud
350
21D
  3
GouraudWithEdges
350
21E
  3
Linepattern
350
228
  3
Realistic
350
224
  3
Thicken
350
227
  0
WIPEOUTVARIABLES
  5
4561
102
{ACAD_REACTORS
330
C
102
}
330
C
100
AcDbWipeoutVariables
 70
     1
  0
DICTIONARY
  5
A21
102
{ACAD_REACTORS
330
C
102
}
330
C
100
AcDbDictionary
281
     1
  3
AcAecLayerManager
350
A22
  0
XRECORD
  5
310
102
{ACAD_REACTORS
330
C
102
}
330
C
100
AcDbXrecord
280
     1
 90
        1
330
22C
330
ABD4
330
ABDC
  0
DICTIONARY
  5
25B
102
{ACAD_REACTORS
330
C
102
}
330
C
100
AcDbDictionary
281
     1
  3
CANNOSCALE
350
313
  3
CMLEADERSTYLE
350
311
  3
CTABLESTYLE
350
25C
  3
LAYEREVAL
350
315
  3
LAYERNOTIFY
350
316
  3
LIGHTINGUNITS
350
314
  3
MLEADERSCALE
350
A3E
  3
MSLTSCALE
350
312
  0
DICTIONARY
  5
A0A
102
{ACAD_REACTORS
330
C
102
}
330
C
100
AcDbDictionary
281
     1
  3
Medium Detail
350
A11
  3
Standard
350
A0B
  0
DICTIONARY
  5
A01
102
{ACAD_REACTORS
330
C
102
}
330
C
100
AcDbDictionary
281
     1
  3
Elevation
350
A05
  3
Model
350
A02
  3
Model High Detail
350
A09
  3
Model Low Detail
350
A08
  3
Plan
350
A03
  3
Plan Diagnostic
350
A14
  3
Plan High Detail
350
A07
  3
Plan Low Detail
350
A06
  3
Reflected
350
A04
  0
DICTIONARY
  5
8DB
102
{ACAD_REACTORS
330
C
102
}
330
C
100
AcDbDictionary
281
     1
  3
AecDbDispRep2dSection
350
8DC
  3
AecDbDispRepAnchor
350
8E1
  3
AecDbDispRepAnchorBubToGrid
350
987
  3
AecDbDispRepAnchorBubToGridMdl
350
989
  3
AecDbDispRepAnchorBubToGridRcp
350
98B
  3
AecDbDispRepAnchorEntToNode
350
8FD
  3
AecDbDispRepAnchorExtendedTagToEnt
350
90D
  3
AecDbDispRepAnchorTagToEnt
350
90B
  3
AecDbDispRepBdgElevLineModel
350
90F
  3
AecDbDispRepBdgElevLinePlan
350
911
  3
AecDbDispRepBdgElevLinePlan100
350
9A3
  3
AecDbDispRepBdgElevLinePlan50
350
9BE
  3
AecDbDispRepBdgElevLineRcp
350
913
  3
AecDbDispRepBdgSectionLineModel
350
915
  3
AecDbDispRepBdgSectionLinePlan
350
917
  3
AecDbDispRepBdgSectionLinePlan100
350
9A5
  3
AecDbDispRepBdgSectionLinePlan50
350
9C0
  3
AecDbDispRepBdgSectionLineRcp
350
919
  3
AecDbDispRepBdgSectionModel
350
91B
  3
AecDbDispRepBdgSectionSubDiv
350
91C
  3
AecDbDispRepCeilingGrid
350
91E
  3
AecDbDispRepCeilingGridModel
350
920
  3
AecDbDispRepCeilingGridPlan100
350
9A7
  3
AecDbDispRepCeilingGridPlan50
350
9C2
  3
AecDbDispRepCeilingGridRcp
350
922
  3
AecDbDispRepClipVolModel
350
8E2
  3
AecDbDispRepClipVolPlan
350
8E4
  3
AecDbDispRepClipVolResSubDiv
350
8E7
  3
AecDbDispRepClipVolResult
350
8E6
  3
AecDbDispRepColumnGrid
350
98D
  3
AecDbDispRepColumnGridModel
350
98F
  3
AecDbDispRepColumnGridPlan100
350
9A9
  3
AecDbDispRepColumnGridPlan50
350
9C4
  3
AecDbDispRepColumnGridRcp
350
991
  3
AecDbDispRepCurtainWallLayoutModel
350
924
  3
AecDbDispRepCurtainWallLayoutPlan
350
926
  3
AecDbDispRepCurtainWallLayoutPlan100
350
9AB
  3
AecDbDispRepCurtainWallLayoutPlan50
350
9C6
  3
AecDbDispRepCurtainWallUnitModel
350
928
  3
AecDbDispRepCurtainWallUnitPlan
350
92A
  3
AecDbDispRepCurtainWallUnitPlan100
350
9AD
  3
AecDbDispRepCurtainWallUnitPlan50
350
9C8
  3
AecDbDispRepDimGroupPlan
350
9DD
  3
AecDbDispRepDimGroupPlan100
350
9D9
  3
AecDbDispRepDimGroupPlan50
350
9DB
  3
AecDbDispRepDisplayTheme
350
8E9
  3
AecDbDispRepDoorElev
350
92E
  3
AecDbDispRepDoorModel
350
92C
  3
AecDbDispRepDoorNominal
350
932
  3
AecDbDispRepDoorPlan
350
930
  3
AecDbDispRepDoorPlan50
350
9DF
  3
AecDbDispRepDoorPlanHekto
350
9E1
  3
AecDbDispRepDoorRcp
350
934
  3
AecDbDispRepDoorThresholdPlan
350
936
  3
AecDbDispRepDoorThresholdSymbolPlan
350
9E3
  3
AecDbDispRepEditInPlaceProfile
350
8EB
  3
AecDbDispRepEntRef
350
8ED
  3
AecDbDispRepLayoutCurve
350
8EF
  3
AecDbDispRepLayoutGrid2d
350
8F1
  3
AecDbDispRepLayoutGrid3d
350
8F3
  3
AecDbDispRepMaskBlockRef
350
8F5
  3
AecDbDispRepMaskBlockRefRcp
350
938
  3
AecDbDispRepMassElemModel
350
8FF
  3
AecDbDispRepMassElemPlan100
350
9E5
  3
AecDbDispRepMassElemPlan50
350
9E7
  3
AecDbDispRepMassElemRcp
350
93A
  3
AecDbDispRepMassElemSchem
350
901
  3
AecDbDispRepMassGroupModel
350
903
  3
AecDbDispRepMassGroupPlan
350
905
  3
AecDbDispRepMassGroupPlan100
350
9E9
  3
AecDbDispRepMassGroupPlan50
350
9EB
  3
AecDbDispRepMassGroupRcp
350
93C
  3
AecDbDispRepMaterial
350
8F7
  3
AecDbDispRepMvBlockRef
350
8F9
  3
AecDbDispRepMvBlockRef$Plan
350
A17
  3
AecDbDispRepMvBlockRefModel
350
8FA
  3
AecDbDispRepMvBlockRefPlan100
350
9AF
  3
AecDbDispRepMvBlockRefPlan50
350
9CA
  3
AecDbDispRepMvBlockRefRcp
350
93E
  3
AecDbDispRepOpening
350
93F
  3
AecDbDispRepOpeningModel
350
941
  3
AecDbDispRepOpeningPlan100
350
9ED
  3
AecDbDispRepOpeningPlan50
350
9EF
  3
AecDbDispRepOpeningPlanReflected
350
9F1
  3
AecDbDispRepOpeningSillPlan
350
9F3
  3
AecDbDispRepPolygonModel
350
907
  3
AecDbDispRepPolygonTrueColour
350
909
  3
AecDbDispRepRailingModel
350
943
  3
AecDbDispRepRailingPlan
350
945
  3
AecDbDispRepRailingPlan100
350
9F5
  3
AecDbDispRepRailingPlan50
350
9F7
  3
AecDbDispRepRoofModel
350
947
  3
AecDbDispRepRoofPlan
350
949
  3
AecDbDispRepRoofPlan100
350
9B0
  3
AecDbDispRepRoofPlan50
350
9CB
  3
AecDbDispRepRoofRcp
350
94B
  3
AecDbDispRepRoofSlabModel
350
94F
  3
AecDbDispRepRoofSlabPlan
350
953
  3
AecDbDispRepRoofSlabPlan100
350
9B2
  3
AecDbDispRepRoofSlabPlan50
350
9CD
  3
AecDbDispRepScheduleTable
350
985
  3
AecDbDispRepSlabModel
350
94D
  3
AecDbDispRepSlabPlan
350
951
  3
AecDbDispRepSlabPlan100
350
9B4
  3
AecDbDispRepSlabPlan50
350
9CF
  3
AecDbDispRepSlice
350
8FB
  3
AecDbDispRepSpaceDecomposed
350
955
  3
AecDbDispRepSpaceModel
350
957
  3
AecDbDispRepSpacePlan
350
959
  3
AecDbDispRepSpacePlan100
350
9B6
  3
AecDbDispRepSpacePlan50
350
9D1
  3
AecDbDispRepSpaceRcp
350
95B
  3
AecDbDispRepSpaceVolume
350
95D
  3
AecDbDispRepStairModel
350
95F
  3
AecDbDispRepStairPlan
350
961
  3
AecDbDispRepStairPlan100
350
9F9
  3
AecDbDispRepStairPlan50
350
9FB
  3
AecDbDispRepStairPlanOverlapping
350
963
  3
AecDbDispRepStairRcp
350
965
  3
AecDbDispRepWallGraph
350
967
  3
AecDbDispRepWallModel
350
969
  3
AecDbDispRepWallPlan
350
96B
  3
AecDbDispRepWallPlan100
350
9B8
  3
AecDbDispRepWallPlan50
350
9D3
  3
AecDbDispRepWallRcp
350
96D
  3
AecDbDispRepWallSchem
350
96F
  3
AecDbDispRepWindowAssemblyModel
350
971
  3
AecDbDispRepWindowAssemblyPlan
350
973
  3
AecDbDispRepWindowAssemblyPlan100
350
9BA
  3
AecDbDispRepWindowAssemblyPlan50
350
9D5
  3
AecDbDispRepWindowAssemblySillPlan
350
975
  3
AecDbDispRepWindowElev
350
979
  3
AecDbDispRepWindowModel
350
977
  3
AecDbDispRepWindowNominal
350
97D
  3
AecDbDispRepWindowPlan
350
97B
  3
AecDbDispRepWindowPlan100
350
9FD
  3
AecDbDispRepWindowPlan50
350
9FF
  3
AecDbDispRepWindowRcp
350
97F
  3
AecDbDispRepWindowSillPlan
350
981
  3
AecDbDispRepZone
350
983
  3
AecDbDispRepZonePlan100
350
9BC
  3
AecDbDispRepZonePlan50
350
9D7
  3
AecsDbDispRepMemberElevationDesign
350
993
  3
AecsDbDispRepMemberElevationDetail
350
995
  3
AecsDbDispRepMemberLogical
350
997
  3
AecsDbDispRepMemberModelDesign
350
999
  3
AecsDbDispRepMemberModelDetail
350
99B
  3
AecsDbDispRepMemberPlanDesign
350
99D
  3
AecsDbDispRepMemberPlanDetail
350
99F
  3
AecsDbDispRepMemberPlanSketch
350
9A1
  0
DICTIONARY
  5
8DF
102
{ACAD_REACTORS
330
C
102
}
330
C
100
AcDbDictionary
281
     1
  3
*A1
350
8E0
  3
*A10
350
9AE
  3
*A100
350
8FC
  3
*A101
350
8EE
  3
*A102
350
933
  3
*A103
350
970
  3
*A104
350
9C3
  3
*A105
350
8EC
  3
*A106
350
95C
  3
*A107
350
960
  3
*A108
350
9F6
  3
*A109
350
946
  3
*A11
350
937
  3
*A110
350
974
  3
*A111
350
958
  3
*A112
350
976
  3
*A113
350
9E2
  3
*A114
350
906
  3
*A115
350
908
  3
*A116
350
912
  3
*A117
350
9F4
  3
*A118
350
91A
  3
*A119
350
9F8
  3
*A12
350
990
  3
*A120
350
9FE
  3
*A121
350
96E
  3
*A122
350
8E5
  3
*A123
350
950
  3
*A124
350
994
  3
*A125
350
91D
  3
*A126
350
8F0
  3
*A127
350
986
  3
*A128
350
90C
  3
*A129
350
996
  3
*A13
350
982
  3
*A130
350
8F2
  3
*A131
350
A00
  3
*A132
350
92F
  3
*A133
350
931
  3
*A134
350
90A
  3
*A135
350
93D
  3
*A136
350
90E
  3
*A137
350
992
  3
*A138
350
916
  3
*A139
350
9BB
  3
*A14
350
9C5
  3
*A140
350
940
  3
*A141
350
91F
  3
*A15
350
9A4
  3
*A16
350
9C7
  3
*A17
350
921
  3
*A18
350
94C
  3
*A19
350
94E
  3
*A2
350
8E8
  3
*A20
350
95A
  3
*A21
350
935
  3
*A22
350
962
  3
*A23
350
939
  3
*A24
350
9E4
  3
*A25
350
942
  3
*A26
350
9BD
  3
*A27
350
966
  3
*A28
350
99C
  3
*A29
350
9E8
  3
*A3
350
929
  3
*A30
350
964
  3
*A31
350
9D6
  3
*A32
350
9DA
  3
*A33
350
954
  3
*A34
350
9EA
  3
*A35
350
9D4
  3
*A36
350
9EC
  3
*A37
350
944
  3
*A38
350
978
  3
*A39
350
97A
  3
*A4
350
9BF
  3
*A40
350
952
  3
*A41
350
988
  3
*A42
350
956
  3
*A43
350
9E6
  3
*A44
350
95E
  3
*A45
350
8F4
  3
*A46
350
902
  3
*A47
350
98A
  3
*A48
350
968
  3
*A49
350
9FA
  3
*A5
350
97E
  3
*A50
350
904
  3
*A51
350
96A
  3
*A52
350
998
  3
*A53
350
99A
  3
*A54
350
97C
  3
*A55
350
9A6
  3
*A56
350
980
  3
*A57
350
9B1
  3
*A58
350
984
  3
*A59
350
923
  3
*A6
350
9C1
  3
*A60
350
98C
  3
*A61
350
8F6
  3
*A62
350
9B5
  3
*A63
350
9F2
  3
*A64
350
927
  3
*A65
350
972
  3
*A66
350
9B3
  3
*A67
350
914
  3
*A68
350
918
  3
*A69
350
9A0
  3
*A7
350
900
  3
*A70
350
92B
  3
*A71
350
910
  3
*A72
350
92D
  3
*A73
350
98E
  3
*A74
350
9C9
  3
*A75
350
9CC
  3
*A76
350
8F8
  3
*A77
350
99E
  3
*A78
350
9DC
  3
*A79
350
9A2
  3
*A8
350
9A8
  3
*A80
350
925
  3
*A81
350
9AC
  3
*A82
350
8E3
  3
*A83
350
948
  3
*A84
350
9DE
  3
*A85
350
9B7
  3
*A86
350
93B
  3
*A87
350
9D0
  3
*A88
350
94A
  3
*A89
350
9B9
  3
*A9
350
9AA
  3
*A90
350
9EE
  3
*A91
350
9F0
  3
*A92
350
9CE
  3
*A93
350
9FC
  3
*A94
350
9D2
  3
*A95
350
8EA
  3
*A96
350
9D8
  3
*A97
350
96C
  3
*A98
350
8FE
  3
*A99
350
9E0
  0
DICTIONARY
  5
A0C
102
{ACAD_REACTORS
330
C
102
}
330
C
100
AcDbDictionary
281
     1
  3
AIA (256 Color)
350
A1A
  0
DICTIONARY
  5
3C2
102
{ACAD_REACTORS
330
C
102
}
330
C
100
AcDbDictionary
281
     1
  0
DICTIONARY
  5
8DD
102
{ACAD_REACTORS
330
C
102
}
330
C
100
AcDbDictionary
281
     1
  3
AEC_VARS_ARCHBASE
350
A1D
  3
AEC_VARS_DWG_SETUP
350
8DE
  3
AECMX_VARS_MUNICH
350
A1E
  0
DICTIONARY
  5
3E43
102
{ACAD_REACTORS
330
C
102
}
330
C
100
AcDbDictionary
281
     1
  3
ASEBlockHierarchyIndexRecord
350
3E44
1001
DCO15
1040
1692121483.687
  0
DICTIONARY
  5
1BB9
102
{ACAD_REACTORS
330
28F
102
}
330
28F
100
AcDbDictionary
281
     1
  0
DICTIONARY
  5
290
102
{ACAD_REACTORS
330
28F
102
}
330
28F
100
AcDbDictionary
281
     1
  3
00000050
350
3D97
  3
00000561
350
3D8B
  3
mp000096$0$00000050
350
ABCB
  3
mp000096$0$00000561
350
ABCF
  0
DICTIONARY
  5
1BB8
102
{ACAD_REACTORS
330
28F
102
}
330
28F
100
AcDbDictionary
281
     1
1001
ACAD
1000
<All
  0
XRECORD
  5
3FDB
102
{ACAD_REACTORS
330
308
102
}
330
308
100
AcDbXrecord
280
     1
290
     1
  0
SORTENTSTABLE
  5
9A65
102
{ACAD_REACTORS
330
102E
102
}
330
102E
100
AcDbSortentsTable
330
1F
331
7F5B
  5
9D82
331
ABA9
  5
AB9B
331
7B9C
  5
7F60
331
7F5A
  5
9D81
331
ABA8
  5
ABA1
331
7F59
  5
9D80
331
7F58
  5
9D7F
331
7F57
  5
9D7E
331
A735
  5
7F57
331
7F56
  5
9D7C
331
A9C7
  5
A9B4
331
7F55
  5
9D05
331
A9C6
  5
A9B1
331
7F54
  5
9D04
331
A9C5
  5
A9AF
331
7F53
  5
9D03
331
ABA7
  5
ABA0
331
ABA6
  5
AB9F
331
A9C3
  5
A918
331
7F51
  5
9D01
331
ABA5
  5
AB9E
331
A9C2
  5
A917
331
ABA4
  5
AB9D
331
A9C1
  5
A916
331
7F4F
  5
9CFF
331
7F4E
  5
9AE3
331
7B40
  5
7CA3
331
ABA3
  5
AB9C
331
A9C0
  5
A915
331
7F4D
  5
9A5B
331
ABA2
  5
ABA5
331
7F4C
  5
99A7
331
A918
  5
A9C2
331
ABA1
  5
ABA4
331
7F4B
  5
9506
331
A917
  5
A9C1
331
ABA0
  5
ABA3
331
7F4A
  5
9505
331
A916
  5
A9BE
331
AB9F
  5
ABA2
331
A915
  5
A9BD
331
A436
  5
A9AD
331
AB9E
  5
ABA9
331
99A7
  5
A9C4
331
A914
  5
A9BC
331
AB9D
  5
ABA8
331
AB9C
  5
ABA7
331
A9B9
  5
A914
331
7F47
  5
9502
331
AB9B
  5
ABA6
331
AB9A
  5
ABAD
331
AB99
  5
ABAC
331
A9B6
  5
A47D
331
AB97
  5
ABAB
331
7F98
  5
9D8F
331
A13F
  5
A13A
331
A9B4
  5
A437
331
AB96
  5
ABAA
331
7F97
  5
9D8E
331
A9B3
  5
A140
331
A13E
  5
A139
331
A9B2
  5
A13F
331
7F96
  5
9D8D
331
A13D
  5
A137
331
AB95
  5
ABAF
331
A9B1
  5
A13E
331
7F95
  5
9D8C
331
A13C
  5
9D99
331
AB94
  5
ABAE
331
7F94
  5
9D8B
331
A9B0
  5
A13D
331
A13B
  5
9D98
331
7F93
  5
9D8A
331
A9AF
  5
A13C
331
A13A
  5
9D97
331
A139
  5
9D96
331
A138
  5
9D95
331
A9AD
  5
A13B
331
7F65
  5
9D89
331
7F64
  5
9D88
331
7F63
  5
9D87
331
7F62
  5
9D86
331
9D99
  5
7F59
331
7DF3
  5
949B
331
7F61
  5
9D85
331
9D98
  5
9D92
331
7DF2
  5
7F98
331
7F60
  5
9D84
331
9D97
  5
9D91
331
A9D1
  5
A9C3
331
9D96
  5
9D90
331
9D94
  5
7F58
331
7CA5
  5
7F64
331
ABAF
  5
AB9A
331
7CA3
  5
7F63
331
ABAE
  5
AB99
331
7CA2
  5
7F61
331
ABAD
  5
AB97
331
A9CA
  5
9D94
331
ABAC
  5
AB96
331
A9C9
  5
9D93
331
ABAB
  5
AB95
331
A9C8
  5
A9BB
331
7F5C
  5
9D83
331
ABAA
  5
AB94
  0
SORTENTSTABLE
  5
97C6
102
{ACAD_REACTORS
330
97C2
102
}
330
97C2
100
AcDbSortentsTable
330
7441
331
9732
  5
9732
331
97A8
  5
97A8
331
973A
  5
973A
331
96FB
  5
96FB
331
9769
  5
9769
331
97B0
  5
97B0
331
9742
  5
9742
331
9703
  5
9703
331
9771
  5
9771
331
97B8
  5
97B8
331
974A
  5
974A
331
970B
  5
970B
331
9779
  5
9779
331
97C0
  5
97C0
331
9781
  5
9781
331
9752
  5
9752
331
9713
  5
9713
331
97C8
  5
97CD
331
975A
  5
975A
331
971B
  5
971B
331
9789
  5
9789
331
9762
  5
9762
331
9791
  5
9791
331
9723
  5
9723
331
9799
  5
9799
331
972B
  5
972B
331
97A1
  5
97A1
331
9733
  5
9733
331
97A9
  5
97A9
331
973B
  5
973B
331
96FC
  5
96FC
331
976A
  5
976A
331
97B1
  5
97B1
331
9743
  5
9743
331
9704
  5
9704
331
9772
  5
9772
331
97B9
  5
97B9
331
974B
  5
974B
331
970C
  5
970C
331
977A
  5
977A
331
9782
  5
9782
331
9753
  5
9753
331
9714
  5
9714
331
97C9
  5
97CC
331
975B
  5
975B
331
971C
  5
971C
331
978A
  5
978A
331
9763
  5
9763
331
9792
  5
9792
331
9724
  5
9724
331
979A
  5
979A
331
972C
  5
972C
331
97A2
  5
97A2
331
9734
  5
9734
331
97AA
  5
97AA
331
973C
  5
973C
331
96FD
  5
96FD
331
976B
  5
976B
331
97B2
  5
97B2
331
9744
  5
9744
331
9705
  5
9705
331
9773
  5
9773
331
97BA
  5
97BA
331
974C
  5
974C
331
970D
  5
970D
331
977B
  5
977B
331
9783
  5
9783
331
9754
  5
9754
331
9715
  5
9715
331
97CA
  5
97CB
331
975C
  5
975C
331
971D
  5
971D
331
978B
  5
978B
331
9764
  5
9764
331
9793
  5
9793
331
9725
  5
9725
331
979B
  5
979B
331
972D
  5
972D
331
97A3
  5
97A3
331
9735
  5
9735
331
97AB
  5
97AB
331
973D
  5
973D
331
96FE
  5
96FE
331
976C
  5
976C
331
97B3
  5
97B3
331
9745
  5
9745
331
9706
  5
9706
331
9774
  5
9774
331
97BB
  5
97BB
331
974D
  5
974D
331
970E
  5
970E
331
977C
  5
977C
331
9784
  5
9784
331
9755
  5
9755
331
9716
  5
9716
331
97CB
  5
97CA
331
975D
  5
975D
331
971E
  5
971E
331
978C
  5
978C
331
9765
  5
9765
331
9794
  5
9794
331
9726
  5
9726
331
979C
  5
979C
331
972E
  5
972E
331
97A4
  5
97A4
331
9736
  5
9736
331
97AC
  5
97AC
331
973E
  5
973E
331
96FF
  5
96FF
331
976D
  5
976D
331
97B4
  5
97B4
331
9746
  5
9746
331
9707
  5
9707
331
9775
  5
9775
331
97BC
  5
97BC
331
974E
  5
974E
331
970F
  5
970F
331
977D
  5
977D
331
9785
  5
9785
331
9756
  5
9756
331
9717
  5
9717
331
97CC
  5
97C9
331
975E
  5
975E
331
971F
  5
971F
331
978D
  5
978D
331
9766
  5
9766
331
9795
  5
9795
331
9727
  5
9727
331
979D
  5
979D
331
972F
  5
972F
331
97A5
  5
97A5
331
9737
  5
9737
331
97AD
  5
97AD
331
973F
  5
973F
331
9700
  5
9700
331
976E
  5
976E
331
9747
  5
9747
331
9708
  5
9708
331
9776
  5
9776
331
97B5
  5
97B5
331
97BD
  5
97BD
331
974F
  5
974F
331
977E
  5
977E
331
97C5
  5
97CF
331
9786
  5
9786
331
9710
  5
9710
331
9757
  5
9757
331
9718
  5
9718
331
97CD
  5
97C8
331
975F
  5
975F
331
9720
  5
9720
331
978E
  5
978E
331
9767
  5
9767
331
9796
  5
9796
331
9728
  5
9728
331
979E
  5
979E
331
97A6
  5
97A6
331
9730
  5
9730
331
9738
  5
9738
331
97AE
  5
97AE
331
9740
  5
9740
331
9701
  5
9701
331
976F
  5
976F
331
97B6
  5
97B6
331
9748
  5
9748
331
9709
  5
9709
331
9777
  5
9777
331
97BE
  5
97BE
331
977F
  5
977F
331
9787
  5
9787
331
9750
  5
9750
331
9711
  5
9711
331
9758
  5
9758
331
9719
  5
9719
331
97CE
  5
97C7
331
9760
  5
9760
331
9721
  5
9721
331
978F
  5
978F
331
9729
  5
9729
331
9797
  5
9797
331
979F
  5
979F
331
97A7
  5
97A7
331
9731
  5
9731
331
9739
  5
9739
331
9768
  5
9768
331
9741
  5
9741
331
9702
  5
9702
331
9770
  5
9770
331
97AF
  5
97AF
331
97B7
  5
97B7
331
9749
  5
9749
331
970A
  5
970A
331
9778
  5
9778
331
97BF
  5
97BF
331
9780
  5
9780
331
97C7
  5
97CE
331
9712
  5
9712
331
9751
  5
9751
331
9788
  5
9788
331
9759
  5
9759
331
971A
  5
971A
331
97CF
  5
97C5
331
9761
  5
9761
331
9790
  5
9790
331
9722
  5
9722
331
9798
  5
9798
331
972A
  5
972A
331
97A0
  5
97A0
  0
SORTENTSTABLE
  5
ABDA
102
{ACAD_REACTORS
330
ABD9
102
}
330
ABD9
100
AcDbSortentsTable
330
9993
331
ABD7
  5
ABD8
331
ABD8
  5
ABD7
  0
XRECORD
  5
AC22
102
{ACAD_REACTORS
330
AC21
102
}
330
AC21
100
AcDbXrecord
280
     1
 40
14753640.0
  1
\pxqc;The information provided is for guide only and must be used along side professional architectural/structural design. Professional architectural/structural design takes preference with any conflicting areas of the building design.\PAll documents
  1
 or data downloaded from www.mpb.co.nz or emailed from MASONS Plastabrick Limited is the intellectual property of MASONS Plastabrick Limited. MASONS Plastabrick Limited takes no responsibility for any of the documents or data being used for any other
  1
 purpose than for professional architectural/structural design.
  0
XRECORD
  5
16C2
102
{ACAD_REACTORS
330
16C1
102
}
330
16C1
100
AcDbXrecord
280
     1
 90
        1
340
2A2
  0
XRECORD
  5
97F9
102
{ACAD_REACTORS
330
97F8
102
}
330
97F8
100
AcDbXrecord
280
     1
 90
        1
340
A7D
  0
LAYOUT
  5
16BA
102
{ACAD_XDICTIONARY
360
170C
102
}
102
{ACAD_REACTORS
330
1A
102
}
330
1A
100
AcDbPlotSettings
  1

  2
DWF6 ePlot.pc3
  4
ISO_full_bleed_A4_(210.00_x_297.00_MM)
  6

 40
0.7937499880790711
 41
0.7937499880790711
 42
0.7937469482421875
 43
0.79376220703125
 44
210.0
 45
297.0
 46
0.0
 47
0.0
 48
0.0
 49
0.0
140
0.0
141
0.0
142
1.0
143
1.0
 70
   672
 72
     1
 73
     1
 74
     5
  7

 75
    16
147
25.4
 76
     0
 77
     2
 78
   300
148
0.0
149
0.0
100
AcDbLayout
  1
1
 70
     1
 71
     1
 10
-0.79376220703125
 20
-0.7937499880790711
 11
296.2062377929687
 21
209.2062500119209
 12
0.0
 22
0.0
 32
0.0
 14
0.0014770624390508
 24
0.0010420625153245
 34
0.0
 15
295.4110107424506
 25
208.4114610011634
 35
0.0
146
0.0
 13
0.0
 23
0.0
 33
0.0
 16
1.0
 26
0.0
 36
0.0
 17
0.0
 27
1.0
 37
0.0
 76
     0
330
16B9
331
16C0
1001
ACAD_PSEXT
1000
DWF6 ePlot.pc3
1000
DWF6 ePlot
1000
File
1000

1070
     0
  0
LAYOUT
  5
22
102
{ACAD_XDICTIONARY
360
9911
102
}
102
{ACAD_REACTORS
330
1A
102
}
330
1A
100
AcDbPlotSettings
  1

  2
none_device
  4
Letter_(8.50_x_11.00_Inches)
  6

 40
6.4
 41
6.4
 42
6.4
 43
6.4
 44
215.8999938964844
 45
279.3999938964844
 46
21.082
 47
0.0
 48
0.0
 49
0.0
140
0.0
141
0.0
142
1.0
143
1.558974244562341
 70
 11924
 72
     0
 73
     1
 74
     0
  7

 75
     0
147
0.6414474154964215
 76
     0
 77
     2
 78
   300
148
42.66874504805538
149
1.074921630094033
100
AcDbLayout
  1
Model
 70
     1
 71
     0
 10
0.0
 20
0.0
 11
12.0
 21
9.0
 12
0.0
 22
0.0
 32
0.0
 14
0.0
 24
0.0
 34
0.0
 15
0.0
 25
0.0
 35
0.0
146
0.0
 13
0.0
 23
0.0
 33
0.0
 16
1.0
 26
0.0
 36
0.0
 17
0.0
 27
1.0
 37
0.0
 76
     0
330
1F
331
215
  0
MATERIAL
  5
218
102
{ACAD_REACTORS
330
EA
102
}
330
EA
100
AcDbMaterial
  1
ByBlock
 73
     1
 78
     1
172
     1
176
     1
270
     1
274
     1
 94
       63
  0
MATERIAL
  5
217
102
{ACAD_REACTORS
330
EA
102
}
330
EA
100
AcDbMaterial
  1
ByLayer
 73
     1
 78
     1
172
     1
176
     1
270
     1
274
     1
 94
       63
  0
MATERIAL
  5
219
102
{ACAD_REACTORS
330
EA
102
}
330
EA
100
AcDbMaterial
  1
Global
 73
     1
 78
     1
172
     1
176
     1
270
     1
274
     1
 94
       63
  0
MLEADERSTYLE
  5
389
102
{ACAD_REACTORS
330
2C3
102
}
330
2C3
100
AcDbMLeaderStyle
170
     2
171
     1
172
     0
 90
        2
 40
0.0
 41
0.0
173
     1
 91
-1073741824
340
15
 92
       -1
290
     1
 42
2.0
291
     0
 43
0.0
  3
Standard
 44
4.0
300

342
380
174
     1
178
     1
175
     1
176
     0
 93
-1073741824
 45
2.0
292
     0
297
     0
 46
4.0
343
356
 94
-1056964608
 47
1.0
 49
1.0
140
1.0
293
     1
141
0.0
294
     1
177
     0
142
0.0
295
     0
296
     1
143
0.0
1001
ACAD_MLEADERVER
1070
     2
  0
MLEADERSTYLE
  5
2C4
102
{ACAD_REACTORS
330
2C3
102
}
330
2C3
100
AcDbMLeaderStyle
170
     2
171
     1
172
     0
 90
        2
 40
0.0
 41
0.0
173
     1
 91
-1056964608
340
14
 92
       -2
290
     1
 42
0.09
291
     1
 43
0.36
  3
Standard
 44
0.18
300

342
11
174
     1
178
     6
175
     1
176
     0
 93
-1056964608
 45
0.18
292
     0
297
     0
 46
0.18
 94
-1056964608
 47
1.0
 49
1.0
140
1.0
293
     1
141
0.0
294
     1
177
     0
142
1.0
295
     0
296
     0
143
0.125
1001
ACAD_MLEADERVER
1070
     2
  0
MLINESTYLE
  5
ABDB
102
{ACAD_REACTORS
330
17
102
}
330
17
100
AcDbMlineStyle
  2
MP000096$0$STANDARD
 70
     0
  3

 62
   256
 51
90.0
 52
90.0
 71
     2
 49
0.5
 62
   256
  6
BYLAYER
 49
-0.5
 62
   256
  6
BYLAYER
  0
MLINESTYLE
  5
18
102
{ACAD_REACTORS
330
17
102
}
330
17
100
AcDbMlineStyle
  2
STANDARD
 70
     0
  3

 62
   256
 51
90.0
 52
90.0
 71
     2
 49
0.5
 62
   256
  6
BYLAYER
 49
-0.5
 62
   256
  6
BYLAYER
  0
ACDBPLACEHOLDER
  5
F
102
{ACAD_REACTORS
330
E
102
}
330
E
  0
SCALE
  5
7376
102
{ACAD_REACTORS
330
2A1
102
}
330
2A1
100
AcDbScale
 70
     0
300
1:2_XREF
140
1.0
141
2.0
290
     0
  0
SCALE
  5
738C
102
{ACAD_REACTORS
330
2A1
102
}
330
2A1
100
AcDbScale
 70
     0
300
1:150_XREF
140
1.0
141
150.0
290
     0
  0
SCALE
  5
7392
102
{ACAD_REACTORS
330
2A1
102
}
330
2A1
100
AcDbScale
 70
     0
300
1:25_XREF
140
1.0
141
25.0
290
     0
  0
SCALE
  5
737D
102
{ACAD_REACTORS
330
2A1
102
}
330
2A1
100
AcDbScale
 70
     0
300
1:30_XREF
140
1.0
141
30.0
290
     0
  0
SCALE
  5
7377
102
{ACAD_REACTORS
330
2A1
102
}
330
2A1
100
AcDbScale
 70
     0
300
1:750_XREF
140
1.0
141
750.0
290
     0
  0
SCALE
  5
73A1
102
{ACAD_REACTORS
330
2A1
102
}
330
2A1
100
AcDbScale
 70
     0
300
1-1/2" = 1'-0"_XREF
140
1.5
141
12.0
290
     0
  0
SCALE
  5
737B
102
{ACAD_REACTORS
330
2A1
102
}
330
2A1
100
AcDbScale
 70
     0
300
1:8_XREF
140
1.0
141
8.0
290
     0
  0
SCALE
  5
737C
102
{ACAD_REACTORS
330
2A1
102
}
330
2A1
100
AcDbScale
 70
     0
300
1:16_XREF
140
1.0
141
16.0
290
     0
  0
SCALE
  5
73B0
102
{ACAD_REACTORS
330
2A1
102
}
330
2A1
100
AcDbScale
 70
     0
300
*1:750_XREF
140
1.0
141
750.0
290
     0
  0
SCALE
  5
7378
102
{ACAD_REACTORS
330
2A1
102
}
330
2A1
100
AcDbScale
 70
     0
300
1:2500_XREF
140
1.0
141
2500.0
290
     0
  0
SCALE
  5
7398
102
{ACAD_REACTORS
330
2A1
102
}
330
2A1
100
AcDbScale
 70
     0
300
1/64" = 1'-0"_XREF
140
0.015625
141
12.0
290
     0
  0
SCALE
  5
7385
102
{ACAD_REACTORS
330
2A1
102
}
330
2A1
100
AcDbScale
 70
     0
300
10:1_XREF
140
10.0
141
1.0
290
     0
  0
SCALE
  5
737F
102
{ACAD_REACTORS
330
2A1
102
}
330
2A1
100
AcDbScale
 70
     0
300
1:7.5_XREF
140
1.0
141
7.5
290
     0
  0
SCALE
  5
73A7
102
{ACAD_REACTORS
330
2A1
102
}
330
2A1
100
AcDbScale
 70
     0
300
*1:2000_XREF
140
1.0
141
2000.0
290
     0
  0
SCALE
  5
7383
102
{ACAD_REACTORS
330
2A1
102
}
330
2A1
100
AcDbScale
 70
     0
300
4:1_XREF
140
4.0
141
1.0
290
     0
  0
SCALE
  5
7384
102
{ACAD_REACTORS
330
2A1
102
}
330
2A1
100
AcDbScale
 70
     0
300
8:1_XREF
140
8.0
141
1.0
290
     0
  0
SCALE
  5
73B3
102
{ACAD_REACTORS
330
2A1
102
}
330
2A1
100
AcDbScale
 70
     0
300
*1-40_XREF
140
1.0
141
40.0
290
     0
  0
SCALE
  5
7380
102
{ACAD_REACTORS
330
2A1
102
}
330
2A1
100
AcDbScale
 70
     0
300
1/32" = 1'-0"_XREF
140
0.03125
141
12.0
290
     0
  0
SCALE
  5
739D
102
{ACAD_REACTORS
330
2A1
102
}
330
2A1
100
AcDbScale
 70
     0
300
3/8" = 1'-0"_XREF
140
0.375
141
12.0
290
     0
  0
SCALE
  5
7387
102
{ACAD_REACTORS
330
2A1
102
}
330
2A1
100
AcDbScale
 70
     0
300
1:200_XREF
140
1.0
141
200.0
290
     0
  0
SCALE
  5
73AB
102
{ACAD_REACTORS
330
2A1
102
}
330
2A1
100
AcDbScale
 70
     0
300
*1:2500_XREF
140
1.0
141
2500.0
290
     0
  0
SCALE
  5
738A
102
{ACAD_REACTORS
330
2A1
102
}
330
2A1
100
AcDbScale
 70
     0
300
1:75_XREF
140
1.0
141
75.0
290
     0
  0
SCALE
  5
738B
102
{ACAD_REACTORS
330
2A1
102
}
330
2A1
100
AcDbScale
 70
     0
300
1:2000_XREF
140
1.0
141
2000.0
290
     0
  0
SCALE
  5
737E
102
{ACAD_REACTORS
330
2A1
102
}
330
2A1
100
AcDbScale
 70
     0
300
1:5000_XREF
140
1.0
141
5000.0
290
     0
  0
SCALE
  5
7388
102
{ACAD_REACTORS
330
2A1
102
}
330
2A1
100
AcDbScale
 70
     0
300
1:20_XREF
140
1.0
141
20.0
290
     0
  0
SCALE
  5
73A2
102
{ACAD_REACTORS
330
2A1
102
}
330
2A1
100
AcDbScale
 70
     0
300
6" = 1'-0"_XREF
140
6.0
141
12.0
290
     0
  0
SCALE
  5
738E
102
{ACAD_REACTORS
330
2A1
102
}
330
2A1
100
AcDbScale
 70
     0
300
1:2.5_XREF
140
1.0
141
2.5
290
     0
  0
SCALE
  5
73AF
102
{ACAD_REACTORS
330
2A1
102
}
330
2A1
100
AcDbScale
 70
     0
300
*1:5000_XREF
140
1.0
141
5000.0
290
     0
  0
SCALE
  5
7391
102
{ACAD_REACTORS
330
2A1
102
}
330
2A1
100
AcDbScale
 70
     0
300
1:1250_XREF
140
1.0
141
1250.0
290
     0
  0
SCALE
  5
7386
102
{ACAD_REACTORS
330
2A1
102
}
330
2A1
100
AcDbScale
 70
     0
300
1/16" = 1'-0"_XREF
140
0.0625
141
12.0
290
     0
  0
SCALE
  5
738F
102
{ACAD_REACTORS
330
2A1
102
}
330
2A1
100
AcDbScale
 70
     0
300
1:500_XREF
140
1.0
141
500.0
290
     0
  0
SCALE
  5
737A
102
{ACAD_REACTORS
330
2A1
102
}
330
2A1
100
AcDbScale
 70
     0
300
1:4_XREF
140
1.0
141
4.0
290
     0
  0
SCALE
  5
7394
102
{ACAD_REACTORS
330
2A1
102
}
330
2A1
100
AcDbScale
 70
     0
300
1:100_XREF
140
1.0
141
100.0
290
     0
  0
SCALE
  5
73B2
102
{ACAD_REACTORS
330
2A1
102
}
330
2A1
100
AcDbScale
 70
     0
300
*1:4_XREF
140
1.0
141
4.0
290
     0
  0
SCALE
  5
7397
102
{ACAD_REACTORS
330
2A1
102
}
330
2A1
100
AcDbScale
 70
     0
300
1/128" = 1'-0"_XREF
140
0.0078125
141
12.0
290
     0
  0
SCALE
  5
738D
102
{ACAD_REACTORS
330
2A1
102
}
330
2A1
100
AcDbScale
 70
     0
300
1/2" = 1'-0"_XREF
140
0.5
141
12.0
290
     0
  0
SCALE
  5
7395
102
{ACAD_REACTORS
330
2A1
102
}
330
2A1
100
AcDbScale
 70
     0
300
1:5_XREF
140
1.0
141
5.0
290
     0
  0
SCALE
  5
7382
102
{ACAD_REACTORS
330
2A1
102
}
330
2A1
100
AcDbScale
 70
     0
300
2:1_XREF
140
2.0
141
1.0
290
     0
  0
SCALE
  5
739A
102
{ACAD_REACTORS
330
2A1
102
}
330
2A1
100
AcDbScale
 70
     0
300
3/32" = 1'-0"_XREF
140
0.09375
141
12.0
290
     0
  0
SCALE
  5
7379
102
{ACAD_REACTORS
330
2A1
102
}
330
2A1
100
AcDbScale
 70
     0
300
1/4" = 1'-0"_XREF
140
0.25
141
12.0
290
     0
  0
SCALE
  5
7393
102
{ACAD_REACTORS
330
2A1
102
}
330
2A1
100
AcDbScale
 70
     0
300
1'-0" = 1'-0"_XREF
140
12.0
141
12.0
290
     0
  0
SCALE
  5
739B
102
{ACAD_REACTORS
330
2A1
102
}
330
2A1
100
AcDbScale
 70
     0
300
1/8" = 1'-0"_XREF
140
0.125
141
12.0
290
     0
  0
SCALE
  5
7389
102
{ACAD_REACTORS
330
2A1
102
}
330
2A1
100
AcDbScale
 70
     0
300
1:50_XREF
140
1.0
141
50.0
290
     0
  0
SCALE
  5
739F
102
{ACAD_REACTORS
330
2A1
102
}
330
2A1
100
AcDbScale
 70
     0
300
3/4" = 1'-0"_XREF
140
0.75
141
12.0
290
     0
  0
SCALE
  5
7381
102
{ACAD_REACTORS
330
2A1
102
}
330
2A1
100
AcDbScale
 70
     0
300
3" = 1'-0"_XREF
140
3.0
141
12.0
290
     0
  0
SCALE
  5
7399
102
{ACAD_REACTORS
330
2A1
102
}
330
2A1
100
AcDbScale
 70
     0
300
1:40_XREF
140
1.0
141
40.0
290
     0
  0
SCALE
  5
73A0
102
{ACAD_REACTORS
330
2A1
102
}
330
2A1
100
AcDbScale
 70
     0
300
1" = 1'-0"_XREF
140
1.0
141
12.0
290
     0
  0
SCALE
  5
7390
102
{ACAD_REACTORS
330
2A1
102
}
330
2A1
100
AcDbScale
 70
     0
300
1:1000_XREF
140
1.0
141
1000.0
290
     0
  0
SCALE
  5
73A5
102
{ACAD_REACTORS
330
2A1
102
}
330
2A1
100
AcDbScale
 70
     0
300
*1:1000_XREF
140
1.0
141
1000.0
290
     0
  0
SCALE
  5
739E
102
{ACAD_REACTORS
330
2A1
102
}
330
2A1
100
AcDbScale
 70
     0
300
100:1_XREF
140
100.0
141
1.0
290
     0
  0
SCALE
  5
73A6
102
{ACAD_REACTORS
330
2A1
102
}
330
2A1
100
AcDbScale
 70
     0
300
*1:15_XREF
140
1.0
141
15.0
290
     0
  0
SCALE
  5
7396
102
{ACAD_REACTORS
330
2A1
102
}
330
2A1
100
AcDbScale
 70
     0
300
1:10_XREF
140
1.0
141
10.0
290
     0
  0
SCALE
  5
73A9
102
{ACAD_REACTORS
330
2A1
102
}
330
2A1
100
AcDbScale
 70
     0
300
*1:25_XREF
140
1.0
141
25.0
290
     0
  0
SCALE
  5
73A3
102
{ACAD_REACTORS
330
2A1
102
}
330
2A1
100
AcDbScale
 70
     0
300
1:250_XREF
140
1.0
141
250.0
290
     0
  0
SCALE
  5
73AA
102
{ACAD_REACTORS
330
2A1
102
}
330
2A1
100
AcDbScale
 70
     0
300
*1:250_XREF
140
1.0
141
250.0
290
     0
  0
SCALE
  5
739C
102
{ACAD_REACTORS
330
2A1
102
}
330
2A1
100
AcDbScale
 70
     0
300
3/16" = 1'-0"_XREF
140
0.1875
141
12.0
290
     0
  0
SCALE
  5
73AD
102
{ACAD_REACTORS
330
2A1
102
}
330
2A1
100
AcDbScale
 70
     0
300
*1:400_XREF
140
1.0
141
400.0
290
     0
  0
SCALE
  5
73A8
102
{ACAD_REACTORS
330
2A1
102
}
330
2A1
100
AcDbScale
 70
     0
300
*1:2.5_XREF
140
1.0
141
2.5
290
     0
  0
SCALE
  5
73AE
102
{ACAD_REACTORS
330
2A1
102
}
330
2A1
100
AcDbScale
 70
     0
300
*1:500_XREF
140
1.0
141
500.0
290
     0
  0
SCALE
  5
73B1
102
{ACAD_REACTORS
330
2A1
102
}
330
2A1
100
AcDbScale
 70
     0
300
*1:8_XREF
140
1.0
141
8.0
290
     0
  0
SCALE
  5
73AC
102
{ACAD_REACTORS
330
2A1
102
}
330
2A1
100
AcDbScale
 70
     0
300
*1:40_XREF
140
1.0
141
40.0
290
     0
  0
SCALE
  5
4739
102
{ACAD_REACTORS
330
2A1
102
}
330
2A1
100
AcDbScale
 70
     0
300
*1:0.1
140
1.0
141
0.1
290
     0
  0
SCALE
  5
475B
102
{ACAD_REACTORS
330
2A1
102
}
330
2A1
100
AcDbScale
 70
     0
300
*1:0.5
140
1.0
141
0.5
290
     0
  0
SCALE
  5
A6E
102
{ACAD_REACTORS
330
2A1
102
}
330
2A1
100
AcDbScale
 70
     0
300
*1:1
140
1.0
141
1.0
290
     0
  0
SCALE
  5
475C
102
{ACAD_REACTORS
330
2A1
102
}
330
2A1
100
AcDbScale
 70
     0
300
*1:2.5
140
1.0
141
2.5
290
     0
  0
SCALE
  5
475D
102
{ACAD_REACTORS
330
2A1
102
}
330
2A1
100
AcDbScale
 70
     0
300
*1:25
140
1.0
141
25.0
290
     0
  0
SCALE
  5
475E
102
{ACAD_REACTORS
330
2A1
102
}
330
2A1
100
AcDbScale
 70
     0
300
*1:250
140
1.0
141
250.0
290
     0
  0
SCALE
  5
475F
102
{ACAD_REACTORS
330
2A1
102
}
330
2A1
100
AcDbScale
 70
     0
300
*1:2500
140
1.0
141
2500.0
290
     0
  0
SCALE
  5
4760
102
{ACAD_REACTORS
330
2A1
102
}
330
2A1
100
AcDbScale
 70
     0
300
*1:40
140
1.0
141
40.0
290
     0
  0
SCALE
  5
4761
102
{ACAD_REACTORS
330
2A1
102
}
330
2A1
100
AcDbScale
 70
     0
300
*1:400
140
1.0
141
400.0
290
     0
  0
SCALE
  5
A7D
102
{ACAD_REACTORS
330
2A1
102
}
330
2A1
100
AcDbScale
 70
     0
300
*1:5
140
1.0
141
5.0
290
     0
  0
SCALE
  5
A7E
102
{ACAD_REACTORS
330
2A1
102
}
330
2A1
100
AcDbScale
 70
     0
300
*1:50
140
1.0
141
50.0
290
     0
  0
SCALE
  5
4762
102
{ACAD_REACTORS
330
2A1
102
}
330
2A1
100
AcDbScale
 70
     0
300
*1:500
140
1.0
141
500.0
290
     0
  0
SCALE
  5
4763
102
{ACAD_REACTORS
330
2A1
102
}
330
2A1
100
AcDbScale
 70
     0
300
*1:5000
140
1.0
141
5000.0
290
     0
  0
SCALE
  5
A6F
102
{ACAD_REACTORS
330
2A1
102
}
330
2A1
100
AcDbScale
 70
     0
300
*1:10
140
1.0
141
10.0
290
     0
  0
SCALE
  5
4764
102
{ACAD_REACTORS
330
2A1
102
}
330
2A1
100
AcDbScale
 70
     0
300
*1:750
140
1.0
141
750.0
290
     0
  0
SCALE
  5
4765
102
{ACAD_REACTORS
330
2A1
102
}
330
2A1
100
AcDbScale
 70
     0
300
*1:8
140
1.0
141
8.0
290
     0
  0
SCALE
  5
4766
102
{ACAD_REACTORS
330
2A1
102
}
330
2A1
100
AcDbScale
 70
     0
300
*1:15
140
1.0
141
15.0
290
     0
  0
SCALE
  5
A71
102
{ACAD_REACTORS
330
2A1
102
}
330
2A1
100
AcDbScale
 70
     0
300
*1:100
140
1.0
141
100.0
290
     0
  0
SCALE
  5
4767
102
{ACAD_REACTORS
330
2A1
102
}
330
2A1
100
AcDbScale
 70
     0
300
*1:1000
140
1.0
141
1000.0
290
     0
  0
SCALE
  5
4768
102
{ACAD_REACTORS
330
2A1
102
}
330
2A1
100
AcDbScale
 70
     0
300
*1:2
140
1.0
141
2.0
290
     0
  0
SCALE
  5
4769
102
{ACAD_REACTORS
330
2A1
102
}
330
2A1
100
AcDbScale
 70
     0
300
*1:20
140
1.0
141
20.0
290
     0
  0
SCALE
  5
A75
102
{ACAD_REACTORS
330
2A1
102
}
330
2A1
100
AcDbScale
 70
     0
300
*1:200
140
1.0
141
200.0
290
     0
  0
SCALE
  5
476A
102
{ACAD_REACTORS
330
2A1
102
}
330
2A1
100
AcDbScale
 70
     0
300
*1:2000
140
1.0
141
2000.0
290
     0
  0
SCALE
  5
2A2
102
{ACAD_REACTORS
330
2A1
102
}
330
2A1
100
AcDbScale
 70
     0
300
1:1
140
1.0
141
1.0
290
     1
  0
TABLESTYLE
  5
ABDC
102
{ACAD_XDICTIONARY
360
ABDD
102
}
102
{ACAD_REACTORS
330
22B
102
}
330
22B
100
AcDbTableStyle
  3
Standard
 70
     0
 71
     0
 40
0.06
 41
0.06
280
     0
281
     0
  7
mp000096$0$Standard
140
0.18
170
     2
 62
     0
 63
     7
283
     0
 90
      512
 91
        0
  1

274
    -2
284
     1
 64
     0
275
    -2
285
     1
 65
     0
276
    -2
286
     1
 66
     0
277
    -2
287
     1
 67
     0
278
    -2
288
     1
 68
     0
279
    -2
289
     1
 69
     0
  7
mp000096$0$Standard
140
0.25
170
     5
 62
     0
 63
     7
283
     0
 90
      512
 91
        0
  1

274
    -2
284
     1
 64
     0
275
    -2
285
     1
 65
     0
276
    -2
286
     1
 66
     0
277
    -2
287
     1
 67
     0
278
    -2
288
     1
 68
     0
279
    -2
289
     1
 69
     0
  7
mp000096$0$Standard
140
0.18
170
     5
 62
     0
 63
     7
283
     0
 90
      512
 91
        0
  1

274
    -2
284
     1
 64
     0
275
    -2
285
     1
 65
     0
276
    -2
286
     1
 66
     0
277
    -2
287
     1
 67
     0
278
    -2
288
     1
 68
     0
279
    -2
289
     1
 69
     0
  0
TABLESTYLE
  5
22C
102
{ACAD_XDICTIONARY
360
30E
102
}
102
{ACAD_REACTORS
330
22B
102
}
330
22B
100
AcDbTableStyle
  3
Standard
 70
     0
 71
     0
 40
0.06
 41
0.06
280
     0
281
     0
  7
Standard
140
0.18
170
     2
 62
     0
 63
     7
283
     0
 90
      512
 91
        0
  1

274
    -2
284
     1
 64
     0
275
    -2
285
     1
 65
     0
276
    -2
286
     1
 66
     0
277
    -2
287
     1
 67
     0
278
    -2
288
     1
 68
     0
279
    -2
289
     1
 69
     0
  7
Standard
140
0.25
170
     5
 62
     0
 63
     7
283
     0
 90
      512
 91
        0
  1

274
    -2
284
     1
 64
     0
275
    -2
285
     1
 65
     0
276
    -2
286
     1
 66
     0
277
    -2
287
     1
 67
     0
278
    -2
288
     1
 68
     0
279
    -2
289
     1
 69
     0
  7
Standard
140
0.18
170
     5
 62
     0
 63
     7
283
     0
 90
      512
 91
        0
  1

274
    -2
284
     1
 64
     0
275
    -2
285
     1
 65
     0
276
    -2
286
     1
 66
     0
277
    -2
287
     1
 67
     0
278
    -2
288
     1
 68
     0
279
    -2
289
     1
 69
     0
  0
VISUALSTYLE
  5
220
102
{ACAD_REACTORS
330
21A
102
}
330
21A
100
AcDbVisualStyle
  2
2dWireframe
 70
     4
 71
     0
 72
     2
 73
     1
 90
        0
 40
-0.6
 41
-30.0
 62
     5
 63
     7
421
 16777215
 74
     1
 91
        4
 64
     7
 65
   257
 75
     1
175
     1
 42
1.0
 92
        0
 66
   257
 43
1.0
 76
     1
 77
     6
 78
     2
 67
     7
 79
     5
170
     0
171
     0
290
     0
174
     0
 93
        1
 44
0.0
173
     0
291
     0
 45
0.0
  0
VISUALSTYLE
  5
222
102
{ACAD_REACTORS
330
21A
102
}
330
21A
100
AcDbVisualStyle
  2
3D Hidden
 70
     6
 71
     1
 72
     2
 73
     2
 90
        0
 40
-0.6
 41
-30.0
 62
     5
 63
     7
421
 16777215
 74
     2
 91
       10
 64
     7
 65
   257
 75
     2
175
     2
 42
40.0
 92
        0
 66
   257
 43
1.0
 76
     1
 77
     6
 78
     2
 67
     7
 79
     3
170
     0
171
     0
290
     0
174
     0
 93
        1
 44
0.0
173
     0
291
     0
 45
0.0
  0
VISUALSTYLE
  5
221
102
{ACAD_REACTORS
330
21A
102
}
330
21A
100
AcDbVisualStyle
  2
3dWireframe
 70
     5
 71
     0
 72
     2
 73
     1
 90
        0
 40
-0.6
 41
-30.0
 62
     5
 63
     7
421
 16777215
 74
     1
 91
        4
 64
     7
 65
   257
 75
     1
175
     1
 42
1.0
 92
        0
 66
   257
 43
1.0
 76
     1
 77
     6
 78
     2
 67
     7
 79
     5
170
     0
171
     0
290
     0
174
     0
 93
        1
 44
0.0
173
     0
291
     0
 45
0.0
  0
VISUALSTYLE
  5
21F
102
{ACAD_REACTORS
330
21A
102
}
330
21A
100
AcDbVisualStyle
  2
Basic
 70
     7
 71
     1
 72
     0
 73
     1
 90
        0
 40
-0.6
 41
-30.0
 62
     5
 63
     7
421
 16777215
 74
     0
 91
        4
 64
     7
 65
   257
 75
     1
175
     1
 42
1.0
 92
        8
 66
     7
 43
1.0
 76
     1
 77
     6
 78
     2
 67
     7
 79
     5
170
     0
171
     0
290
     0
174
     0
 93
        1
 44
0.0
173
     0
291
     1
 45
0.0
  0
VISUALSTYLE
  5
226
102
{ACAD_REACTORS
330
21A
102
}
330
21A
100
AcDbVisualStyle
  2
Brighten
 70
    12
 71
     2
 72
     2
 73
     1
 90
        0
 40
-0.6
 41
-30.0
 62
     5
 63
     7
421
 16777215
 74
     1
 91
        4
 64
     7
 65
   257
 75
     1
175
     1
 42
1.0
 92
        8
 66
     7
 43
1.0
 76
     1
 77
     6
 78
     2
 67
     7
 79
     5
170
     0
171
     0
290
     0
174
     0
 93
        1
 44
50.0
173
     0
291
     1
 45
0.0
  0
VISUALSTYLE
  5
22A
102
{ACAD_REACTORS
330
21A
102
}
330
21A
100
AcDbVisualStyle
  2
ColorChange
 70
    16
 71
     2
 72
     2
 73
     3
 90
        0
 40
-0.6
 41
-30.0
 62
     5
 63
     8
421
  8421504
 74
     1
 91
        4
 64
     7
 65
   257
 75
     1
175
     1
 42
1.0
 92
        8
 66
     8
424
  8421504
 43
1.0
 76
     1
 77
     6
 78
     2
 67
     7
 79
     5
170
     0
171
     0
290
     0
174
     0
 93
        1
 44
0.0
173
     0
291
     1
 45
0.0
  0
VISUALSTYLE
  5
223
102
{ACAD_XDICTIONARY
360
811
102
}
102
{ACAD_REACTORS
330
21A
102
}
330
21A
100
AcDbVisualStyle
  2
Conceptual
 70
     9
 71
     2
 72
     2
 73
     1
 90
        0
 40
-0.6
 41
-30.0
 62
     5
 63
     7
421
 16777215
 74
     0
 91
        0
 64
     7
 65
   257
 75
     1
175
     1
 42
40.0
 92
        8
 66
     7
 43
1.0
 76
     1
 77
     6
 78
     2
 67
     7
 79
     5
170
     0
171
     0
290
     0
174
     0
 93
       12
 44
0.0
173
     0
291
     0
 45
0.0
  0
VISUALSTYLE
  5
225
102
{ACAD_REACTORS
330
21A
102
}
330
21A
100
AcDbVisualStyle
  2
Dim
 70
    11
 71
     2
 72
     2
 73
     1
 90
        0
 40
-0.6
 41
-30.0
 62
     5
 63
     7
421
 16777215
 74
     1
 91
        4
 64
     7
 65
   257
 75
     1
175
     1
 42
1.0
 92
        8
 66
     7
 43
1.0
 76
     1
 77
     6
 78
     2
 67
     7
 79
     5
170
     0
171
     0
290
     0
174
     0
 93
        1
 44
-50.0
173
     0
291
     1
 45
0.0
  0
VISUALSTYLE
  5
229
102
{ACAD_REACTORS
330
21A
102
}
330
21A
100
AcDbVisualStyle
  2
Facepattern
 70
    15
 71
     2
 72
     2
 73
     1
 90
        0
 40
-0.6
 41
-30.0
 62
     5
 63
     7
421
 16777215
 74
     1
 91
        4
 64
     7
 65
   257
 75
     1
175
     1
 42
1.0
 92
        8
 66
     7
 43
1.0
 76
     1
 77
     6
 78
     2
 67
     7
 79
     5
170
     0
171
     0
290
     0
174
     0
 93
        1
 44
0.0
173
     0
291
     1
 45
0.0
  0
VISUALSTYLE
  5
21B
102
{ACAD_REACTORS
330
21A
102
}
330
21A
100
AcDbVisualStyle
  2
Flat
 70
     0
 71
     2
 72
     1
 73
     1
 90
        2
 40
-0.6
 41
30.0
 62
     5
 63
     7
421
 16777215
 74
     0
 91
        4
 64
     7
 65
   257
 75
     1
175
     1
 42
1.0
 92
        8
 66
     7
 43
1.0
 76
     1
 77
     6
 78
     2
 67
     7
 79
     5
170
     0
171
     0
290
     0
174
     0
 93
        1
 44
0.0
173
     0
291
     1
 45
0.0
  0
VISUALSTYLE
  5
21C
102
{ACAD_REACTORS
330
21A
102
}
330
21A
100
AcDbVisualStyle
  2
FlatWithEdges
 70
     1
 71
     2
 72
     1
 73
     1
 90
        2
 40
-0.6
 41
30.0
 62
     5
 63
     7
421
 16777215
 74
     1
 91
        4
 64
     7
 65
   257
 75
     1
175
     1
 42
1.0
 92
        0
 66
   257
 43
1.0
 76
     1
 77
     6
 78
     2
 67
     7
 79
     5
170
     0
171
     0
290
     0
174
     0
 93
        1
 44
0.0
173
     0
291
     1
 45
0.0
  0
VISUALSTYLE
  5
21D
102
{ACAD_REACTORS
330
21A
102
}
330
21A
100
AcDbVisualStyle
  2
Gouraud
 70
     2
 71
     2
 72
     2
 73
     1
 90
        2
 40
-0.6
 41
30.0
 62
     5
 63
     7
421
 16777215
 74
     0
 91
        4
 64
     7
 65
   257
 75
     1
175
     1
 42
1.0
 92
        0
 66
     7
 43
1.0
 76
     1
 77
     6
 78
     2
 67
     7
 79
     5
170
     0
171
     0
290
     0
174
     0
 93
        1
 44
0.0
173
     0
291
     1
 45
0.0
  0
VISUALSTYLE
  5
21E
102
{ACAD_REACTORS
330
21A
102
}
330
21A
100
AcDbVisualStyle
  2
GouraudWithEdges
 70
     3
 71
     2
 72
     2
 73
     1
 90
        2
 40
-0.6
 41
30.0
 62
     5
 63
     7
421
 16777215
 74
     1
 91
        4
 64
     7
 65
   257
 75
     1
175
     1
 42
1.0
 92
        0
 66
   257
 43
1.0
 76
     1
 77
     6
 78
     2
 67
     7
 79
     5
170
     0
171
     0
290
     0
174
     0
 93
        1
 44
0.0
173
     0
291
     1
 45
0.0
  0
VISUALSTYLE
  5
228
102
{ACAD_REACTORS
330
21A
102
}
330
21A
100
AcDbVisualStyle
  2
Linepattern
 70
    14
 71
     2
 72
     2
 73
     1
 90
        0
 40
-0.6
 41
-30.0
 62
     5
 63
     7
421
 16777215
 74
     1
 91
        4
 64
     7
 65
   257
 75
     7
175
     7
 42
1.0
 92
        8
 66
     7
 43
1.0
 76
     1
 77
     6
 78
     2
 67
     7
 79
     5
170
     0
171
     0
290
     0
174
     0
 93
        1
 44
0.0
173
     0
291
     1
 45
0.0
  0
VISUALSTYLE
  5
224
102
{ACAD_REACTORS
330
21A
102
}
330
21A
100
AcDbVisualStyle
  2
Realistic
 70
     8
 71
     2
 72
     2
 73
     1
 90
        0
 40
-0.6
 41
-30.0
 62
     5
 63
     7
421
 16777215
 74
     1
 91
        0
 64
     7
 65
   257
 75
     1
175
     1
 42
1.0
 92
        8
 66
     7
 43
1.0
 76
     1
 77
     6
 78
     2
 67
     7
 79
     5
170
     0
171
     0
290
     0
174
     0
 93
       13
 44
0.0
173
     0
291
     0
 45
0.0
  0
VISUALSTYLE
  5
227
102
{ACAD_REACTORS
330
21A
102
}
330
21A
100
AcDbVisualStyle
  2
Thicken
 70
    13
 71
     2
 72
     2
 73
     1
 90
        0
 40
-0.6
 41
-30.0
 62
     5
 63
     7
421
 16777215
 74
     1
 91
        4
 64
     7
 65
   257
 75
     1
175
     1
 42
1.0
 92
       12
 66
     7
 43
1.0
 76
     1
 77
     6
 78
     2
 67
     7
 79
     5
170
     0
171
     0
290
     0
174
     0
 93
        1
 44
0.0
173
     0
291
     1
 45
0.0
  0
DICTIONARY
  5
A22
102
{ACAD_REACTORS
330
A21
102
}
330
A21
100
AcDbDictionary
280
     1
281
     1
  3
DefaultStandard
360
A38
  3
Standards
360
A23
  0
DICTIONARYVAR
  5
313
102
{ACAD_REACTORS
330
25B
102
}
330
25B
100
DictionaryVariables
280
     0
  1
*1:5
  0
DICTIONARYVAR
  5
311
102
{ACAD_REACTORS
330
25B
102
}
330
25B
100
DictionaryVariables
280
     0
  1
2mm
  0
DICTIONARYVAR
  5
25C
102
{ACAD_REACTORS
330
25B
102
}
330
25B
100
DictionaryVariables
280
     0
  1
STANDARD
  0
DICTIONARYVAR
  5
315
102
{ACAD_REACTORS
330
25B
102
}
330
25B
100
DictionaryVariables
280
     0
  1
1
  0
DICTIONARYVAR
  5
316
102
{ACAD_REACTORS
330
25B
102
}
330
25B
100
DictionaryVariables
280
     0
  1
15
  0
DICTIONARYVAR
  5
314
102
{ACAD_REACTORS
330
25B
102
}
330
25B
100
DictionaryVariables
280
     0
  1
0
  0
DICTIONARYVAR
  5
A3E
102
{ACAD_REACTORS
330
25B
102
}
330
25B
100
DictionaryVariables
280
     0
  1
0.000000
  0
DICTIONARYVAR
  5
312
102
{ACAD_REACTORS
330
25B
102
}
330
25B
100
DictionaryVariables
280
     0
  1
0
  0
XRECORD
  5
3E44
102
{ACAD_REACTORS
330
3E43
102
}
330
3E43
100
AcDbXrecord
280
     1
330
0
330
0
330
0
  0
XRECORD
  5
3D97
102
{ACAD_XDICTIONARY
360
3D98
102
}
102
{ACAD_REACTORS
330
290
102
}
330
290
100
AcDbXrecord
280
     1
 91
      514
301

290
     0
302
0
330
0
 90
        8
 62
     7
370
    -3
331
16
  1
Color_7
330
0
 90
        8
 62
     7
370
    -3
331
16
  1
Color_7
330
0
 90
        8
 62
     7
370
    -3
331
16
  1
Color_7
330
0
 90
        0
 62
    30
370
    -3
331
16
  1
Color_30
330
0
 90
        8
 62
   252
370
    -3
331
16
  1
Color_252
330
0
 90
        8
 62
     3
370
    30
331
16
  1
Color_3
330
0
 90
        8
 62
   253
370
    -3
331
16
  1
Color_253
330
0
 90
        8
 62
     1
370
    -3
331
16
  1
Color_1
330
0
 90
        0
 62
     5
370
    -3
331
16
  1
Color_5
330
0
 90
        8
 62
     2
370
    -3
331
16
  1
Color_2
330
0
 90
        0
 62
   178
370
    -3
331
16
  1
Color_178
 92
-1039794079
330
0
 90
        8
 62
     7
370
    -3
331
16
  1
Color_7
330
0
 90
        8
 62
     7
370
    -3
331
16
  1
Color_7
330
0
 90
        8
 62
     7
370
    -3
331
16
  1
Color_7
330
0
 90
        8
 62
     7
370
    -3
331
16
  1
Color_7
330
0
 90
        8
 62
     7
370
    -3
331
16
  1
Color_7
330
0
 90
        0
 62
     4
370
    -3
331
16
  1
Color_4
330
0
 90
        0
 62
     7
370
    -3
331
16
  1
Color_7
330
37D
 90
        0
 62
     7
370
    -3
331
16
  1
Color_7
330
10
 90
        8
 62
     7
370
    -3
331
16
  1
Color_7
330
0
 90
       10
 62
     7
370
    -3
331
16
  1
Color_7
330
0
 90
       10
 62
     7
370
    -3
331
16
  1
Color_7
330
0
 90
       10
 62
     7
370
    -3
331
16
  1
Color_7
330
0
 90
       10
 62
     7
370
    -3
331
16
  1
Color_7
330
0
 90
       10
 62
     7
370
    -3
331
16
  1
Color_7
330
0
 90
       10
 62
     7
370
    -3
331
16
  1
Color_7
330
0
 90
       10
 62
     7
370
    -3
331
16
  1
Color_7
330
0
 90
       10
 62
     7
370
    -3
331
16
  1
Color_7
330
0
 90
       10
 62
     7
370
    -3
331
16
  1
Color_7
330
0
 90
       10
 62
     7
370
    -3
331
16
  1
Color_7
330
0
 90
       10
 62
     7
370
    -3
331
16
  1
Color_7
330
0
 90
       10
 62
     7
370
    -3
331
16
  1
Color_7
330
0
 90
       10
 62
     7
370
    -3
331
16
  1
Color_7
330
0
 90
       10
 62
     7
370
    -3
331
16
  1
Color_7
330
0
 90
       10
 62
     7
370
    -3
331
16
  1
Color_7
330
0
 90
       10
 62
     7
370
    -3
331
16
  1
Color_7
330
0
 90
       10
 62
     7
370
    -3
331
16
  1
Color_7
330
0
 90
       10
 62
     7
370
    -3
331
16
  1
Color_7
330
0
 90
       10
 62
     7
370
    -3
331
16
  1
Color_7
330
0
 90
       10
 62
     7
370
    -3
331
16
  1
Color_7
330
0
 90
       10
 62
     7
370
    -3
331
16
  1
Color_7
330
0
 90
       10
 62
     7
370
    -3
331
16
  1
Color_7
330
0
 90
       10
 62
     7
370
    -3
331
16
  1
Color_7
330
0
 90
       10
 62
     7
370
    -3
331
16
  1
Color_7
330
0
 90
       10
 62
     7
370
    -3
331
16
  1
Color_7
330
0
 90
       10
 62
     7
370
    -3
331
16
  1
Color_7
330
0
 90
       10
 62
     7
370
    -3
331
16
  1
Color_7
330
0
 90
       10
 62
     7
370
    -3
331
16
  1
Color_7
330
0
 90
       10
 62
     7
370
    -3
331
16
  1
Color_7
330
0
 90
       10
 62
     7
370
    -3
331
16
  1
Color_7
330
0
 90
       10
 62
     7
370
    -3
331
16
  1
Color_7
330
0
 90
       10
 62
     7
370
    -3
331
16
  1
Color_7
330
0
 90
       10
 62
     7
370
    -3
331
16
  1
Color_7
330
0
 90
       10
 62
     7
370
    -3
331
16
  1
Color_7
330
0
 90
       10
 62
     7
370
    -3
331
16
  1
Color_7
330
0
 90
       10
 62
     7
370
    -3
331
16
  1
Color_7
330
0
 90
       10
 62
     7
370
    -3
331
16
  1
Color_7
330
0
 90
       10
 62
     7
370
    -3
331
16
  1
Color_7
330
0
 90
       10
 62
     7
370
    -3
331
16
  1
Color_7
330
0
 90
       10
 62
     7
370
    -3
331
16
  1
Color_7
330
0
 90
       10
 62
     7
370
    -3
331
16
  1
Color_7
330
0
 90
       10
 62
     7
370
    -3
331
16
  1
Color_7
330
0
 90
       10
 62
     7
370
    -3
331
16
  1
Color_7
330
0
 90
       10
 62
     7
370
    -3
331
16
  1
Color_7
330
0
 90
       10
 62
     7
370
    -3
331
16
  1
Color_7
330
0
 90
       10
 62
     7
370
    -3
331
16
  1
Color_7
330
0
 90
       10
 62
     7
370
    -3
331
16
  1
Color_7
330
0
 90
       10
 62
     7
370
    -3
331
16
  1
Color_7
330
0
 90
       10
 62
     7
370
    -3
331
16
  1
Color_7
330
0
 90
       10
 62
     7
370
    -3
331
16
  1
Color_7
330
0
 90
       10
 62
     7
370
    -3
331
16
  1
Color_7
330
0
 90
       10
 62
     7
370
    -3
331
16
  1
Color_7
330
0
 90
       10
 62
     7
370
    -3
331
16
  1
Color_7
330
0
 90
       10
 62
     7
370
    -3
331
16
  1
Color_7
330
0
 90
       10
 62
     7
370
    -3
331
16
  1
Color_7
330
0
 90
       10
 62
     7
370
    -3
331
16
  1
Color_7
330
0
 90
       10
 62
     7
370
    -3
331
16
  1
Color_7
330
0
 90
       10
 62
     7
370
    -3
331
16
  1
Color_7
330
0
 90
       10
 62
     7
370
    -3
331
16
  1
Color_7
  0
XRECORD
  5
3D8B
102
{ACAD_XDICTIONARY
360
3D8C
102
}
102
{ACAD_REACTORS
330
290
102
}
330
290
100
AcDbXrecord
280
     1
 91
      514
301

290
     0
302
0
330
0
 90
       10
 62
     7
370
    -3
331
16
  1
Color_7
330
0
 90
       10
 62
     7
370
    -3
331
16
  1
Color_7
330
0
 90
       10
 62
     7
370
    -3
331
16
  1
Color_7
330
0
 90
        2
 62
    30
370
    -3
331
16
  1
Color_30
330
0
 90
       10
 62
   252
370
    -3
331
16
  1
Color_252
330
0
 90
       10
 62
     3
370
    30
331
16
  1
Color_3
330
0
 90
       10
 62
   253
370
    -3
331
16
  1
Color_253
330
0
 90
       10
 62
     1
370
    -3
331
16
  1
Color_1
330
0
 90
        2
 62
     5
370
    -3
331
16
  1
Color_5
330
0
 90
       10
 62
     2
370
    -3
331
16
  1
Color_2
330
0
 90
        2
 62
   178
370
    -3
331
16
  1
Color_178
 92
-1039794079
330
0
 90
       10
 62
     7
370
    -3
331
16
  1
Color_7
330
0
 90
       10
 62
     7
370
    -3
331
16
  1
Color_7
330
0
 90
       10
 62
     7
370
    -3
331
16
  1
Color_7
330
0
 90
       10
 62
     7
370
    -3
331
16
  1
Color_7
330
0
 90
       10
 62
     7
370
    -3
331
16
  1
Color_7
330
0
 90
        2
 62
     4
370
    -3
331
16
  1
Color_4
330
0
 90
        2
 62
     7
370
    -3
331
16
  1
Color_7
330
10
 90
        8
 62
     7
370
    -3
331
16
  1
Color_7
330
37D
 90
        0
 62
     7
370
    -3
331
16
  1
Color_7
330
0
 90
       10
 62
     7
370
    -3
331
16
  1
Color_7
330
0
 90
       10
 62
     7
370
    -3
331
16
  1
Color_7
330
0
 90
       10
 62
     7
370
    -3
331
16
  1
Color_7
330
0
 90
       10
 62
     7
370
    -3
331
16
  1
Color_7
330
0
 90
       10
 62
     7
370
    -3
331
16
  1
Color_7
330
0
 90
       10
 62
     7
370
    -3
331
16
  1
Color_7
330
0
 90
       10
 62
     7
370
    -3
331
16
  1
Color_7
330
0
 90
       10
 62
     7
370
    -3
331
16
  1
Color_7
330
0
 90
       10
 62
     7
370
    -3
331
16
  1
Color_7
330
0
 90
       10
 62
     7
370
    -3
331
16
  1
Color_7
330
0
 90
       10
 62
     7
370
    -3
331
16
  1
Color_7
330
0
 90
       10
 62
     7
370
    -3
331
16
  1
Color_7
330
0
 90
       10
 62
     7
370
    -3
331
16
  1
Color_7
330
0
 90
       10
 62
     7
370
    -3
331
16
  1
Color_7
330
0
 90
       10
 62
     7
370
    -3
331
16
  1
Color_7
330
0
 90
       10
 62
     7
370
    -3
331
16
  1
Color_7
330
0
 90
       10
 62
     7
370
    -3
331
16
  1
Color_7
330
0
 90
       10
 62
     7
370
    -3
331
16
  1
Color_7
330
0
 90
       10
 62
     7
370
    -3
331
16
  1
Color_7
330
0
 90
       10
 62
     7
370
    -3
331
16
  1
Color_7
330
0
 90
       10
 62
     7
370
    -3
331
16
  1
Color_7
330
0
 90
       10
 62
     7
370
    -3
331
16
  1
Color_7
330
0
 90
       10
 62
     7
370
    -3
331
16
  1
Color_7
330
0
 90
       10
 62
     7
370
    -3
331
16
  1
Color_7
330
0
 90
       10
 62
     7
370
    -3
331
16
  1
Color_7
330
0
 90
       10
 62
     7
370
    -3
331
16
  1
Color_7
330
0
 90
       10
 62
     7
370
    -3
331
16
  1
Color_7
330
0
 90
       10
 62
     7
370
    -3
331
16
  1
Color_7
330
0
 90
       10
 62
     7
370
    -3
331
16
  1
Color_7
330
0
 90
       10
 62
     7
370
    -3
331
16
  1
Color_7
330
0
 90
       10
 62
     7
370
    -3
331
16
  1
Color_7
330
0
 90
       10
 62
     7
370
    -3
331
16
  1
Color_7
330
0
 90
       10
 62
     7
370
    -3
331
16
  1
Color_7
330
0
 90
       10
 62
     7
370
    -3
331
16
  1
Color_7
330
0
 90
       10
 62
     7
370
    -3
331
16
  1
Color_7
330
0
 90
       10
 62
     7
370
    -3
331
16
  1
Color_7
330
0
 90
       10
 62
     7
370
    -3
331
16
  1
Color_7
330
0
 90
       10
 62
     7
370
    -3
331
16
  1
Color_7
330
0
 90
       10
 62
     7
370
    -3
331
16
  1
Color_7
330
0
 90
       10
 62
     7
370
    -3
331
16
  1
Color_7
330
0
 90
       10
 62
     7
370
    -3
331
16
  1
Color_7
330
0
 90
       10
 62
     7
370
    -3
331
16
  1
Color_7
330
0
 90
       10
 62
     7
370
    -3
331
16
  1
Color_7
330
0
 90
       10
 62
     7
370
    -3
331
16
  1
Color_7
330
0
 90
       10
 62
     7
370
    -3
331
16
  1
Color_7
330
0
 90
       10
 62
     7
370
    -3
331
16
  1
Color_7
330
0
 90
       10
 62
     7
370
    -3
331
16
  1
Color_7
330
0
 90
       10
 62
     7
370
    -3
331
16
  1
Color_7
330
0
 90
       10
 62
     7
370
    -3
331
16
  1
Color_7
330
0
 90
       10
 62
     7
370
    -3
331
16
  1
Color_7
330
0
 90
       10
 62
     7
370
    -3
331
16
  1
Color_7
330
0
 90
       10
 62
     7
370
    -3
331
16
  1
Color_7
330
0
 90
       10
 62
     7
370
    -3
331
16
  1
Color_7
330
0
 90
       10
 62
     7
370
    -3
331
16
  1
Color_7
330
0
 90
       10
 62
     7
370
    -3
331
16
  1
Color_7
330
0
 90
       10
 62
     7
370
    -3
331
16
  1
Color_7
330
0
 90
       10
 62
     7
370
    -3
331
16
  1
Color_7
330
0
 90
       10
 62
     7
370
    -3
331
16
  1
Color_7
330
0
 90
       10
 62
     7
370
    -3
331
16
  1
Color_7
  0
XRECORD
  5
ABCB
102
{ACAD_XDICTIONARY
360
ABCC
102
}
102
{ACAD_REACTORS
330
290
102
}
330
290
100
AcDbXrecord
280
     1
 91
      514
301

290
     0
302
0
330
0
 90
        8
 62
     7
370
    -3
  6
Continuous
  1
Color_7
330
0
 90
        8
 62
     7
370
    -3
  6
Continuous
  1
Color_7
330
0
 90
        8
 62
     7
370
    -3
  6
Continuous
  1
Color_7
330
0
 90
        0
 62
    30
370
    -3
  6
Continuous
  1
Color_30
330
0
 90
        8
 62
   252
370
    -3
  6
Continuous
  1
Color_252
330
0
 90
        8
 62
     3
370
    30
  6
Continuous
  1
Color_3
330
0
 90
        8
 62
   253
370
    -3
  6
Continuous
  1
Color_253
330
0
 90
        8
 62
     1
370
    -3
  6
Continuous
  1
Color_1
330
0
 90
        0
 62
     5
370
    -3
  6
Continuous
  1
Color_5
330
0
 90
        8
 62
     2
370
    -3
  6
Continuous
  1
Color_2
330
0
 90
        0
 62
   178
370
    -3
  6
Continuous
  1
Color_178
 92
-1039794079
330
0
 90
        8
 62
     7
370
    -3
  6
Continuous
  1
Color_7
330
0
 90
        8
 62
     7
370
    -3
  6
Continuous
  1
Color_7
330
0
 90
        8
 62
     7
370
    -3
  6
Continuous
  1
Color_7
330
0
 90
        8
 62
     7
370
    -3
  6
Continuous
  1
Color_7
330
0
 90
        8
 62
     7
370
    -3
  6
Continuous
  1
Color_7
330
0
 90
        0
 62
     4
370
    -3
  6
Continuous
  1
Color_4
330
0
 90
        0
 62
     7
370
    -3
  6
Continuous
  1
Color_7
  8
defpoints
 90
        0
 62
     7
370
    -3
  6
Continuous
  1
Color_7
  8
0
 90
        8
 62
     7
370
    -3
  6
Continuous
  1
Color_7
330
0
 90
       10
 62
     7
370
    -3
  6
Continuous
  1
Color_7
330
0
 90
       10
 62
     7
370
    -3
  6
Continuous
  1
Color_7
330
0
 90
       10
 62
     7
370
    -3
  6
Continuous
  1
Color_7
330
0
 90
       10
 62
     7
370
    -3
  6
Continuous
  1
Color_7
330
0
 90
       10
 62
     7
370
    -3
  6
Continuous
  1
Color_7
330
0
 90
       10
 62
     7
370
    -3
  6
Continuous
  1
Color_7
330
0
 90
       10
 62
     7
370
    -3
  6
Continuous
  1
Color_7
330
0
 90
       10
 62
     7
370
    -3
  6
Continuous
  1
Color_7
330
0
 90
       10
 62
     7
370
    -3
  6
Continuous
  1
Color_7
330
0
 90
       10
 62
     7
370
    -3
  6
Continuous
  1
Color_7
330
0
 90
        2
 62
     7
370
    -3
  6
Continuous
  1
Color_7
330
0
 90
       10
 62
     7
370
    -3
  6
Continuous
  1
Color_7
330
0
 90
        2
 62
     7
370
    -3
  6
Continuous
  1
Color_7
330
0
 90
       10
 62
     7
370
    -3
  6
Continuous
  1
Color_7
330
0
 90
        2
 62
     7
370
    -3
  6
Continuous
  1
Color_7
330
0
 90
       10
 62
     7
370
    -3
  6
Continuous
  1
Color_7
330
0
 90
        2
 62
     7
370
    -3
  6
Continuous
  1
Color_7
330
0
 90
       10
 62
     7
370
    -3
  6
Continuous
  1
Color_7
330
0
 90
        2
 62
     7
370
    -3
  6
Continuous
  1
Color_7
330
0
 90
       10
 62
     7
370
    -3
  6
Continuous
  1
Color_7
330
0
 90
        2
 62
     7
370
    -3
  6
Continuous
  1
Color_7
330
0
 90
       10
 62
     7
370
    -3
  6
Continuous
  1
Color_7
330
0
 90
        2
 62
     7
370
    -3
  6
Continuous
  1
Color_7
  0
XRECORD
  5
ABCF
102
{ACAD_XDICTIONARY
360
ABD0
102
}
102
{ACAD_REACTORS
330
290
102
}
330
290
100
AcDbXrecord
280
     1
 91
      514
301

290
     0
302
0
330
0
 90
       10
 62
     7
370
    -3
  6
Continuous
  1
Color_7
330
0
 90
       10
 62
     7
370
    -3
  6
Continuous
  1
Color_7
330
0
 90
       10
 62
     7
370
    -3
  6
Continuous
  1
Color_7
330
0
 90
        2
 62
    30
370
    -3
  6
Continuous
  1
Color_30
330
0
 90
       10
 62
   252
370
    -3
  6
Continuous
  1
Color_252
330
0
 90
       10
 62
     3
370
    30
  6
Continuous
  1
Color_3
330
0
 90
       10
 62
   253
370
    -3
  6
Continuous
  1
Color_253
330
0
 90
       10
 62
     1
370
    -3
  6
Continuous
  1
Color_1
330
0
 90
        2
 62
     5
370
    -3
  6
Continuous
  1
Color_5
330
0
 90
       10
 62
     2
370
    -3
  6
Continuous
  1
Color_2
330
0
 90
        2
 62
   178
370
    -3
  6
Continuous
  1
Color_178
 92
-1039794079
330
0
 90
       10
 62
     7
370
    -3
  6
Continuous
  1
Color_7
330
0
 90
       10
 62
     7
370
    -3
  6
Continuous
  1
Color_7
330
0
 90
       10
 62
     7
370
    -3
  6
Continuous
  1
Color_7
330
0
 90
       10
 62
     7
370
    -3
  6
Continuous
  1
Color_7
330
0
 90
       10
 62
     7
370
    -3
  6
Continuous
  1
Color_7
330
0
 90
        2
 62
     4
370
    -3
  6
Continuous
  1
Color_4
330
0
 90
        2
 62
     7
370
    -3
  6
Continuous
  1
Color_7
  8
0
 90
        8
 62
     7
370
    -3
  6
Continuous
  1
Color_7
  8
defpoints
 90
        0
 62
     7
370
    -3
  6
Continuous
  1
Color_7
330
0
 90
       10
 62
     7
370
    -3
  6
Continuous
  1
Color_7
330
0
 90
       10
 62
     7
370
    -3
  6
Continuous
  1
Color_7
330
0
 90
       10
 62
     7
370
    -3
  6
Continuous
  1
Color_7
330
0
 90
       10
 62
     7
370
    -3
  6
Continuous
  1
Color_7
330
0
 90
       10
 62
     7
370
    -3
  6
Continuous
  1
Color_7
330
0
 90
       10
 62
     7
370
    -3
  6
Continuous
  1
Color_7
330
0
 90
       10
 62
     7
370
    -3
  6
Continuous
  1
Color_7
330
0
 90
       10
 62
     7
370
    -3
  6
Continuous
  1
Color_7
330
0
 90
       10
 62
     7
370
    -3
  6
Continuous
  1
Color_7
330
0
 90
       10
 62
     7
370
    -3
  6
Continuous
  1
Color_7
330
0
 90
        2
 62
     7
370
    -3
  6
Continuous
  1
Color_7
330
0
 90
       10
 62
     7
370
    -3
  6
Continuous
  1
Color_7
330
0
 90
        2
 62
     7
370
    -3
  6
Continuous
  1
Color_7
330
0
 90
       10
 62
     7
370
    -3
  6
Continuous
  1
Color_7
330
0
 90
        2
 62
     7
370
    -3
  6
Continuous
  1
Color_7
330
0
 90
       10
 62
     7
370
    -3
  6
Continuous
  1
Color_7
330
0
 90
        2
 62
     7
370
    -3
  6
Continuous
  1
Color_7
330
0
 90
       10
 62
     7
370
    -3
  6
Continuous
  1
Color_7
330
0
 90
        2
 62
     7
370
    -3
  6
Continuous
  1
Color_7
330
0
 90
       10
 62
     7
370
    -3
  6
Continuous
  1
Color_7
330
0
 90
        2
 62
     7
370
    -3
  6
Continuous
  1
Color_7
330
0
 90
       10
 62
     7
370
    -3
  6
Continuous
  1
Color_7
330
0
 90
        2
 62
     7
370
    -3
  6
Continuous
  1
Color_7
  0
DICTIONARY
  5
170C
330
16BA
100
AcDbDictionary
280
     1
281
     1
  0
DICTIONARY
  5
9911
330
22
100
AcDbDictionary
280
     1
281
     1
  0
DICTIONARY
  5
ABDD
330
ABDC
100
AcDbDictionary
280
     1
281
     1
  3
ACAD_ROUNDTRIP_2008_TABLESTYLE_CELLSTYLEMAP
360
AC23
  0
DICTIONARY
  5
30E
330
22C
100
AcDbDictionary
280
     1
281
     1
  3
ACAD_ROUNDTRIP_2008_TABLESTYLE_CELLSTYLEMAP
360
AC20
  0
DICTIONARY
  5
811
330
223
100
AcDbDictionary
280
     1
281
     1
  3
LightingQuality
360
812
  0
XRECORD
  5
A38
102
{ACAD_REACTORS
330
A22
102
}
330
A22
100
AcDbXrecord
280
     1
1000
AIA Version 3
  0
BINRECORD
  5
A23
102
{ACAD_REACTORS
330
A22
102
}
330
A22
100
AcAecBinRecord
 90
        0
 91
    19403
 70
     0
310
0100FFFEFF0D4100490041002000560065007200730069006F006E00200033000500FFFF01001C004163416563556B4C6179657244657363726970746976654669656C64FFFEFF154400690073006300690070006C0069006E0065002000440065007300690067006E00610074006F0072000102000000007B333637354541
310
46100100002100000070BA406CD0EA76040B00FFFEFF001500FFFEFF01440002000000FFFEFF07500072006F0063006500730073000E00FFFEFF01440002000000FFFEFF12500072006F0063006500730073002000440065006D006F006C006900740069006F006E00000000000000FFFEFF01560002000000FFFEFF0E5000
310
72006F0063006500730073002000560061006300750075006D00000000000000FFFEFF01450002000000FFFEFF12500072006F006300650073007300200045006C0065006300740072006900630061006C00000000000000FFFEFF01570002000000FFFEFF0E500072006F0063006500730073002000570061007400650072
310
007300000000000000FFFEFF01580002000000FFFEFF0F500072006F00630065007300730020004500780068006100750073007400000000000000FFFEFF01470002000000FFFEFF0D500072006F006300650073007300200047006100730065007300000000000000FFFEFF014F0002000000FFFEFF0B500072006F006300
310
65007300730020004F0069006C00000000000000FFFEFF01500002000000FFFEFF0E500072006F006300650073007300200050006900700069006E006700000000000000FFFEFF01510002000000FFFEFF11500072006F0063006500730073002000450071007500690070006D0065006E007400000000000000FFFEFF0152
310
0002000000FFFEFF19500072006F006300650073007300200044007200610069006E0073002000260020005200650063006C00610069006D007300000000000000FFFEFF01410002000000FFFEFF0C500072006F00630065007300730020004100690072007300000000000000FFFEFF01530002000000FFFEFF0C50007200
310
6F00630065007300730020005300690074006500000000000000FFFEFF01540002000000FFFEFF18500072006F006300650073007300200045006E0074007200610069006E0065006400200053006F006C00690064007300000000000000FFFEFF01430002000000FFFEFF11500072006F0063006500730073002000430068
310
0065006D006900630061006C00730000000000000000000000FFFEFF01560002000000FFFEFF1053007500720076006500790020002F0020004D0061007000700069006E0067000500FFFEFF01460002000000FFFEFF0C4600690065006C0064002000530075007200760065007900000000000000FFFEFF01490002000000
310
FFFEFF0E4400690067006900740061006C002000530075007200760065007900000000000000FFFEFF014A0002000000FFFEFF1F53007500720076006500790020002F0020004D0061007000700069006E006700200028005500730065007200200044006500660069006E00650064002900000000000000FFFEFF014B0002
310
000000FFFEFF1F53007500720076006500790020002F0020004D0061007000700069006E006700200028005500730065007200200044006500660069006E00650064002900000000000000FFFEFF01410002000000FFFEFF0D410065007200690061006C00200053007500720076006500790000000000000000000000FFFE
310
FF01450002000000FFFEFF0A45006C0065006300740072006900630061006C000900FFFEFF01440002000000FFFEFF1545006C0065006300740072006900630061006C002000440065006D006F006C006900740069006F006E00000000000000FFFEFF01590002000000FFFEFF1C45006C0065006300740072006900630061
310
006C00200041007500780069006C0069006100720079002000530079007300740065006D007300000000000000FFFEFF01490002000000FFFEFF1A45006C0065006300740072006900630061006C00200049006E0073007400720075006D0065006E0074006100740069006F006E00000000000000FFFEFF014A0002000000
310
FFFEFF1945006C0065006300740072006900630061006C00200028005500730065007200200044006500660069006E00650064002900000000000000FFFEFF014B0002000000FFFEFF1945006C0065006300740072006900630061006C00200028005500730065007200200044006500660069006E00650064002900000000
310
000000FFFEFF014C0002000000FFFEFF1345006C0065006300740072006900630061006C0020004C00690067006800740069006E006700000000000000FFFEFF01500002000000FFFEFF1045006C0065006300740072006900630061006C00200050006F00770065007200000000000000FFFEFF01530002000000FFFEFF0F
310
45006C0065006300740072006900630061006C0020005300690074006500000000000000FFFEFF01540002000000FFFEFF1D45006C0065006300740072006900630061006C002000540065006C00650063006F006D006D0075006E00690063006100740069006F006E00730000000000000000000000FFFEFF015700020000
310
00FFFEFF0B43006900760069006C00200057006F0072006B0073000200FFFEFF014A0002000000FFFEFF1A43006900760069006C00200057006F0072006B007300200028005500730065007200200044006500660069006E00650064002900000000000000FFFEFF014B0002000000FFFEFF1A43006900760069006C002000
310
57006F0072006B007300200028005500730065007200200044006500660069006E0065006400290000000000000000000000FFFEFF01460002000000FFFEFF0F46006900720065002000500072006F00740065006300740069006F006E000400FFFEFF014A0002000000FFFEFF134600690072006500200028005500730065
310
007200200044006500660069006E00650064002900000000000000FFFEFF014B0002000000FFFEFF134600690072006500200028005500730065007200200044006500660069006E00650064002900000000000000FFFEFF01410002000000FFFEFF184600690072006500200044006500740065006300740069006F006E00
310
200061006E006400200041006C00610072006D00000000000000FFFEFF01530002000000FFFEFF10460069007200650020005300750070007000720065007300730069006F006E0000000000000000000000FFFEFF01470002000000FFFEFF07470065006E006500720061006C000500FFFEFF01490002000000FFFEFF1347
310
0065006E006500720061006C00200049006E0066006F0072006D006100740069006F006E00000000000000FFFEFF014A0002000000FFFEFF16470065006E006500720061006C00200028005500730065007200200044006500660069006E00650064002900000000000000FFFEFF014B0002000000FFFEFF16470065006E00
310
6500720061006C00200028005500730065007200200044006500660069006E00650064002900000000000000FFFEFF01520002000000FFFEFF10470065006E006500720061006C0020005200650073006F007500720063006500000000000000FFFEFF01430002000000FFFEFF13470065006E006500720061006C00200043
310
006F006E0074007200610063007400750061006C0000000000000000000000FFFEFF01580002000000FFFEFF114F00740068006500720020004400690073006300690070006C0069006E00650073000200FFFEFF014A0002000000FFFEFF204F00740068006500720020004400690073006300690070006C0069006E006500
310
7300200028005500730065007200200044006500660069006E00650064002900000000000000FFFEFF014B0002000000FFFEFF204F00740068006500720020004400690073006300690070006C0069006E0065007300200028005500730065007200200044006500660069006E0065006400290000000000000000000000FF
310
FEFF01480002000000FFFEFF13480061007A006100720064006F007500730020004D006100740065007200690061006C0073000700FFFEFF014A0002000000FFFEFF22480061007A006100720064006F007500730020004D006100740065007200690061006C00730020002800550073006500720020004400650066006900
310
6E00650064002900000000000000FFFEFF014B0002000000FFFEFF22480061007A006100720064006F007500730020004D006100740065007200690061006C007300200028005500730065007200200044006500660069006E00650064002900000000000000FFFEFF014C0002000000FFFEFF044C00650061006400000000
310
000000FFFEFF01500002000000FFFEFF03500043004200000000000000FFFEFF01520002000000FFFEFF0C5200650066007200690067006500720061006E0074007300000000000000FFFEFF01410002000000FFFEFF084100730062006500730074006F007300000000000000FFFEFF01430002000000FFFEFF0943006800
310
65006D006900630061006C00730000000000000000000000FFFEFF01490002000000FFFEFF0949006E0074006500720069006F00720073000600FFFEFF01440002000000FFFEFF1349006E0074006500720069006F0072002000440065006D006F006C006900740069006F006E00000000000000FFFEFF01460002000000FF
310
FEFF1149006E0074006500720069006F0072002000460069006E0069007300680065007300000000000000FFFEFF01470002000000FFFEFF1249006E0074006500720069006F0072007300200047007200610070006800690063007300000000000000FFFEFF014A0002000000FFFEFF1849006E0074006500720069006F00
310
72007300200028005500730065007200200044006500660069006E00650064002900000000000000FFFEFF014B0002000000FFFEFF1849006E0074006500720069006F0072007300200028005500730065007200200044006500660069006E00650064002900000000000000FFFEFF014E0002000000FFFEFF0F49006E0074
310
006500720069006F0072002000440065007300690067006E0000000000000000000000FFFEFF015A0002000000FFFEFF1A43006F006E00740072006100630074006F00720020002F002000530068006F0070002000440072006100770069006E00670073000200FFFEFF014A0002000000FFFEFF2943006F006E0074007200
310
6100630074006F00720020002F002000530068006F0070002000440072006100770069006E0067007300200028005500730065007200200044006500660069006E00650064002900000000000000FFFEFF014B0002000000FFFEFF2943006F006E00740072006100630074006F00720020002F002000530068006F00700020
310
00440072006100770069006E0067007300200028005500730065007200200044006500660069006E0065006400290000000000000000000000FFFEFF014C0002000000FFFEFF094C0061006E006400730063006100700065000500FFFEFF01440002000000FFFEFF144C0061006E0064007300630061007000650020004400
310
65006D006F006C006900740069006F006E00000000000000FFFEFF01490002000000FFFEFF144C0061006E006400730063006100700065002000490072007200690067006100740069006F006E00000000000000FFFEFF014A0002000000FFFEFF184C0061006E006400730063006100700065002000280055007300650072
310
00200044006500660069006E00650064002900000000000000FFFEFF014B0002000000FFFEFF184C0061006E00640073006300610070006500200028005500730065007200200044006500660069006E00650064002900000000000000FFFEFF01500002000000FFFEFF124C0061006E006400730063006100700065002000
310
50006C0061006E00740069006E00670000000000000000000000FFFEFF014D0002000000FFFEFF0A4D0065006300680061006E006900630061006C000700FFFEFF01440002000000FFFEFF154D0065006300680061006E006900630061006C002000440065006D006F006C006900740069006F006E00000000000000FFFEFF
310
01480002000000FFFEFF0F4D0065006300680061006E006900630061006C0020004800560041004300000000000000FFFEFF01490002000000FFFEFF1A4D0065006300680061006E006900630061006C00200049006E0073007400720075006D0065006E0074006100740069006F006E00000000000000FFFEFF014A000200
310
0000FFFEFF194D0065006300680061006E006900630061006C00200028005500730065007200200044006500660069006E00650064002900000000000000FFFEFF014B0002000000FFFEFF194D0065006300680061006E006900630061006C00200028005500730065007200200044006500660069006E0065006400290000
310
0000000000FFFEFF01500002000000FFFEFF114D0065006300680061006E006900630061006C00200050006900700069006E006700000000000000FFFEFF01530002000000FFFEFF0F4D0065006300680061006E006900630061006C002000530069007400650000000000000000000000FFFEFF014F0002000000FFFEFF0A
310
4F007000650072006100740069006F006E0073000200FFFEFF014A0002000000FFFEFF194F007000650072006100740069006F006E007300200028005500730065007200200044006500660069006E00650064002900000000000000FFFEFF014B0002000000FFFEFF194F007000650072006100740069006F006E00730020
310
0028005500730065007200200044006500660069006E0065006400290000000000000000000000FFFEFF01500002000000FFFEFF0850006C0075006D00620069006E0067000600FFFEFF01440002000000FFFEFF1350006C0075006D00620069006E0067002000440065006D006F006C006900740069006F006E0000000000
310
0000FFFEFF014A0002000000FFFEFF1750006C0075006D00620069006E006700200028005500730065007200200044006500660069006E00650064002900000000000000FFFEFF014B0002000000FFFEFF1750006C0075006D00620069006E006700200028005500730065007200200044006500660069006E006500640029
310
00000000000000FFFEFF01500002000000FFFEFF0F50006C0075006D00620069006E006700200050006900700069006E006700000000000000FFFEFF01510002000000FFFEFF1250006C0075006D00620069006E0067002000450071007500690070006D0065006E007400000000000000FFFEFF01530002000000FFFEFF0D
310
50006C0075006D00620069006E0067002000530069007400650000000000000000000000FFFEFF01510002000000FFFEFF09450071007500690070006D0065006E0074001100FFFEFF01440002000000FFFEFF1344006500740065006E00740069006F006E002000450071007500690070006D0065006E0074000000000000
310
00FFFEFF01560002000000FFFEFF1C56006900640065006F002F00500068006F0074006F0067007200610070006800690063002000450071007500690070006D0065006E007400000000000000FFFEFF01450002000000FFFEFF1545006400750063006100740069006F006E0061006C002000450071007500690070006D00
310
65006E007400000000000000FFFEFF01460002000000FFFEFF1646006F006F006400200053006500720076006900630065002000450071007500690070006D0065006E007400000000000000FFFEFF01590002000000FFFEFF12530065006300750072006900740079002000450071007500690070006D0065006E00740000
310
0000000000FFFEFF01480002000000FFFEFF1248006F00730070006900740061006C002000450071007500690070006D0065006E007400000000000000FFFEFF014A0002000000FFFEFF18450071007500690070006D0065006E007400200028005500730065007200200044006500660069006E0065006400290000000000
310
0000FFFEFF014B0002000000FFFEFF18450071007500690070006D0065006E007400200028005500730065007200200044006500660069006E00650064002900000000000000FFFEFF014C0002000000FFFEFF144C00610062006F007200610074006F00720079002000450071007500690070006D0065006E007400000000
310
000000FFFEFF014D0002000000FFFEFF154D00610069006E00740065006E0061006E00630065002000450071007500690070006D0065006E007400000000000000FFFEFF01500002000000FFFEFF155000610072006B0069006E00670020004C006F0074002000450071007500690070006D0065006E007400000000000000
310
FFFEFF01520002000000FFFEFF10520065007400610069006C002000450071007500690070006D0065006E007400000000000000FFFEFF01410002000000FFFEFF124100740068006C0065007400690063002000450071007500690070006D0065006E007400000000000000FFFEFF01530002000000FFFEFF0E5300690074
310
0065002000450071007500690070006D0065006E007400000000000000FFFEFF01420002000000FFFEFF0E420061006E006B002000450071007500690070006D0065006E007400000000000000FFFEFF01540002000000FFFEFF145400680065006100740072006900630061006C002000450071007500690070006D006500
310
6E007400000000000000FFFEFF01430002000000FFFEFF16440072007900200043006C00650061006E0069006E0067002000450071007500690070006D0065006E00740000000000000000000000FFFEFF01410002000000FFFEFF0D4100720063006800690074006500630074007500720061006C000A00FFFEFF01440002
310
000000FFFEFF184100720063006800690074006500630074007500720061006C002000440065006D006F006C006900740069006F006E00000000000000FFFEFF01450002000000FFFEFF164100720063006800690074006500630074007500720061006C00200045006C0065006D0065006E0074007300000000000000FFFE
310
FF01460002000000FFFEFF164100720063006800690074006500630074007500720061006C002000460069006E0069007300680065007300000000000000FFFEFF01470002000000FFFEFF164100720063006800690074006500630074007500720061006C00200047007200610070006800690063007300000000000000FF
310
FEFF01490002000000FFFEFF164100720063006800690074006500630074007500720061006C00200049006E0074006500720069006F007200000000000000FFFEFF014A0002000000FFFEFF1C4100720063006800690074006500630074007500720061006C00200028005500730065007200200044006500660069006E00
310
650064002900000000000000FFFEFF014B0002000000FFFEFF1C4100720063006800690074006500630074007500720061006C00200028005500730065007200200044006500660069006E00650064002900000000000000FFFEFF01500002000000FFFEFF144100720063006800690074006500630074007500720061006C
310
00200050006100760069006E006700000000000000FFFEFF01530002000000FFFEFF124100720063006800690074006500630074007500720061006C0020005300690074006500000000000000FFFEFF01540002000000FFFEFF1C4100720063006800690074006500630074007500720061006C0020005400720061006E00
310
730070006F00720074006100740069006F006E0000000000000001000000FFFEFF01520002000000FFFEFF085200650073006F0075007200630065000700FFFEFF01450002000000FFFEFF135200650073006F007500720063006500200045006C0065006300740072006900630061006C00000000000000FFFEFF014A0002
310
000000FFFEFF175200650073006F007500720063006500200028005500730065007200200044006500660069006E00650064002900000000000000FFFEFF014B0002000000FFFEFF175200650073006F007500720063006500200028005500730065007200200044006500660069006E00650064002900000000000000FFFE
310
FF014D0002000000FFFEFF135200650073006F00750072006300650020004D0065006300680061006E006900630061006C00000000000000FFFEFF01410002000000FFFEFF165200650073006F00750072006300650020004100720063006800690074006500630074007500720061006C00000000000000FFFEFF01530002
310
000000FFFEFF135200650073006F00750072006300650020005300740072007500630074007500720061006C00000000000000FFFEFF01430002000000FFFEFF0E5200650073006F007500720063006500200043006900760069006C0000000000000000000000FFFEFF01420002000000FFFEFF0C470065006F0074006500
310
630068006E006900630061006C000200FFFEFF014A0002000000FFFEFF1B470065006F0074006500630068006E006900630061006C00200028005500730065007200200044006500660069006E00650064002900000000000000FFFEFF014B0002000000FFFEFF1B470065006F0074006500630068006E006900630061006C
310
00200028005500730065007200200044006500660069006E0065006400290000000000000000000000FFFEFF01530002000000FFFEFF0A5300740072007500630074007500720061006C000600FFFEFF01440002000000FFFEFF155300740072007500630074007500720061006C002000440065006D006F006C0069007400
310
69006F006E00000000000000FFFEFF01460002000000FFFEFF125300740072007500630074007500720061006C0020004600720061006D0069006E006700000000000000FFFEFF014A0002000000FFFEFF195300740072007500630074007500720061006C00200028005500730065007200200044006500660069006E0065
310
0064002900000000000000FFFEFF014B0002000000FFFEFF195300740072007500630074007500720061006C00200028005500730065007200200044006500660069006E00650064002900000000000000FFFEFF01530002000000FFFEFF0F5300740072007500630074007500720061006C00200053006900740065000000
310
00000000FFFEFF01420002000000FFFEFF175300740072007500630074007500720061006C00200053007500620073007400720075006300740075007200650000000000000000000000FFFEFF01430002000000FFFEFF0543006900760069006C000900FFFEFF01440002000000FFFEFF1043006900760069006C00200044
310
0065006D006F006C006900740069006F006E00000000000000FFFEFF01550002000000FFFEFF0F43006900760069006C0020005500740069006C0069007400690065007300000000000000FFFEFF01470002000000FFFEFF0D43006900760069006C002000470072006100640069006E006700000000000000FFFEFF014900
310
02000000FFFEFF1243006900760069006C00200049006D00700072006F00760065006D0065006E0074007300000000000000FFFEFF014A0002000000FFFEFF1443006900760069006C00200028005500730065007200200044006500660069006E00650064002900000000000000FFFEFF014B0002000000FFFEFF14430069
310
00760069006C00200028005500730065007200200044006500660069006E00650064002900000000000000FFFEFF01500002000000FFFEFF0C43006900760069006C00200050006100760069006E006700000000000000FFFEFF01530002000000FFFEFF0A43006900760069006C0020005300690074006500000000000000
310
FFFEFF01540002000000FFFEFF1443006900760069006C0020005400720061006E00730070006F00720074006100740069006F006E0000000000000000000000FFFEFF01540002000000FFFEFF12540065006C00650063006F006D006D0075006E00690063006100740069006F006E0073000900FFFEFF01590002000000FF
310
FEFF0853006500630075007200690074007900000000000000FFFEFF01490002000000FFFEFF0849006E0074006500720063006F006D00000000000000FFFEFF014A0002000000FFFEFF21540065006C00650063006F006D006D0075006E00690063006100740069006F006E00730020002800550073006500720020004400
310
6500660069006E00650064002900000000000000FFFEFF014B0002000000FFFEFF21540065006C00650063006F006D006D0075006E00690063006100740069006F006E007300200028005500730065007200200044006500660069006E00650064002900000000000000FFFEFF014D0002000000FFFEFF0A4D006F006E0069
310
0074006F00720069006E006700000000000000FFFEFF014E0002000000FFFEFF0D440061007400610020004E006500740077006F0072006B007300000000000000FFFEFF01410002000000FFFEFF0E41007500640069006F0020002F002000560069007300750061006C00000000000000FFFEFF01540002000000FFFEFF09
310
540065006C006500700068006F006E006500000000000000FFFEFF01430002000000FFFEFF1143006C006F0063006B00200061006E0064002000500072006F006700720061006D00000000000000000000000180FFFEFF054D0061006A006F0072000300000000000000000000000000000000000000000000000000000000
310
000000FFFEFF002300FFFEFF052D0046006C006F00720002000000FFFEFF0546006C006F006F007200000000000000FFFEFF052D004500710070006D0002000000FFFEFF09450071007500690070006D0065006E007400000000000000FFFEFF052D00530069007400650002000000FFFEFF09530069007400650020007000
310
6C0061006E00000000000000FFFEFF052D0050006C0061006E0002000000FFFEFF154B0065007900200070006C0061006E002000280066006C006F006F007200200070006C0061006E002900000000000000FFFEFF052D004400650074006C0002000000FFFEFF06440065007400610069006C00000000000000FFFEFF052D
310
0054006F0070006F0002000000FFFEFF0A54006F0070006F00670072006100700068007900000000000000FFFEFF052D004300740072006C0002000000FFFEFF0E43006F006E00740072006F006C00200050006F0069006E0074007300000000000000FFFEFF052D004600750072006E0002000000FFFEFF0B460075007200
310
6E0069007300680069006E0067007300000000000000FFFEFF052D0053006C006100620002000000FFFEFF0553006C00610062007300000000000000FFFEFF052D0050006F006C00790002000000FFFEFF0850006F006C00790067006F006E007300000000000000FFFEFF052D0043006F006D006D0002000000FFFEFF1254
310
0065006C00650063006F006D006D0075006E00690063006100740069006F006E007300000000000000FFFEFF052D00570061006C006C0002000000FFFEFF05570061006C006C007300000000000000FFFEFF052D0047006C0061007A0002000000FFFEFF0747006C0061007A0069006E006700000000000000FFFEFF052D00
310
410072006500610002000000FFFEFF044100720065006100000000000000FFFEFF052D0043006F006400650002000000FFFEFF1443006F0064006500200063006F006D0070006C00690061006E0063006500200070006C0061006E00000000000000FFFEFF052D005300740072006D0002000000FFFEFF0844007200610069
310
006E00610067006500000000000000FFFEFF052D0044006F006F00720002000000FFFEFF0544006F006F0072007300000000000000FFFEFF052D0041006E006E006F0002000000FFFEFF0A41006E006E006F0074006100740069006F006E00000000000000FFFEFF052D004200650061006D0002000000FFFEFF0542006500
310
61006D007300000000000000FFFEFF052D004C0069007400650002000000FFFEFF114C00690067006800740069006E006700200066006900780074007500720065007300000000000000FFFEFF052D00480056004100430002000000FFFEFF044800560041004300000000000000FFFEFF052D004100630063007300020000
310
00FFFEFF0B410063006300650073007300200070006C0061006E00000000000000FFFEFF052D0043006F006C00730002000000FFFEFF0743006F006C0075006D006E007300000000000000FFFEFF052D0043006C006E00670002000000FFFEFF074300650069006C0069006E006700000000000000FFFEFF052D0045007600
310
6100630002000000FFFEFF0F450076006100630075006100740069006F006E00200070006C0061006E00000000000000FFFEFF052D0043006F006E00760002000000FFFEFF1143006F006E0076006500790069006E0067002000730079007300740065006D007300000000000000FFFEFF052D005300650063007400020000
310
00FFFEFF07530065006300740069006F006E00000000000000FFFEFF052D00500072006F00700002000000FFFEFF08500072006F0070006500720074007900000000000000FFFEFF052D0052006F006F00660002000000FFFEFF0452006F006F006600000000000000FFFEFF052D0045006C006500630002000000FFFEFF0A
310
45006C0065006300740072006900630061006C00000000000000FFFEFF052D00470072006900640002000000FFFEFF0A470072006900640020006C0069006E0065007300000000000000FFFEFF052D00540069006E006E0002000000FFFEFF1E54007200690061006E00670075006C00610074006500640020006900720072
310
006500670075006C006100720020006E006500740077006F0072006B00000000000000FFFEFF052D00500072006F00740002000000FFFEFF1646006900720065002000700072006F00740065006300740069006F006E002000730079007300740065006D00000000000000FFFEFF052D00460069007200650002000000FFFE
310
FF1446006900720065002000700072006F00740065006300740069006F006E00200070006C0061006E00000000000000FFFEFF052D0045006C006500760002000000FFFEFF0945006C00650076006100740069006F006E000000000000000180FFFEFF074D0069006E006F00720020003100040000000000000000F00E7704
310
00000000000000000000000000000000F00000FFFEFF006A00FFFEFF052D00410062006F00760002000000FFFEFF0E45006C0065006D0065006E00740073002000610062006F0076006500000000000000FFFEFF052D005400610062006C0002000000FFFEFF0B440061007400610020007400610062006C00650073000000
310
00000000FFFEFF052D00420064007200790002000000FFFEFF0842006F0075006E006400610072007900000000000000FFFEFF052D004500710070006D0002000000FFFEFF09450071007500690070006D0065006E007400000000000000FFFEFF052D0043006E007400720002000000FFFEFF0A430065006E007400650072
310
006C0069006E006500000000000000FFFEFF052D0057006B007300660002000000FFFEFF1E530079007300740065006D00200077006F0072006B0020007300750072006600610063006500200063006F006D0070006F006E0065006E0074007300000000000000FFFEFF052D00420072006E00670002000000FFFEFF1A4200
310
65006100720069006E0067007300200026002000640069007300740061006E006300650020006C006100620065006C007300000000000000FFFEFF052D00530077006300680002000000FFFEFF0853007700690074006300680065007300000000000000FFFEFF052D005400680069006E0002000000FFFEFF195400680069
310
006E0020007700650069006700680074002000670072006100700068006900630020006C0069006E0065007300000000000000FFFEFF052D00520061006900730002000000FFFEFF06520061006900730065006400000000000000FFFEFF052D004F00700065006E0002000000FFFEFF084F00700065006E0069006E006700
310
7300000000000000FFFEFF052D004E0070006C00740002000000FFFEFF204E006F006E002D0070006C006F007400740069006E00670020006700720061007000680069006300200069006E0066006F0072006D006100740069006F006E00000000000000FFFEFF052D00500072006F00660002000000FFFEFF08500072006F
310
00660069006C0065007300000000000000FFFEFF052D005200650066006C0002000000FFFEFF0E5200650066006C0065006300740065006400200050006C0061006E00000000000000FFFEFF052D00460069006E00650002000000FFFEFF19460069006E006500200077006500690067006800740020006700720061007000
310
68006900630020006C0069006E0065007300000000000000FFFEFF052D004100700070006C0002000000FFFEFF0A4100700070006C00690061006E00630065007300000000000000FFFEFF052D00440069006D00730002000000FFFEFF0A440069006D0065006E00730069006F006E007300000000000000FFFEFF052D0050
310
006F007700720002000000FFFEFF0550006F00770065007200000000000000FFFEFF052D0053006C006100620002000000FFFEFF0553006C00610062007300000000000000FFFEFF052D0043006F006E006E0002000000FFFEFF0B43006F006E006E0065006300740069006F006E007300000000000000FFFEFF052D005700
310
61006C006C0002000000FFFEFF05570061006C006C007300000000000000FFFEFF052D004100730073006D0002000000FFFEFF0A41007300730065006D0062006C00690065007300000000000000FFFEFF052D005600680063006C0002000000FFFEFF08560065006800690063006C0065007300000000000000FFFEFF052D
310
0043006F006D006D0002000000FFFEFF1A540065006C006500700068006F006E0065002C00200063006F006D006D0075006E00690063006100740069006F006E0073002000000000000000FFFEFF052D00460072006500650002000000FFFEFF0C46007200650065007300740061006E00640069006E006700000000000000
310
FFFEFF052D00530079006D00620002000000FFFEFF07530079006D0062006F006C007300000000000000FFFEFF052D00520064006D00650002000000FFFEFF1B52006500610064002D006D00650020006C006100790065007200200028006E006F007400200070006C006F0074007400650064002900000000000000FFFEFF
310
052D0053006C006300650002000000FFFEFF0653006C006900630065007300000000000000FFFEFF052D00460061007300630002000000FFFEFF074600610073006300690061007300000000000000FFFEFF052D00460069006C00650002000000FFFEFF0D460069006C006500200063006100620069006E00650074007300
310
000000000000FFFEFF052D004D00610073006B0002000000FFFEFF1241004400540020004D00610073006B0069006E00670020004F0062006A00650063007400000000000000FFFEFF052D004A0061006D00620002000000FFFEFF1544006F006F007200200061006E0064002000770069006E0064006F00770020006A0061
310
006D0062007300000000000000FFFEFF052D005300690067006E0002000000FFFEFF055300690067006E007300000000000000FFFEFF052D0046006E007300680002000000FFFEFF08460069006E0069007300680065007300000000000000FFFEFF052D00530063006800640002000000FFFEFF0953006300680065006400
310
75006C0065007300000000000000FFFEFF052D00500072006800740002000000FFFEFF0E5000610072007400690061006C002000680065006900670068007400000000000000FFFEFF052D00470072007000730002000000FFFEFF06470072006F00750070007300000000000000FFFEFF052D00540068006C006400020000
310
00FFFEFF0A5400680072006500730068006F006C0064007300000000000000FFFEFF052D005300630072006E0002000000FFFEFF14530063007200650065006E006500640020004200610063006B00670072006F0075006E0064007300000000000000FFFEFF052D0043006F006D00700002000000FFFEFF1349006E007400
310
650072006E0061006C00200063006F006D0070006F006E0065006E0074007300000000000000FFFEFF052D005400690074006C0002000000FFFEFF18440072006100770069006E00670020006F0072002000640065007400610069006C0020007400690074006C0065007300000000000000FFFEFF052D0054006500780074
310
0002000000FFFEFF045400650078007400000000000000FFFEFF052D004D00610072006B0002000000FFFEFF1D4D00610072006B006500720073002C00200062007200650061006B0020006D00610072006B0073002C0020006C00650061006400650072007300000000000000FFFEFF052D00460075006C006C0002000000
310
FFFEFF0B460075006C006C002D00680065006900670068007400000000000000FFFEFF052D00450076007400720002000000FFFEFF1B45006C0065007600610074006F00720020006300610072007300200061006E0064002000650071007500690070006D0065006E007400000000000000FFFEFF052D0053007000630065
310
0002000000FFFEFF0553007000610063006500000000000000FFFEFF052D00530075007300700002000000FFFEFF12530075007300700065006E00640065006400200065006C0065006D0065006E0074007300000000000000FFFEFF052D00540065006500730002000000FFFEFF094D00610069006E002000740065006500
310
7300000000000000FFFEFF052D00460069007800740002000000FFFEFF1170006C0075006D00620069006E006700200066006900780074007500720065007300000000000000FFFEFF052D00520065006600720002000000FFFEFF195200650066006500720065006E00630065002C002000650078007400650072006E0061
310
006C002000660069006C0065007300000000000000FFFEFF052D004C00610062006C0002000000FFFEFF064C006100620065006C007300000000000000FFFEFF052D004C0069007400650002000000FFFEFF084C00690067006800740069006E006700000000000000FFFEFF052D00480065007600790002000000FFFEFF1A
310
4800650061007600790020007700650069006700680074002000670072006100700068006900630020006C0069006E0065007300000000000000FFFEFF052D00480065006100640002000000FFFEFF1744006F006F007200200061006E0064002000770069006E0064006F0077002000680065006100640065007200730000
310
0000000000FFFEFF052D004C00650067006E0002000000FFFEFF144C006500670065006E00640073002C002000530079006D0062006F006C0020006B00650079007300000000000000FFFEFF052D004B00650079006E0002000000FFFEFF084B00650079006E006F00740065007300000000000000FFFEFF052D0046006900
310
7800640002000000FFFEFF0F460069007800650064002000650071007500690070006D0065006E007400000000000000FFFEFF052D004C00650076006C0002000000FFFEFF274C006500760065006C0020006300680061006E006700650073002C002000720061006D00700073002C00200070006900740073002C00200064
310
0065007000720065007300730069006F006E007300000000000000FFFEFF052D004D00650064006D0002000000FFFEFF1B4D0065006400690075006D0020007700650069006700680074002000670072006100700068006900630020006C0069006E0065007300000000000000FFFEFF052D0042006C006F00770002000000
310
FFFEFF0E45006C0065006D0065006E00740073002000620065006C006F007700000000000000FFFEFF052D00410063006300730002000000FFFEFF06410063006300650073007300000000000000FFFEFF052D004F0063006300700002000000FFFEFF1A4F00630063007500700061006E00740020006F007200200065006D
310
0070006C006F0079006500650020006E0061006D0065007300000000000000FFFEFF052D00430061007300650002000000FFFEFF08430061007300650077006F0072006B00000000000000FFFEFF052D00520065007600730002000000FFFEFF095200650076006900730069006F006E007300000000000000FFFEFF052D00
310
420072006300650002000000FFFEFF06420072006100630065007300000000000000FFFEFF052D00480069006400650002000000FFFEFF0E480069006400640065006E0020006F0062006A006500630074007300000000000000FFFEFF052D0043006C006E00670002000000FFFEFF074300650069006C0069006E00670000
310
0000000000FFFEFF052D005500740069006C0002000000FFFEFF095500740069006C0069007400690065007300000000000000FFFEFF052D00500061007400740002000000FFFEFF19540065007800740075007200650020006F00720020006800610074006300680020007000610074007400650072006E00730000000000
310
0000FFFEFF052D00430061007600690002000000FFFEFF06430061007600690074007900000000000000FFFEFF052D0050006C006E00740002000000FFFEFF0650006C0061006E0074007300000000000000FFFEFF052D00530074007200730002000000FFFEFF215300740061006900720020007400720065006100640073
310
002C00200065007300630061006C00610074006F00720073002C0020006C00610064006400650072007300000000000000FFFEFF052D00520065007600630002000000FFFEFF0F5200650076006900730069006F006E00200063006C006F00750064007300000000000000FFFEFF052D004D006F007600650002000000FFFE
310
FF124D006F0076006500610062006C0065002000650071007500690070006D0065006E007400000000000000FFFEFF052D005000650070006C0002000000FFFEFF06500065006F0070006C006500000000000000FFFEFF052D00440065006D006F0002000000FFFEFF0A440065006D006F006C006900740069006F006E0000
310
0000000000FFFEFF052D00430075007200740002000000FFFEFF0C4300750072007400610069006E002000570061006C006C00000000000000FFFEFF052D005700640077006B0002000000FFFEFF164100720063006800690074006500630074007500720061006C00200077006F006F00640077006F0072006B0000000000
310
0000FFFEFF052D004E006F007400650002000000FFFEFF054E006F00740065007300000000000000FFFEFF052D004F0076006800640002000000FFFEFF084F007600650072006800650061006400000000000000FFFEFF052D00530075006200740002000000FFFEFF14530075006200740072006100630074006900760065
310
00200065006C0065006D0065006E0074007300000000000000FFFEFF052D00530044004600460002000000FFFEFF1053007500700070006C0079002000640069006600660075007300650072007300000000000000FFFEFF052D00530074006F00720002000000FFFEFF19530079007300740065006D002000730074006F00
310
7200610067006500200063006F006D0070006F006E0065006E0074007300000000000000FFFEFF052D004900640065006E0002000000FFFEFF134900640065006E00740069006600690063006100740069006F006E0020005400610067007300000000000000FFFEFF052D004800720061006C0002000000FFFEFF16480061
310
006E0064007200610069006C0073002C0020006700750061007200640020007200610069006C007300000000000000FFFEFF052D00570069006400650002000000FFFEFF19570069006400650020007700650069006700680074002000670072006100700068006900630020006C0069006E0065007300000000000000FFFE
310
FF052D004D0061007300730002000000FFFEFF104D0061007300730069006E006700200045006C0065006D0065006E0074007300000000000000FFFEFF052D004C0069006E00650002000000FFFEFF0D44006500660069006E0069006E00670020004C0069006E006500000000000000FFFEFF052D00560069006500770002
310
000000FFFEFF13560069006500770070006F0072007400200044006500660069006E006900740069006F006E00000000000000FFFEFF052D0050006B006E00670002000000FFFEFF075000610072006B0069006E006700000000000000FFFEFF052D00520044004600460002000000FFFEFF14520065007400750072006E00
310
20006100690072002000640069006600660075007300650072007300000000000000FFFEFF052D00530065006100740002000000FFFEFF07530065006100740069006E006700000000000000FFFEFF052D0050006E006C00730002000000FFFEFF0D530079007300740065006D002000700061006E0065006C007300000000
310
000000FFFEFF052D004D0061007400630002000000FFFEFF0B4D00610074006300680020006C0069006E0065007300000000000000FFFEFF052D00410064007400760002000000FFFEFF1141006400640069007400690076006500200065006C0065006D0065006E0074007300000000000000FFFEFF052D00430068006100
310
730002000000FFFEFF0543006800610073006500000000000000FFFEFF052D005300700063006C0002000000FFFEFF0B5300700065006300690061006C007400690065007300000000000000FFFEFF052D00470072006900640002000000FFFEFF044700720069006400000000000000FFFEFF052D004E00690063006E0002
310
000000FFFEFF0F4E006F007400200069006E00200063006F006E0074007200610063007400000000000000FFFEFF052D004D0063007500740002000000FFFEFF164D00610069006E00200063007500740020006C0069006E006500200065006C0065006D0065006E0074007300000000000000FFFEFF052D00460069007200
310
650002000000FFFEFF0A46006900720065002000770061006C006C007300000000000000FFFEFF052D00530069006C006C0002000000FFFEFF0C570069006E0064006F0077002000730069006C006C007300000000000000FFFEFF052D005400700074006E0002000000FFFEFF1154006F0069006C00650074002000700061
310
00720074006900740069006F006E007300000000000000FFFEFF052D00520069007300720002000000FFFEFF0C530074006100690072002000720069007300650072007300000000000000FFFEFF052D004F0074006C006E0002000000FFFEFF074F00750074006C0069006E006500000000000000FFFEFF052D0054007400
310
6C00620002000000FFFEFF1642006F007200640065007200200061006E00640020007400690074006C006500200062006C006F0063006B000000000000000180FFFEFF074D0069006E006F0072002000320005000000004164642062656C6F77207468652073656C6563746564206974656DFFFEFF001600FFFEFF052D0041
310
0062006F00760002000000FFFEFF0E45006C0065006D0065006E00740073002000610062006F0076006500000000000000FFFEFF052D00420064007200790002000000FFFEFF0D4500640067006500200062006F0075006E006400610072007900000000000000FFFEFF052D005400680069006E0002000000FFFEFF0E4D00
310
69006E006F00720020006C0069006E00650077006F0072006B00000000000000FFFEFF052D004E0070006C00740002000000FFFEFF154E006F006E002D0070006C006F007400740069006E006700200065006C0065006D0065006E0074007300000000000000FFFEFF052D005200650066006C0002000000FFFEFF0F520065
310
0066006C0065006300740065006400200050006C0061006E007300000000000000FFFEFF052D00440069006D00730002000000FFFEFF0A440069006D0065006E00730069006F006E007300000000000000FFFEFF052D005300630061006C0002000000FFFEFF10470072006100700068006900630061006C00200053006300
310
61006C0065007300000000000000FFFEFF052D0053006C006300650002000000FFFEFF0653006C006900630065007300000000000000FFFEFF052D0047006C0061007A0002000000FFFEFF0747006C0061007A0069006E006700000000000000FFFEFF052D00460061007300630002000000FFFEFF06460061007300630069
310
006100000000000000FFFEFF052D00470072007000730002000000FFFEFF06470072006F00750070007300000000000000FFFEFF052D005400690074006C0002000000FFFEFF065400690074006C0065007300000000000000FFFEFF052D00530066006900740002000000FFFEFF0653006F00660066006900740000000000
310
0000FFFEFF052D00500061007400740002000000FFFEFF0E4800610074006300680020007000610074007400650072006E007300000000000000FFFEFF052D00480069006400650002000000FFFEFF0F480069006400640065006E00200065006C0065006D0065006E0074007300000000000000FFFEFF052D004E006F0074
310
00650002000000FFFEFF16470065006E006500720061006C0020005400650078007400200061006E00640020004E006F00740065007300000000000000FFFEFF052D0055006E006900740002000000FFFEFF0455006E0069007400000000000000FFFEFF052D004900640065006E0002000000FFFEFF0A4900640065006E00
310
740069006600690065007200000000000000FFFEFF052D004C0069006E00650002000000FFFEFF10470065006E006500720061006C0020006C0069006E00650077006F0072006B00000000000000FFFEFF052D00530069006C006C0002000000FFFEFF05530069006C006C007300000000000000FFFEFF052D005200690073
310
00720002000000FFFEFF06520069007300650072007300000000000000FFFEFF052D004F0074006C006E0002000000FFFEFF074F00750074006C0069006E0065000000000000000180FFFEFF06530074006100740075007300060000000000000000A434770470040000B10000005073770400000000050000FFFEFF000F00
310
FFFEFF022D00310002000000FFFEFF075000680061007300650020003100000000000000FFFEFF022D00320002000000FFFEFF075000680061007300650020003200000000000000FFFEFF022D00540002000000FFFEFF0E540065006D0070006F007200610072007900200077006F0072006B00000000000000FFFEFF022D
310
00330002000000FFFEFF075000680061007300650020003300000000000000FFFEFF022D00440002000000FFFEFF144500780069007300740069006E006700200074006F002000640065006D006F006C00690073006800000000000000FFFEFF022D00340002000000FFFEFF07500068006100730065002000340000000000
310
0000FFFEFF022D00450002000000FFFEFF124500780069007300740069006E006700200074006F002000720065006D00610069006E00000000000000FFFEFF022D00350002000000FFFEFF075000680061007300650020003500000000000000FFFEFF022D00460002000000FFFEFF0B460075007400750072006500200077
310
006F0072006B00000000000000FFFEFF022D00360002000000FFFEFF075000680061007300650020003600000000000000FFFEFF022D00370002000000FFFEFF075000680061007300650020003700000000000000FFFEFF022D00380002000000FFFEFF075000680061007300650020003800000000000000FFFEFF022D00
310
390002000000FFFEFF075000680061007300650020003900000000000000FFFEFF022D004D0002000000FFFEFF114900740065006D007300200074006F0020006200650020006D006F00760065006400000000000000FFFEFF022D004E0002000000FFFEFF084E0065007700200077006F0072006B000000000000000600FF
310
FF04001A004163416563556B4C61796572436F6D706F6E656E744669656C64FFFEFF174400690073006300690070006C0069006E0065002000440065007300690067006E00610074006F0072002000310001000000FFFEFF0440002C0040004000000000000100000000FFFEFF014100000000000780FFFEFF174400690073
310
006300690070006C0069006E0065002000440065007300690067006E00610074006F0072002000320001000000FFFEFF0440002C0040004000010000000100000000FFFEFF014400000000000780FFFEFF054D0061006A006F00720005000000FFFEFF052D00400040004000400000000000010000002DFFFEFF052D005700
310
61006C006C00000000000780FFFEFF064D0069006E006F007200310005000000FFFEFF022D002A0001000000010000002DFFFEFF052D004900640065006E00000000000780FFFEFF064D0069006E006F007200320005000000FFFEFF022D002A0001000000010000002DFFFEFF052D005400650078007400000000000780FF
310
FEFF0653007400610074007500730002000000FFFEFF022D002A0001000000010000002DFFFEFF022D004E0000000000050000010203040500FFFEFF00FFFEFF0320002D002000FFFEFF022C002000FFFEFF012000FFFEFF0320002D002000FFFEFF00
  0
DICTIONARY
  5
3D98
330
3D97
100
AcDbDictionary
280
     1
281
     1
  3
AcadLayerStateAnnoScale
360
3D99
  0
DICTIONARY
  5
3D8C
330
3D8B
100
AcDbDictionary
280
     1
281
     1
  3
AcadLayerStateAnnoScale
360
3D8D
  0
DICTIONARY
  5
ABCC
330
ABCB
100
AcDbDictionary
280
     1
281
     1
  3
AcadLayerStateAnnoScale
360
ABCD
  0
DICTIONARY
  5
ABD0
330
ABCF
100
AcDbDictionary
280
     1
281
     1
  3
AcadLayerStateAnnoScale
360
ABD1
  0
CELLSTYLEMAP
  5
AC23
102
{ACAD_REACTORS
330
ABDD
102
}
330
ABDD
100
AcDbCellStyleMap
 90
        3
300
CELLSTYLE
  1
TABLEFORMAT_BEGIN
 90
        5
170
     1
 91
        0
 92
    32768
 62
   257
 93
        1
300
CONTENTFORMAT
  1
CONTENTFORMAT_BEGIN
 90
        0
 91
        0
 92
      512
 93
        0
300

 40
0.0
140
1.0
 94
        5
 62
     0
340
ABDE
144
0.25
309
CONTENTFORMAT_END
171
     0
 94
        6
 95
        1
302
GRIDFORMAT
  1
GRIDFORMAT_BEGIN
 90
        0
 91
        1
 62
     0
 92
       -2
340
0
 93
        0
 40
0.045
309
GRIDFORMAT_END
 95
        2
302
GRIDFORMAT
  1
GRIDFORMAT_BEGIN
 90
        0
 91
        1
 62
     0
 92
       -2
340
0
 93
        0
 40
0.045
309
GRIDFORMAT_END
 95
        4
302
GRIDFORMAT
  1
GRIDFORMAT_BEGIN
 90
        0
 91
        1
 62
     0
 92
       -2
340
0
 93
        0
 40
0.045
309
GRIDFORMAT_END
 95
        8
302
GRIDFORMAT
  1
GRIDFORMAT_BEGIN
 90
        0
 91
        1
 62
     0
 92
       -2
340
0
 93
        0
 40
0.045
309
GRIDFORMAT_END
 95
       16
302
GRIDFORMAT
  1
GRIDFORMAT_BEGIN
 90
        0
 91
        1
 62
     0
 92
       -2
340
0
 93
        0
 40
0.045
309
GRIDFORMAT_END
 95
       32
302
GRIDFORMAT
  1
GRIDFORMAT_BEGIN
 90
        0
 91
        1
 62
     0
 92
       -2
340
0
 93
        0
 40
0.045
309
GRIDFORMAT_END
309
TABLEFORMAT_END
  1
CELLSTYLE_BEGIN
 90
        1
 91
        1
300
_TITLE
309
CELLSTYLE_END
300
CELLSTYLE
  1
TABLEFORMAT_BEGIN
 90
        5
170
     1
 91
        0
 92
        0
 62
   257
 93
        1
300
CONTENTFORMAT
  1
CONTENTFORMAT_BEGIN
 90
        0
 91
        0
 92
      512
 93
        0
300

 40
0.0
140
1.0
 94
        5
 62
     0
340
ABDE
144
0.18
309
CONTENTFORMAT_END
171
     0
 94
        6
 95
        1
302
GRIDFORMAT
  1
GRIDFORMAT_BEGIN
 90
        0
 91
        1
 62
     0
 92
       -2
340
0
 93
        0
 40
0.045
309
GRIDFORMAT_END
 95
        2
302
GRIDFORMAT
  1
GRIDFORMAT_BEGIN
 90
        0
 91
        1
 62
     0
 92
       -2
340
0
 93
        0
 40
0.045
309
GRIDFORMAT_END
 95
        4
302
GRIDFORMAT
  1
GRIDFORMAT_BEGIN
 90
        0
 91
        1
 62
     0
 92
       -2
340
0
 93
        0
 40
0.045
309
GRIDFORMAT_END
 95
        8
302
GRIDFORMAT
  1
GRIDFORMAT_BEGIN
 90
        0
 91
        1
 62
     0
 92
       -2
340
0
 93
        0
 40
0.045
309
GRIDFORMAT_END
 95
       16
302
GRIDFORMAT
  1
GRIDFORMAT_BEGIN
 90
        0
 91
        1
 62
     0
 92
       -2
340
0
 93
        0
 40
0.045
309
GRIDFORMAT_END
 95
       32
302
GRIDFORMAT
  1
GRIDFORMAT_BEGIN
 90
        0
 91
        1
 62
     0
 92
       -2
340
0
 93
        0
 40
0.045
309
GRIDFORMAT_END
309
TABLEFORMAT_END
  1
CELLSTYLE_BEGIN
 90
        2
 91
        1
300
_HEADER
309
CELLSTYLE_END
300
CELLSTYLE
  1
TABLEFORMAT_BEGIN
 90
        5
170
     1
 91
        0
 92
        0
 62
   257
 93
        1
300
CONTENTFORMAT
  1
CONTENTFORMAT_BEGIN
 90
        0
 91
        0
 92
      512
 93
        0
300

 40
0.0
140
1.0
 94
        2
 62
     0
340
ABDE
144
0.18
309
CONTENTFORMAT_END
171
     0
 94
        6
 95
        1
302
GRIDFORMAT
  1
GRIDFORMAT_BEGIN
 90
        0
 91
        1
 62
     0
 92
       -2
340
0
 93
        0
 40
0.045
309
GRIDFORMAT_END
 95
        2
302
GRIDFORMAT
  1
GRIDFORMAT_BEGIN
 90
        0
 91
        1
 62
     0
 92
       -2
340
0
 93
        0
 40
0.045
309
GRIDFORMAT_END
 95
        4
302
GRIDFORMAT
  1
GRIDFORMAT_BEGIN
 90
        0
 91
        1
 62
     0
 92
       -2
340
0
 93
        0
 40
0.045
309
GRIDFORMAT_END
 95
        8
302
GRIDFORMAT
  1
GRIDFORMAT_BEGIN
 90
        0
 91
        1
 62
     0
 92
       -2
340
0
 93
        0
 40
0.045
309
GRIDFORMAT_END
 95
       16
302
GRIDFORMAT
  1
GRIDFORMAT_BEGIN
 90
        0
 91
        1
 62
     0
 92
       -2
340
0
 93
        0
 40
0.045
309
GRIDFORMAT_END
 95
       32
302
GRIDFORMAT
  1
GRIDFORMAT_BEGIN
 90
        0
 91
        1
 62
     0
 92
       -2
340
0
 93
        0
 40
0.045
309
GRIDFORMAT_END
309
TABLEFORMAT_END
  1
CELLSTYLE_BEGIN
 90
        3
 91
        2
300
_DATA
309
CELLSTYLE_END
  0
CELLSTYLEMAP
  5
AC20
102
{ACAD_REACTORS
330
30E
102
}
330
30E
100
AcDbCellStyleMap
 90
        3
300
CELLSTYLE
  1
TABLEFORMAT_BEGIN
 90
        5
170
     1
 91
        0
 92
    32768
 62
   257
 93
        1
300
CONTENTFORMAT
  1
CONTENTFORMAT_BEGIN
 90
        0
 91
        0
 92
      512
 93
        0
300

 40
0.0
140
1.0
 94
        5
 62
     0
340
11
144
0.25
309
CONTENTFORMAT_END
171
     0
 94
        6
 95
        1
302
GRIDFORMAT
  1
GRIDFORMAT_BEGIN
 90
        0
 91
        1
 62
     0
 92
       -2
340
0
 93
        0
 40
0.045
309
GRIDFORMAT_END
 95
        2
302
GRIDFORMAT
  1
GRIDFORMAT_BEGIN
 90
        0
 91
        1
 62
     0
 92
       -2
340
0
 93
        0
 40
0.045
309
GRIDFORMAT_END
 95
        4
302
GRIDFORMAT
  1
GRIDFORMAT_BEGIN
 90
        0
 91
        1
 62
     0
 92
       -2
340
0
 93
        0
 40
0.045
309
GRIDFORMAT_END
 95
        8
302
GRIDFORMAT
  1
GRIDFORMAT_BEGIN
 90
        0
 91
        1
 62
     0
 92
       -2
340
0
 93
        0
 40
0.045
309
GRIDFORMAT_END
 95
       16
302
GRIDFORMAT
  1
GRIDFORMAT_BEGIN
 90
        0
 91
        1
 62
     0
 92
       -2
340
0
 93
        0
 40
0.045
309
GRIDFORMAT_END
 95
       32
302
GRIDFORMAT
  1
GRIDFORMAT_BEGIN
 90
        0
 91
        1
 62
     0
 92
       -2
340
0
 93
        0
 40
0.045
309
GRIDFORMAT_END
309
TABLEFORMAT_END
  1
CELLSTYLE_BEGIN
 90
        1
 91
        1
300
_TITLE
309
CELLSTYLE_END
300
CELLSTYLE
  1
TABLEFORMAT_BEGIN
 90
        5
170
     1
 91
        0
 92
        0
 62
   257
 93
        1
300
CONTENTFORMAT
  1
CONTENTFORMAT_BEGIN
 90
        0
 91
        0
 92
      512
 93
        0
300

 40
0.0
140
1.0
 94
        5
 62
     0
340
11
144
0.18
309
CONTENTFORMAT_END
171
     0
 94
        6
 95
        1
302
GRIDFORMAT
  1
GRIDFORMAT_BEGIN
 90
        0
 91
        1
 62
     0
 92
       -2
340
0
 93
        0
 40
0.045
309
GRIDFORMAT_END
 95
        2
302
GRIDFORMAT
  1
GRIDFORMAT_BEGIN
 90
        0
 91
        1
 62
     0
 92
       -2
340
0
 93
        0
 40
0.045
309
GRIDFORMAT_END
 95
        4
302
GRIDFORMAT
  1
GRIDFORMAT_BEGIN
 90
        0
 91
        1
 62
     0
 92
       -2
340
0
 93
        0
 40
0.045
309
GRIDFORMAT_END
 95
        8
302
GRIDFORMAT
  1
GRIDFORMAT_BEGIN
 90
        0
 91
        1
 62
     0
 92
       -2
340
0
 93
        0
 40
0.045
309
GRIDFORMAT_END
 95
       16
302
GRIDFORMAT
  1
GRIDFORMAT_BEGIN
 90
        0
 91
        1
 62
     0
 92
       -2
340
0
 93
        0
 40
0.045
309
GRIDFORMAT_END
 95
       32
302
GRIDFORMAT
  1
GRIDFORMAT_BEGIN
 90
        0
 91
        1
 62
     0
 92
       -2
340
0
 93
        0
 40
0.045
309
GRIDFORMAT_END
309
TABLEFORMAT_END
  1
CELLSTYLE_BEGIN
 90
        2
 91
        1
300
_HEADER
309
CELLSTYLE_END
300
CELLSTYLE
  1
TABLEFORMAT_BEGIN
 90
        5
170
     1
 91
        0
 92
        0
 62
   257
 93
        1
300
CONTENTFORMAT
  1
CONTENTFORMAT_BEGIN
 90
        0
 91
        0
 92
      512
 93
        0
300

 40
0.0
140
1.0
 94
        2
 62
     0
340
11
144
0.18
309
CONTENTFORMAT_END
171
     0
 94
        6
 95
        1
302
GRIDFORMAT
  1
GRIDFORMAT_BEGIN
 90
        0
 91
        1
 62
     0
 92
       -2
340
0
 93
        0
 40
0.045
309
GRIDFORMAT_END
 95
        2
302
GRIDFORMAT
  1
GRIDFORMAT_BEGIN
 90
        0
 91
        1
 62
     0
 92
       -2
340
0
 93
        0
 40
0.045
309
GRIDFORMAT_END
 95
        4
302
GRIDFORMAT
  1
GRIDFORMAT_BEGIN
 90
        0
 91
        1
 62
     0
 92
       -2
340
0
 93
        0
 40
0.045
309
GRIDFORMAT_END
 95
        8
302
GRIDFORMAT
  1
GRIDFORMAT_BEGIN
 90
        0
 91
        1
 62
     0
 92
       -2
340
0
 93
        0
 40
0.045
309
GRIDFORMAT_END
 95
       16
302
GRIDFORMAT
  1
GRIDFORMAT_BEGIN
 90
        0
 91
        1
 62
     0
 92
       -2
340
0
 93
        0
 40
0.045
309
GRIDFORMAT_END
 95
       32
302
GRIDFORMAT
  1
GRIDFORMAT_BEGIN
 90
        0
 91
        1
 62
     0
 92
       -2
340
0
 93
        0
 40
0.045
309
GRIDFORMAT_END
309
TABLEFORMAT_END
  1
CELLSTYLE_BEGIN
 90
        3
 91
        2
300
_DATA
309
CELLSTYLE_END
  0
XRECORD
  5
812
102
{ACAD_REACTORS
330
811
102
}
330
811
100
AcDbXrecord
280
     1
 90
        2
  0
XRECORD
  5
3D99
102
{ACAD_REACTORS
330
3D98
102
}
330
3D98
100
AcDbXrecord
280
     1
330
2A2
  0
XRECORD
  5
3D8D
102
{ACAD_REACTORS
330
3D8C
102
}
330
3D8C
100
AcDbXrecord
280
     1
330
2A2
  0
XRECORD
  5
ABCD
102
{ACAD_REACTORS
330
ABCC
102
}
330
ABCC
100
AcDbXrecord
280
     1
330
2A2
  0
XRECORD
  5
ABD1
102
{ACAD_REACTORS
330
ABD0
102
}
330
ABD0
100
AcDbXrecord
280
     1
330
2A2
  0
ENDSEC
  0
EOF
