  0
SECTION
  2
HEADER
  9
$ACADVER
  1
AC1015
  9
$ACADMAINTVER
 70
    20
  9
$DWGCODEPAGE
  3
ANSI_1252
  9
$INSBASE
 10
0.0
 20
0.0
 30
0.0
  9
$EXTMIN
 10
-1.000000000000000E+20
 20
-1.000000000000000E+20
 30
-1.000000000000000E+20
  9
$EXTMAX
 10
1.000000000000000E+20
 20
1.000000000000000E+20
 30
1.000000000000000E+20
  9
$LIMMIN
 10
0.0
 20
0.0
  9
$LIMMAX
 10
420.0
 20
297.0
  9
$ORTHOMODE
 70
     0
  9
$REGENMODE
 70
     1
  9
$FILLMODE
 70
     1
  9
$QTEXTMODE
 70
     0
  9
$MIRRTEXT
 70
     0
  9
$LTSCALE
 40
1.0
  9
$ATTMODE
 70
     1
  9
$TEXTSIZE
 40
5.5
  9
$TRACEWID
 40
1.0
  9
$TEXTSTYLE
  7
SPECIALIZED
  9
$CLAYER
  8
Specialized_Fills
  9
$CELTYPE
  6
ByLayer
  9
$CECOLOR
 62
   256
  9
$CELTSCALE
 40
1.0
  9
$DISPSILH
 70
     0
  9
$DIMSCALE
 40
1.0
  9
$DIMASZ
 40
7.299999999999999
  9
$DIMEXO
 40
10.0
  9
$DIMDLI
 40
3.75
  9
$DIMRND
 40
0.0
  9
$DIMDLE
 40
0.0
  9
$DIMEXE
 40
3.5
  9
$DIMTP
 40
0.0
  9
$DIMTM
 40
0.0
  9
$DIMTXT
 40
5.5
  9
$DIMCEN
 40
2.5
  9
$DIMTSZ
 40
0.0
  9
$DIMTOL
 70
     0
  9
$DIMLIM
 70
     0
  9
$DIMTIH
 70
     0
  9
$DIMTOH
 70
     0
  9
$DIMSE1
 70
     0
  9
$DIMSE2
 70
     0
  9
$DIMTAD
 70
     1
  9
$DIMZIN
 70
     8
  9
$DIMBLK
  1
Oblique
  9
$DIMASO
 70
     1
  9
$DIMSHO
 70
     1
  9
$DIMPOST
  1

  9
$DIMAPOST
  1

  9
$DIMALT
 70
     0
  9
$DIMALTD
 70
     3
  9
$DIMALTF
 40
0.03937007874016
  9
$DIMLFAC
 40
1.0
  9
$DIMTOFL
 70
     1
  9
$DIMTVP
 40
0.0
  9
$DIMTIX
 70
     0
  9
$DIMSOXD
 70
     0
  9
$DIMSAH
 70
     0
  9
$DIMBLK1
  1

  9
$DIMBLK2
  1

  9
$DIMSTYLE
  2
Specialized
  9
$DIMCLRD
 70
     0
  9
$DIMCLRE
 70
     0
  9
$DIMCLRT
 70
     0
  9
$DIMTFAC
 40
1.0
  9
$DIMGAP
 40
2.0
  9
$DIMJUST
 70
     0
  9
$DIMSD1
 70
     0
  9
$DIMSD2
 70
     0
  9
$DIMTOLJ
 70
     0
  9
$DIMTZIN
 70
     8
  9
$DIMALTZ
 70
     0
  9
$DIMALTTZ
 70
     0
  9
$DIMUPT
 70
     0
  9
$DIMDEC
 70
     0
  9
$DIMTDEC
 70
     0
  9
$DIMALTU
 70
     2
  9
$DIMALTTD
 70
     3
  9
$DIMTXSTY
  7
SPECIALIZED
  9
$DIMAUNIT
 70
     0
  9
$DIMADEC
 70
     0
  9
$DIMALTRND
 40
0.0
  9
$DIMAZIN
 70
     0
  9
$DIMDSEP
 70
    44
  9
$DIMATFIT
 70
     3
  9
$DIMFRAC
 70
     0
  9
$DIMLDRBLK
  1

  9
$DIMLUNIT
 70
     2
  9
$DIMLWD
 70
    -2
  9
$DIMLWE
 70
    -2
  9
$DIMTMOVE
 70
     0
  9
$LUNITS
 70
     2
  9
$LUPREC
 70
     4
  9
$SKETCHINC
 40
1.0
  9
$FILLETRAD
 40
0.0
  9
$AUNITS
 70
     0
  9
$AUPREC
 70
     0
  9
$MENU
  1
.
  9
$ELEVATION
 40
0.0
  9
$PELEVATION
 40
0.0
  9
$THICKNESS
 40
0.0
  9
$LIMCHECK
 70
     0
  9
$CHAMFERA
 40
0.0
  9
$CHAMFERB
 40
0.0
  9
$CHAMFERC
 40
0.0
  9
$CHAMFERD
 40
0.0
  9
$SKPOLY
 70
     0
  9
$TDCREATE
 40
2456898.462589062
  9
$TDUCREATE
 40
2456897.920922396
  9
$TDUPDATE
 40
2457071.446314537
  9
$TDUUPDATE
 40
2457070.904647871
  9
$TDINDWG
 40
0.0559673843
  9
$TDUSRTIMER
 40
0.0559673495
  9
$USRTIMER
 70
     1
  9
$ANGBASE
 50
0.0
  9
$ANGDIR
 70
     0
  9
$PDMODE
 70
     0
  9
$PDSIZE
 40
0.0
  9
$PLINEWID
 40
0.0
  9
$SPLFRAME
 70
     0
  9
$SPLINETYPE
 70
     6
  9
$SPLINESEGS
 70
     8
  9
$HANDSEED
  5
755
  9
$SURFTAB1
 70
     6
  9
$SURFTAB2
 70
     6
  9
$SURFTYPE
 70
     6
  9
$SURFU
 70
     6
  9
$SURFV
 70
     6
  9
$UCSBASE
  2

  9
$UCSNAME
  2

  9
$UCSORG
 10
0.0
 20
0.0
 30
0.0
  9
$UCSXDIR
 10
1.0
 20
0.0
 30
0.0
  9
$UCSYDIR
 10
0.0
 20
1.0
 30
0.0
  9
$UCSORTHOREF
  2

  9
$UCSORTHOVIEW
 70
     0
  9
$UCSORGTOP
 10
0.0
 20
0.0
 30
0.0
  9
$UCSORGBOTTOM
 10
0.0
 20
0.0
 30
0.0
  9
$UCSORGLEFT
 10
0.0
 20
0.0
 30
0.0
  9
$UCSORGRIGHT
 10
0.0
 20
0.0
 30
0.0
  9
$UCSORGFRONT
 10
0.0
 20
0.0
 30
0.0
  9
$UCSORGBACK
 10
0.0
 20
0.0
 30
0.0
  9
$PUCSBASE
  2

  9
$PUCSNAME
  2

  9
$PUCSORG
 10
0.0
 20
0.0
 30
0.0
  9
$PUCSXDIR
 10
1.0
 20
0.0
 30
0.0
  9
$PUCSYDIR
 10
0.0
 20
1.0
 30
0.0
  9
$PUCSORTHOREF
  2

  9
$PUCSORTHOVIEW
 70
     0
  9
$PUCSORGTOP
 10
0.0
 20
0.0
 30
0.0
  9
$PUCSORGBOTTOM
 10
0.0
 20
0.0
 30
0.0
  9
$PUCSORGLEFT
 10
0.0
 20
0.0
 30
0.0
  9
$PUCSORGRIGHT
 10
0.0
 20
0.0
 30
0.0
  9
$PUCSORGFRONT
 10
0.0
 20
0.0
 30
0.0
  9
$PUCSORGBACK
 10
0.0
 20
0.0
 30
0.0
  9
$USERI1
 70
     0
  9
$USERI2
 70
     0
  9
$USERI3
 70
     0
  9
$USERI4
 70
     0
  9
$USERI5
 70
     0
  9
$USERR1
 40
0.0
  9
$USERR2
 40
0.0
  9
$USERR3
 40
0.0
  9
$USERR4
 40
0.0
  9
$USERR5
 40
0.0
  9
$WORLDVIEW
 70
     1
  9
$SHADEDGE
 70
     3
  9
$SHADEDIF
 70
    70
  9
$TILEMODE
 70
     1
  9
$MAXACTVP
 70
    64
  9
$PINSBASE
 10
0.0
 20
0.0
 30
0.0
  9
$PLIMCHECK
 70
     0
  9
$PEXTMIN
 10
0.0
 20
0.0
 30
0.0
  9
$PEXTMAX
 10
0.0
 20
0.0
 30
0.0
  9
$PLIMMIN
 10
0.0
 20
0.0
  9
$PLIMMAX
 10
12.0
 20
9.0
  9
$UNITMODE
 70
     0
  9
$VISRETAIN
 70
     1
  9
$PLINEGEN
 70
     0
  9
$PSLTSCALE
 70
     1
  9
$TREEDEPTH
 70
  3020
  9
$CMLSTYLE
  2
Standard
  9
$CMLJUST
 70
     0
  9
$CMLSCALE
 40
20.0
  9
$PROXYGRAPHICS
 70
     1
  9
$MEASUREMENT
 70
     1
  9
$CELWEIGHT
370
    -1
  9
$ENDCAPS
280
     0
  9
$JOINSTYLE
280
     0
  9
$LWDISPLAY
290
     0
  9
$INSUNITS
 70
     4
  9
$HYPERLINKBASE
  1

  9
$STYLESHEET
  1

  9
$XEDIT
290
     1
  9
$CEPSNTYPE
380
     0
  9
$PSTYLEMODE
290
     1
  9
$FINGERPRINTGUID
  2
{E03498EE-67A7-412C-9BA6-FF83A0C2D77C}
  9
$VERSIONGUID
  2
{9A5630C2-50BF-420D-B3EF-71D91A208F4C}
  9
$EXTNAMES
290
     1
  9
$PSVPSCALE
 40
0.0
  9
$OLESTARTUP
290
     0
  0
ENDSEC
  0
SECTION
  2
CLASSES
  0
CLASS
  1
ACDBDICTIONARYWDFLT
  2
AcDbDictionaryWithDefault
  3
ObjectDBX Classes
 90
        0
280
     0
281
     0
  0
CLASS
  1
ACDBPLACEHOLDER
  2
AcDbPlaceHolder
  3
ObjectDBX Classes
 90
        0
280
     0
281
     0
  0
CLASS
  1
LAYOUT
  2
AcDbLayout
  3
ObjectDBX Classes
 90
        0
280
     0
281
     0
  0
CLASS
  1
DICTIONARYVAR
  2
AcDbDictionaryVar
  3
ObjectDBX Classes
 90
        0
280
     0
281
     0
  0
CLASS
  1
TABLESTYLE
  2
AcDbTableStyle
  3
ObjectDBX Classes
 90
     4095
280
     0
281
     0
  0
CLASS
  1
MATERIAL
  2
AcDbMaterial
  3
ObjectDBX Classes
 90
     1153
280
     0
281
     0
  0
CLASS
  1
VISUALSTYLE
  2
AcDbVisualStyle
  3
ObjectDBX Classes
 90
     4095
280
     0
281
     0
  0
CLASS
  1
SCALE
  2
AcDbScale
  3
ObjectDBX Classes
 90
     1153
280
     0
281
     0
  0
CLASS
  1
MLEADERSTYLE
  2
AcDbMLeaderStyle
  3
ACDB_MLEADERSTYLE_CLASS
 90
     4095
280
     0
281
     0
  0
CLASS
  1
CELLSTYLEMAP
  2
AcDbCellStyleMap
  3
ObjectDBX Classes
 90
     1152
280
     0
281
     0
  0
CLASS
  1
EXACXREFPANELOBJECT
  2
ExAcXREFPanelObject
  3
EXAC_ESW
 90
     1025
280
     0
281
     0
  0
CLASS
  1
NPOCOLLECTION
  2
AcDbImpNonPersistentObjectsCollection
  3
ObjectDBX Classes
 90
     1153
280
     0
281
     0
  0
CLASS
  1
LAYER_INDEX
  2
AcDbLayerIndex
  3
ObjectDBX Classes
 90
    32768
280
     0
281
     0
  0
CLASS
  1
SPATIAL_INDEX
  2
AcDbSpatialIndex
  3
ObjectDBX Classes
 90
    32768
280
     0
281
     0
  0
CLASS
  1
IDBUFFER
  2
AcDbIdBuffer
  3
ObjectDBX Classes
 90
    32768
280
     0
281
     0
  0
CLASS
  1
ACDBSECTIONVIEWSTYLE
  2
AcDbSectionViewStyle
  3
ObjectDBX Classes
 90
     1025
280
     0
281
     0
  0
CLASS
  1
ACDBDETAILVIEWSTYLE
  2
AcDbDetailViewStyle
  3
ObjectDBX Classes
 90
     1025
280
     0
281
     0
  0
CLASS
  1
SUN
  2
AcDbSun
  3
SCENEOE
 90
     1153
280
     0
281
     0
  0
CLASS
  1
IMAGE
  2
AcDbRasterImage
  3
ISM
 90
    34943
280
     0
281
     1
  0
CLASS
  1
IMAGEDEF_REACTOR
  2
AcDbRasterImageDefReactor
  3
ISM
 90
    32769
280
     0
281
     0
  0
CLASS
  1
MULTILEADER
  2
AcDbMLeader
  3
ACDB_MLEADER_CLASS
 90
     1025
280
     0
281
     1
  0
CLASS
  1
DIMASSOC
  2
AcDbDimAssoc
  3
"AcDbDimAssoc|Product Desc:     AcDim ARX App For Dimension|Company:          Autodesk, Inc.|WEB Address:      www.autodesk.com"
 90
        0
280
     0
281
     0
  0
CLASS
  1
PDFUNDERLAY
  2
AcDbPdfReference
  3
ObjectDBX Classes
 90
     4095
280
     0
281
     1
  0
CLASS
  1
IMAGEDEF
  2
AcDbRasterImageDef
  3
ISM
 90
    32768
280
     0
281
     0
  0
CLASS
  1
ACDBASSOC2DCONSTRAINTGROUP
  2
AcDbAssoc2dConstraintGroup
  3
ObjectDBX Classes
 90
     1025
280
     0
281
     0
  0
CLASS
  1
ACDBASSOCGEOMDEPENDENCY
  2
AcDbAssocGeomDependency
  3
ObjectDBX Classes
 90
     1025
280
     0
281
     0
  0
CLASS
  1
ACDBASSOCNETWORK
  2
AcDbAssocNetwork
  3
ObjectDBX Classes
 90
     1025
280
     0
281
     0
  0
CLASS
  1
RASTERVARIABLES
  2
AcDbRasterVariables
  3
ISM
 90
        0
280
     0
281
     0
  0
CLASS
  1
PDFDEFINITION
  2
AcDbPdfDefinition
  3
ObjectDBX Classes
 90
    33921
280
     0
281
     0
  0
CLASS
  1
SORTENTSTABLE
  2
AcDbSortentsTable
  3
ObjectDBX Classes
 90
        0
280
     0
281
     0
  0
CLASS
  1
ACDB_ALDIMOBJECTCONTEXTDATA_CLASS
  2
AcDbAlignedDimensionObjectContextData
  3
ObjectDBX Classes
 90
    33921
280
     0
281
     0
  0
ENDSEC
  0
SECTION
  2
TABLES
  0
TABLE
  2
VPORT
  5
8
330
0
100
AcDbSymbolTable
 70
     1
  0
VPORT
  5
EA
330
8
100
AcDbSymbolTableRecord
100
AcDbViewportTableRecord
  2
*Active
 70
     0
 10
0.0
 20
0.0
 11
1.0
 21
1.0
 12
487.6389061749213
 22
335.9041375996631
 13
0.0
 23
0.0
 14
10.0
 24
10.0
 15
10.0
 25
10.0
 16
0.0
 26
0.0
 36
1.0
 17
0.0
 27
0.0
 37
0.0
 40
1147.638697421009
 41
1.710191082802547
 42
50.0
 43
0.0
 44
0.0
 50
0.0
 51
0.0
 71
     0
 72
  1000
 73
     1
 74
     3
 75
     0
 76
     1
 77
     0
 78
     0
281
     0
 65
     1
110
0.0
120
0.0
130
0.0
111
1.0
121
0.0
131
0.0
112
0.0
122
1.0
132
0.0
 79
     0
146
0.0
1001
ACAD_NAV_VCDISPLAY
1070
     3
  0
ENDTAB
  0
TABLE
  2
LTYPE
  5
5
330
0
100
AcDbSymbolTable
 70
     4
  0
LTYPE
  5
14
330
5
100
AcDbSymbolTableRecord
100
AcDbLinetypeTableRecord
  2
ByBlock
 70
     0
  3

 72
    65
 73
     0
 40
0.0
  0
LTYPE
  5
15
330
5
100
AcDbSymbolTableRecord
100
AcDbLinetypeTableRecord
  2
ByLayer
 70
     0
  3

 72
    65
 73
     0
 40
0.0
  0
LTYPE
  5
16
330
5
100
AcDbSymbolTableRecord
100
AcDbLinetypeTableRecord
  2
Continuous
 70
     0
  3
Solid line
 72
    65
 73
     0
 40
0.0
  0
LTYPE
  5
246
330
5
100
AcDbSymbolTableRecord
100
AcDbLinetypeTableRecord
  2
Hidden
 70
     0
  3
- - - - - 
 72
    65
 73
     2
 40
4.938889980316162
 49
2.822222709655761
 74
     0
 49
-2.1166672706604
 74
     0
  0
LTYPE
  5
247
330
5
100
AcDbSymbolTableRecord
100
AcDbLinetypeTableRecord
  2
DASHEDX2
 70
     0
  3
Dashed (2x) ____  ____  ____  ____  ____  ___
 72
    65
 73
     2
 40
1.5
 49
1.0
 74
     0
 49
-0.5
 74
     0
  0
LTYPE
  5
248
330
5
100
AcDbSymbolTableRecord
100
AcDbLinetypeTableRecord
  2
PLASTER
 70
     0
  3
PLASTER
 72
    65
 73
     2
 40
2.379214999999999
 49
0.000024
 74
     4
 75
     1
340
252
 46
0.2
 50
0.0
 44
0.0
 45
0.0
 49
-2.379191
 74
     0
  0
ENDTAB
  0
TABLE
  2
LAYER
  5
2
102
{ACAD_XDICTIONARY
360
1FF
102
}
330
0
100
AcDbSymbolTable
 70
     6
  0
LAYER
  5
10
102
{ACAD_XDICTIONARY
360
13C
102
}
330
2
100
AcDbSymbolTableRecord
100
AcDbLayerTableRecord
  2
0
 70
     0
 62
     7
  6
Continuous
370
    -3
390
F
  0
LAYER
  5
249
102
{ACAD_XDICTIONARY
360
24A
102
}
330
2
100
AcDbSymbolTableRecord
100
AcDbLayerTableRecord
  2
Specialized_Fills
 70
     0
 62
     7
  6
Continuous
370
    -3
390
F
  0
LAYER
  5
24B
102
{ACAD_XDICTIONARY
360
24C
102
}
330
2
100
AcDbSymbolTableRecord
100
AcDbLayerTableRecord
  2
Specialized_Lines
 70
     0
 62
     7
  6
Continuous
370
    -3
390
F
  0
LAYER
  5
24D
102
{ACAD_XDICTIONARY
360
24E
102
}
330
2
100
AcDbSymbolTableRecord
100
AcDbLayerTableRecord
  2
Specialized_Text
 70
     0
 62
     7
  6
Continuous
370
    -3
390
F
  0
LAYER
  5
24F
102
{ACAD_XDICTIONARY
360
250
102
}
330
2
100
AcDbSymbolTableRecord
100
AcDbLayerTableRecord
  2
Viewport
 70
     0
 62
     7
  6
Continuous
370
    -3
390
F
1001
AcAecLayerStandard
1000

1000

1001
AcCmTransparency
1071
        0
  0
LAYER
  5
4F0
330
2
100
AcDbSymbolTableRecord
100
AcDbLayerTableRecord
  2
Defpoints
 70
     0
 62
     7
  6
Continuous
290
     0
370
    -3
390
F
  0
ENDTAB
  0
TABLE
  2
STYLE
  5
3
330
0
100
AcDbSymbolTable
 70
     5
  0
STYLE
  5
11
330
3
100
AcDbSymbolTableRecord
100
AcDbTextStyleTableRecord
  2
Standard
 70
     0
 40
0.0
 41
1.0
 50
0.0
 71
     0
 42
2.5
  3
arial.ttf
  4

1001
ACAD
1000
Arial
1071
       34
  0
STYLE
  5
132
330
3
100
AcDbSymbolTableRecord
100
AcDbTextStyleTableRecord
  2
Annotative
 70
     0
 40
0.0
 41
1.0
 50
0.0
 71
     0
 42
2.5
  3
arial.ttf
  4

1001
AcadAnnotative
1000
AnnotativeData
1002
{
1070
     1
1070
     1
1002
}
1001
ACAD
1000
Arial
1071
       34
  0
STYLE
  5
251
330
3
100
AcDbSymbolTableRecord
100
AcDbTextStyleTableRecord
  2
SPECIALIZED
 70
     0
 40
5.5
 41
1.0
 50
0.0
 71
     0
 42
5.5
  3
ARIALUNI.TTF
  4

1001
ACAD
1000
Arial Unicode MS
1071
       34
  0
STYLE
  5
252
330
3
100
AcDbSymbolTableRecord
100
AcDbTextStyleTableRecord
  2

 70
     1
 40
0.0
 41
1.0
 50
0.0
 71
     0
 42
0.2
  3
P:\VERT-X CONSULTING LTD\2013\10 OCT\1310-015- SPECIALIZED CONSTRUCTION PRODUCTS - CONTRACT DRAUGHTING\DRAWINGS\PLASTER.SHX
  4

  0
STYLE
  5
253
330
3
100
AcDbSymbolTableRecord
100
AcDbTextStyleTableRecord
  2
SPECIALIZED TITLE
 70
     0
 40
5.5
 41
1.0
 50
0.0
 71
     0
 42
5.5
  3
arial.ttf
  4

1001
ACAD
1000
Arial
1071
       34
  0
ENDTAB
  0
TABLE
  2
VIEW
  5
6
330
0
100
AcDbSymbolTable
 70
     0
  0
ENDTAB
  0
TABLE
  2
UCS
  5
7
330
0
100
AcDbSymbolTable
 70
     0
  0
ENDTAB
  0
TABLE
  2
APPID
  5
9
330
0
100
AcDbSymbolTable
 70
    16
  0
APPID
  5
12
330
9
100
AcDbSymbolTableRecord
100
AcDbRegAppTableRecord
  2
ACAD
 70
     0
  0
APPID
  5
9E
330
9
100
AcDbSymbolTableRecord
100
AcDbRegAppTableRecord
  2
ACAD_PSEXT
 70
     0
  0
APPID
  5
133
330
9
100
AcDbSymbolTableRecord
100
AcDbRegAppTableRecord
  2
AcadAnnoPO
 70
     0
  0
APPID
  5
134
330
9
100
AcDbSymbolTableRecord
100
AcDbRegAppTableRecord
  2
AcadAnnotative
 70
     0
  0
APPID
  5
135
330
9
100
AcDbSymbolTableRecord
100
AcDbRegAppTableRecord
  2
ACAD_DSTYLE_DIMJAG
 70
     0
  0
APPID
  5
136
330
9
100
AcDbSymbolTableRecord
100
AcDbRegAppTableRecord
  2
ACAD_DSTYLE_DIMTALN
 70
     0
  0
APPID
  5
165
330
9
100
AcDbSymbolTableRecord
100
AcDbRegAppTableRecord
  2
ACAD_MLEADERVER
 70
     0
  0
APPID
  5
217
330
9
100
AcDbSymbolTableRecord
100
AcDbRegAppTableRecord
  2
ACAD_NAV_VCDISPLAY
 70
     0
  0
APPID
  5
254
330
9
100
AcDbSymbolTableRecord
100
AcDbRegAppTableRecord
  2
GradientColor1ACI
 70
     0
  0
APPID
  5
255
330
9
100
AcDbSymbolTableRecord
100
AcDbRegAppTableRecord
  2
GradientColor2ACI
 70
     0
  0
APPID
  5
256
330
9
100
AcDbSymbolTableRecord
100
AcDbRegAppTableRecord
  2
AcAecLayerStandard
 70
     0
  0
APPID
  5
257
330
9
100
AcDbSymbolTableRecord
100
AcDbRegAppTableRecord
  2
AcCmTransparency
 70
     0
  0
APPID
  5
258
330
9
100
AcDbSymbolTableRecord
100
AcDbRegAppTableRecord
  2
AcDbDynamicBlockGUID
 70
     0
  0
APPID
  5
4AD
330
9
100
AcDbSymbolTableRecord
100
AcDbRegAppTableRecord
  2
AdeskUnderlayLayerOverrideData
 70
     0
  0
APPID
  5
4EA
330
9
100
AcDbSymbolTableRecord
100
AcDbRegAppTableRecord
  2
ACAD_DSTYLE_DIMBREAK
 70
     0
  0
APPID
  5
678
330
9
100
AcDbSymbolTableRecord
100
AcDbRegAppTableRecord
  2
ACAD_EXEMPT_FROM_CAD_STANDARDS
 70
     0
  0
ENDTAB
  0
TABLE
  2
DIMSTYLE
  5
A
330
0
100
AcDbSymbolTable
 70
     4
100
AcDbDimStyleTable
 71
     4
340
508
340
27
340
137
340
1B0
  0
DIMSTYLE
105
1B0
330
A
100
AcDbSymbolTableRecord
100
AcDbDimStyleTableRecord
  2
Standard
 70
     0
340
11
  0
DIMSTYLE
105
137
330
A
100
AcDbSymbolTableRecord
100
AcDbDimStyleTableRecord
  2
Annotative
 70
     0
 40
0.0
 41
2.5
 42
0.625
 43
3.75
 44
1.25
 73
     0
 74
     0
 77
     1
 78
     8
140
2.5
141
2.5
143
0.03937007874016
147
0.625
171
     3
172
     1
271
     2
272
     2
274
     3
278
    44
283
     0
284
     8
340
11
1001
AcadAnnotative
1000
AnnotativeData
1002
{
1070
     1
1070
     1
1002
}
1001
ACAD_DSTYLE_DIMJAG
1070
   388
1040
1.5
1001
ACAD_DSTYLE_DIMTALN
1070
   392
1070
     0
  0
DIMSTYLE
105
27
330
A
100
AcDbSymbolTableRecord
100
AcDbDimStyleTableRecord
  2
ISO-25
 70
     0
 41
2.5
 42
0.625
 43
3.75
 44
1.25
 73
     0
 74
     0
 77
     1
 78
     8
140
2.5
141
2.5
143
0.03937007874016
147
0.625
171
     3
172
     1
271
     2
272
     2
274
     3
278
    44
283
     0
284
     8
340
11
  0
DIMSTYLE
105
508
330
A
100
AcDbSymbolTableRecord
100
AcDbDimStyleTableRecord
  2
Specialized
 70
     0
 41
7.299999999999999
 42
10.0
 43
3.75
 44
3.5
 73
     0
 74
     0
 77
     1
 78
     8
140
5.5
141
2.5
143
0.03937007874016
147
2.0
171
     3
172
     1
271
     0
272
     0
274
     3
278
    44
283
     0
284
     8
340
251
342
4EB
1001
ACAD_DSTYLE_DIMBREAK
1070
   391
1040
3.75
1001
ACAD_DSTYLE_DIMJAG
1070
   388
1040
1.5
1001
ACAD_DSTYLE_DIMTALN
1070
   392
1070
     0
  0
ENDTAB
  0
TABLE
  2
BLOCK_RECORD
  5
1
330
0
100
AcDbSymbolTable
 70
     3
  0
BLOCK_RECORD
  5
1F
102
{ACAD_XDICTIONARY
360
1CE
102
}
330
1
100
AcDbSymbolTableRecord
100
AcDbBlockTableRecord
  2
*Model_Space
340
22
  0
BLOCK_RECORD
  5
D2
330
1
100
AcDbSymbolTableRecord
100
AcDbBlockTableRecord
  2
*Paper_Space
340
D3
  0
BLOCK_RECORD
  5
D6
330
1
100
AcDbSymbolTableRecord
100
AcDbBlockTableRecord
  2
*Paper_Space0
340
D7
  0
BLOCK_RECORD
  5
240
102
{ACAD_XDICTIONARY
360
241
102
}
330
1
100
AcDbSymbolTableRecord
100
AcDbBlockTableRecord
  2
ARROWHEAD_5
340
0
1001
AcDbDynamicBlockGUID
1000
{9E21A131-A20C-491B-BDFD-DBAD356168FF}
  0
BLOCK_RECORD
  5
4EB
330
1
100
AcDbSymbolTableRecord
100
AcDbBlockTableRecord
  2
_Oblique
340
0
  0
ENDTAB
  0
ENDSEC
  0
SECTION
  2
BLOCKS
  0
BLOCK
  5
20
330
1F
100
AcDbEntity
  8
0
100
AcDbBlockBegin
  2
*Model_Space
 70
     0
 10
0.0
 20
0.0
 30
0.0
  3
*Model_Space
  1

  0
ENDBLK
  5
21
330
1F
100
AcDbEntity
  8
0
100
AcDbBlockEnd
  0
BLOCK
  5
D4
330
D2
100
AcDbEntity
 67
     1
  8
0
100
AcDbBlockBegin
  2
*Paper_Space
 70
     0
 10
0.0
 20
0.0
 30
0.0
  3
*Paper_Space
  1

  0
ENDBLK
  5
D5
330
D2
100
AcDbEntity
 67
     1
  8
0
100
AcDbBlockEnd
  0
BLOCK
  5
D8
330
D6
100
AcDbEntity
 67
     1
  8
0
100
AcDbBlockBegin
  2
*Paper_Space0
 70
     0
 10
0.0
 20
0.0
 30
0.0
  3
*Paper_Space0
  1

  0
ENDBLK
  5
D9
330
D6
100
AcDbEntity
 67
     1
  8
0
100
AcDbBlockEnd
  0
BLOCK
  5
242
330
240
100
AcDbEntity
  8
0
100
AcDbBlockBegin
  2
ARROWHEAD_5
 70
     0
 10
0.0
 20
0.0
 30
0.0
  3
ARROWHEAD_5
  1

  0
SOLID
  5
243
330
240
100
AcDbEntity
  8
0
  6
Continuous
 62
     0
370
     0
100
AcDbTrace
 10
-1.0
 20
0.2679
 30
0.0
 11
0.0
 21
0.0
 31
0.0
 12
-1.0
 22
-0.2679
 32
0.0
 13
-1.0
 23
0.2679
 33
0.0
  0
LINE
  5
244
330
240
100
AcDbEntity
  8
0
  6
Continuous
 62
     0
370
     0
100
AcDbLine
 10
0.0
 20
0.0
 30
0.0
 11
-1.0
 21
0.0
 31
0.0
  0
ENDBLK
  5
245
330
240
100
AcDbEntity
  8
0
100
AcDbBlockEnd
  0
BLOCK
  5
4ED
330
4EB
100
AcDbEntity
  8
0
100
AcDbBlockBegin
  2
_Oblique
 70
     0
 10
0.0
 20
0.0
 30
0.0
  3
_Oblique
  1

  0
LINE
  5
4EC
330
4EB
100
AcDbEntity
  8
0
  6
ByBlock
 62
     0
370
    -2
100
AcDbLine
 10
-0.5
 20
-0.5
 30
0.0
 11
0.5
 21
0.5
 31
0.0
  0
ENDBLK
  5
4EE
330
4EB
100
AcDbEntity
  8
0
100
AcDbBlockEnd
  0
ENDSEC
  0
SECTION
  2
ENTITIES
  0
LINE
  5
35D
330
1F
100
AcDbEntity
  8
Viewport
 62
     7
100
AcDbLine
 10
373.1416867516555
 20
540.0496208586558
 30
0.0
 11
373.1416867516555
 21
0.0000052198595313
 31
0.0
  0
LINE
  5
35E
330
1F
100
AcDbEntity
  8
Viewport
 62
     7
100
AcDbLine
 10
373.1416867516555
 20
0.0000052198595313
 30
0.0
 11
-0.0000403343283324
 21
0.0000052198595313
 31
0.0
  0
MTEXT
  5
35F
330
1F
100
AcDbEntity
  8
Specialized_Lines
 62
    30
100
AcDbMText
 10
78.29632445614965
 20
41.33287135444362
 30
0.0
 40
7.0
 41
63.23088711380842
 71
     1
 72
     5
  1
THERMASHELL
  7
SPECIALIZED
 73
     1
 44
1.0
1001
ACAD
1000
ACAD_MTEXT_COLUMN_INFO_BEGIN
1070
    75
1070
     2
1070
    79
1070
     0
1070
    76
1070
     1
1070
    78
1070
     0
1070
    48
1040
63.23088711380842
1070
    49
1040
12.5
1070
    50
1070
     1
1040
0.0
1000
ACAD_MTEXT_COLUMN_INFO_END
1000
MTEXTBEGIN
1070
    73
1070
     1
1070
    44
1040
1.0
1070
    74
1070
     0
1000
MTEXTEND
  0
LINE
  5
360
102
{ACAD_REACTORS
330
44A
102
}
330
1F
100
AcDbEntity
  8
Viewport
 62
     7
100
AcDbLine
 10
-0.0000403343283324
 20
0.0000052198595313
 30
0.0
 11
-0.0000403343283324
 21
540.0496208586558
 31
0.0
  0
MTEXT
  5
361
330
1F
100
AcDbEntity
  8
Specialized_Lines
 62
    30
100
AcDbMText
 10
48.04450398923194
 20
37.38518681395937
 30
0.0
 40
4.0
 41
34.37092666967328
 71
     5
 72
     5
  1
SCALE: 1:2
  7
SPECIALIZED
 73
     1
 44
1.0
1001
ACAD
1000
ACAD_MTEXT_COLUMN_INFO_BEGIN
1070
    75
1070
     2
1070
    79
1070
     0
1070
    76
1070
     1
1070
    78
1070
     0
1070
    48
1040
34.37092666967328
1070
    49
1040
12.5
1070
    50
1070
     1
1040
0.0
1000
ACAD_MTEXT_COLUMN_INFO_END
1000
MTEXTBEGIN
1070
    73
1070
     1
1070
    44
1040
1.0
1070
    74
1070
     0
1000
MTEXTEND
  0
HATCH
  5
362
330
1F
100
AcDbEntity
  8
0
 62
    30
370
     5
100
AcDbHatch
 10
0.0
 20
0.0
 30
0.0
210
0.0
220
0.0
230
1.0
  2
SOLID
 70
     1
 71
     0
 91
        1
 92
        1
 93
        4
 72
     1
 10
71.19848937074761
 20
42.40814631435052
 11
71.19848937074761
 21
62.40814631435052
 72
     1
 10
71.19848937074761
 20
62.40814631435052
 11
26.19848937074761
 21
62.40814631435052
 72
     1
 10
26.19848937074761
 20
62.40814631435052
 11
26.19848937074761
 21
42.40814631435052
 72
     1
 10
26.19848937074761
 20
42.40814631435052
 11
71.19848937074761
 21
42.40814631435052
 97
        0
 75
     1
 76
     1
 98
        1
 10
56.61366256027662
 20
48.54182681747471
1001
GradientColor1ACI
1070
     5
1001
GradientColor2ACI
1070
     2
1001
ACAD
1010
0.0
1020
0.0
1030
0.0
  0
LWPOLYLINE
  5
363
330
1F
100
AcDbEntity
  8
0
370
     5
100
AcDbPolyline
 90
        5
 70
     0
 43
0.0
 10
26.19848937074761
 20
62.40814631435052
 10
26.19848937074761
 20
42.40814631435052
 10
71.19848937074761
 20
42.40814631435052
 10
71.19848937074761
 20
62.40814631435052
 10
26.19848937074761
 20
62.40814631435052
  0
LWPOLYLINE
  5
364
330
1F
100
AcDbEntity
  8
0
370
     5
100
AcDbPolyline
 90
        4
 70
     0
 43
0.0
 10
26.19848937074761
 20
42.40814631435052
 10
26.19848937074761
 20
32.40814631435052
 10
71.19848937074761
 20
32.40814631435052
 10
71.19848937074761
 20
42.40814631435052
  0
LINE
  5
365
102
{ACAD_REACTORS
330
449
102
}
330
1F
100
AcDbEntity
  8
Viewport
 62
     7
100
AcDbLine
 10
373.1416867516555
 20
540.0496208586558
 30
0.0
 11
-0.0000403343283324
 21
540.0496208586558
 31
0.0
  0
HATCH
  5
366
330
1F
100
AcDbEntity
  8
0
 62
    30
100
AcDbHatch
 10
0.0
 20
0.0
 30
0.0
210
0.0
220
0.0
230
1.0
  2
SOLID
 70
     1
 71
     1
 91
        1
 92
        7
 72
     0
 73
     1
 93
        4
 10
26.11956633059163
 20
18.5865457122261
 10
26.11956633059163
 20
13.5865457122261
 10
31.11956633059526
 20
13.58654571222655
 10
31.11956633058799
 20
18.58654571222655
 97
        1
330
367
 75
     1
 76
     1
 47
0.0321901215665183
 98
        1
 10
27.90901445929285
 20
17.16356512198285
1001
GradientColor1ACI
1070
     5
1001
GradientColor2ACI
1070
     2
1001
ACAD
1010
0.0
1020
0.0
1030
0.0
  0
LWPOLYLINE
  5
367
102
{ACAD_REACTORS
330
366
102
}
330
1F
100
AcDbEntity
  8
0
 62
    30
100
AcDbPolyline
 90
        4
 70
     1
 43
0.0
 10
26.11956633059163
 20
18.5865457122261
 10
31.11956633058799
 20
18.58654571222655
 10
31.11956633059526
 20
13.58654571222655
 10
26.11956633059163
 20
13.5865457122261
  0
LINE
  5
368
330
1F
100
AcDbEntity
  8
0
 62
    30
100
AcDbLine
 10
26.11956633059163
 20
18.5865457122261
 30
0.0
 11
31.11956633059163
 21
18.5865457122261
 31
0.0
  0
LWPOLYLINE
  5
369
330
1F
100
AcDbEntity
  8
0
370
     5
100
AcDbPolyline
 90
        2
 70
     0
 43
0.0
 10
31.11956633059163
 20
16.0865457122261
 10
352.2736242542714
 20
16.0865457122261
  0
MTEXT
  5
36A
102
{ACAD_XDICTIONARY
360
751
102
}
330
1F
100
AcDbEntity
  8
Specialized_Text
  6
Continuous
100
AcDbMText
 10
34.68324564572595
 20
18.61301274581797
 30
0.0
 40
3.0
 41
163.0041735515597
 71
     4
 72
     1
  1
\U+00A9 copyright 2013 Specialized Construction Products Ltd
  7
SPECIALIZED
 73
     1
 44
1.0
1001
ACAD
1000
MTEXTBEGIN
1070
    73
1070
     1
1070
    44
1040
1.0
1070
    74
1070
     0
1000
MTEXTEND
  0
MTEXT
  5
36B
330
1F
100
AcDbEntity
  8
Specialized_Text
  6
Continuous
100
AcDbMText
 10
212.5842463194067
 20
18.61301274581797
 30
0.0
 40
3.0
 41
163.0041735515597
 71
     4
 72
     1
  1
All Dimensions to be site checked before construction & installation
  7
SPECIALIZED
 73
     1
 44
1.0
1001
ACAD
1000
MTEXTBEGIN
1070
    73
1070
     1
1070
    44
1040
1.0
1070
    74
1070
     0
1000
MTEXTEND
  0
MTEXT
  5
36C
330
1F
100
AcDbEntity
  8
Specialized_Text
  6
Continuous
 62
    30
370
    20
100
AcDbMText
 10
251.1396201086163
 20
5.489108925704613
 30
0.0
 40
5.5
 41
111.9228601720179
 71
     7
 72
     1
  1
{\fArial Unicode MS|b1|i0|c0|p34;web \fArial Unicode MS|b0|i0|c0|p34;\C256;www.specialized.co.nz}
  7
SPECIALIZED
 73
     1
 44
1.12662050634974
1001
ACAD
1000
MTEXTBEGIN
1070
    73
1070
     1
1070
    44
1040
1.12662050634974
1070
    74
1070
     0
1000
MTEXTEND
  0
MTEXT
  5
372
102
{ACAD_XDICTIONARY
360
373
102
}
330
1F
100
AcDbEntity
  8
0
100
AcDbMText
 10
48.90330445963531
 20
52.21330166796207
 30
0.0
 40
10.0
 41
50.25380434276621
 71
     5
 72
     5
  1
{\fArial|b1|i0|c0|p34;06F}
  7
SPECIALIZED TITLE
 73
     1
 44
1.0
1001
ACAD
1000
ACAD_MTEXT_COLUMN_INFO_BEGIN
1070
    75
1070
     2
1070
    79
1070
     0
1070
    76
1070
     1
1070
    78
1070
     0
1070
    48
1040
50.25380434276621
1070
    49
1040
27.5
1070
    50
1070
     1
1040
0.0
1000
ACAD_MTEXT_COLUMN_INFO_END
1000
MTEXTBEGIN
1070
    73
1070
     1
1070
    44
1040
1.0
1070
    74
1070
     0
1000
MTEXTEND
  0
MTEXT
  5
374
330
1F
100
AcDbEntity
  8
0
100
AcDbMText
 10
76.82935947060008
 20
56.92815833361447
 30
0.0
 40
8.0
 41
249.3094467699075
 71
     1
 72
     5
  1
{\fArial|b1|i0|c0|p34;Door Sill: REBATED CONCRETE SLAB}
  7
SPECIALIZED TITLE
 73
     1
 44
1.0
1001
ACAD
1000
ACAD_MTEXT_COLUMN_INFO_BEGIN
1070
    75
1070
     2
1070
    79
1070
     0
1070
    76
1070
     1
1070
    78
1070
     0
1070
    48
1040
249.3094467699075
1070
    49
1040
27.5
1070
    50
1070
     1
1040
0.0
1000
ACAD_MTEXT_COLUMN_INFO_END
1000
MTEXTBEGIN
1070
    73
1070
     1
1070
    44
1040
1.0
1070
    74
1070
     0
1000
MTEXTEND
  0
HATCH
  5
421
330
1F
100
AcDbEntity
  8
Specialized_Lines
  6
DASHEDX2
 62
     7
100
AcDbHatch
 10
0.0
 20
0.0
 30
0.0
210
0.0
220
0.0
230
1.0
  2
AR-CONC
 70
     0
 71
     1
 91
        1
 92
        7
 72
     1
 73
     1
 93
       10
 10
331.9125251807272
 20
242.8432005094789
 42
0.3503868711988099
 10
349.0343845367896
 20
291.4222444807678
 42
-0.1496578113196129
 10
351.6025981244165
 20
328.8490328669275
 42
0.0
 10
224.6902610519901
 20
328.8490328669275
 42
0.0
 10
224.6902610519901
 20
273.7819558351027
 42
0.0
 10
129.69026105199
 20
273.7819558351027
 42
0.0
 10
129.69026105199
 20
146.5676366764081
 42
0.0856070963391214
 10
218.5531972497715
 20
152.4137935298923
 42
0.0676625965043146
 10
273.0655632230589
 20
176.4439658851221
 42
0.1969673648696228
 10
293.6727915324736
 20
200.2171699878032
 42
-0.252715979649816
 97
        2
330
422
330
423
 75
     1
 76
     1
 52
0.0
 41
0.25
 77
     0
 78
    13
 53
50.0
 43
22.3052735059473
 44
30.95908321608931
 45
45.546167249001
 46
-3.984771384725771
 79
     2
 49
4.7625
 49
-52.3875
 53
355.0
 43
22.3052735059473
 44
30.95908321608931
 45
-8.810855356242335
 46
47.76421130975879
 79
     2
 49
3.81
 49
-41.9101460425
 53
100.4514446999999
 43
26.1007752559473
 44
30.62701984108932
 45
36.73531177258832
 46
43.77943797804877
 79
     2
 49
4.047502199999996
 49
-44.52256114999997
 53
46.1842
 43
22.3052735059473
 44
43.65908321608929
 45
67.76976022303248
 46
-10.51058198318179
 79
     2
 49
7.143749999999999
 49
-78.58125
 53
96.6355576099999
 43
27.9527485059473
 44
42.78320821608931
 45
59.35103351287575
 46
61.85653114943038
 79
     2
 49
6.071255784999999
 49
-66.78390204
 53
351.18415117
 43
22.3052735059473
 44
43.65908321608929
 45
59.35103351624426
 46
61.85653114638316
 79
     2
 49
5.714991767499999
 49
-62.86493297999999
 53
21.0
 43
28.65527350594729
 44
40.48408321608931
 45
37.90359781728312
 46
-25.5662995467719
 79
     2
 49
4.7625
 49
-52.3875
 53
326.0
 43
28.65527350594729
 44
40.48408321608931
 45
15.45050708691177
 46
46.04699153057981
 79
     2
 49
3.81
 49
-41.90999999999999
 53
71.45144499999999
 43
31.81390665594729
 44
38.3535582410893
 45
53.35410481967904
 46
20.48069222147631
 79
     2
 49
4.0475022
 49
-44.52248439999999
 53
37.5
 43
22.3052735059473
 44
30.95908321608931
 45
0.7721508126479542
 46
21.13875971828828
 79
     6
 49
0.0
 49
-41.402
 49
0.0
 49
-42.545
 49
0.0
 49
-42.06875
 53
7.499999999999999
 43
22.3052735059473
 44
30.95908321608931
 45
16.70491562757644
 46
25.04514370452988
 79
     6
 49
0.0
 49
-24.257
 49
0.0
 49
-40.4495
 49
0.0
 49
-16.03375
 53
327.5
 43
8.144773505947284
 44
30.95908321608931
 45
33.89764879171785
 46
-1.432185998168364
 79
     6
 49
0.0
 49
-15.875
 49
0.0
 49
-49.53
 49
0.0
 49
-65.7225
 53
317.5
 43
1.79477350594729
 44
30.95908321608931
 45
37.03229534650451
 46
6.356622758333253
 79
     6
 49
0.0
 49
-20.6375
 49
0.0
 49
-32.893
 49
0.0
 49
-46.6725
 47
0.3835778366675559
 98
        1
 10
271.3491892945021
 20
239.060086126831
1001
GradientColor1ACI
1070
     5
1001
GradientColor2ACI
1070
     2
1001
ACAD
1010
0.0
1020
0.0
1030
0.0
  0
LWPOLYLINE
  5
422
102
{ACAD_REACTORS
330
421
102
}
330
1F
100
AcDbEntity
  8
Specialized_Lines
100
AcDbPolyline
 90
        7
 70
     0
 43
0.0
 10
129.69026105199
 20
146.567636676408
 42
0.08560709633912
 10
218.5531972497702
 20
152.413793529892
 42
0.0676625965043163
 10
273.065563223059
 20
176.4439658851222
 42
0.1969673648696219
 10
293.6727915324736
 20
200.2171699878032
 42
-0.252715979649816
 10
331.9125251807272
 20
242.8432005094789
 42
0.3503868711988067
 10
349.0343845367897
 20
291.4222444807674
 42
-0.1496578113196145
 10
351.6025981244165
 20
328.8490328669275
  0
LWPOLYLINE
  5
423
102
{ACAD_REACTORS
330
421
102
}
330
1F
100
AcDbEntity
  8
Specialized_Lines
100
AcDbPolyline
 90
        5
 70
     0
 43
0.0
 10
351.6025981244165
 20
328.8490328669275
 10
224.6902610519901
 20
328.8490328669275
 10
224.6902610519901
 20
273.7819558351027
 10
129.69026105199
 20
273.7819558351027
 10
129.69026105199
 20
146.567636676408
  0
HATCH
  5
424
330
1F
100
AcDbEntity
  8
Specialized_Lines
  6
DASHEDX2
 62
   251
100
AcDbHatch
 10
0.0
 20
0.0
 30
0.0
210
0.0
220
0.0
230
1.0
  2
AR-SAND
 70
     0
 71
     1
 91
        1
 92
        7
 72
     0
 73
     1
 93
        3
 10
129.69026105199
 20
275.7819558351027
 10
222.69026105199
 20
275.7819558351027
 10
222.69026105199
 20
301.279342263754
 97
        3
330
425
330
427
330
428
 75
     1
 76
     1
 52
0.0
 41
0.1
 77
     0
 78
     4
 53
37.5
 43
22.3052735059473
 44
30.95908321608931
 45
-0.1600031295984046
 46
4.894132373293423
 79
     6
 49
0.0
 49
-3.8608
 49
0.0
 49
-4.318
 49
0.0
 49
-4.1275
 53
7.499999999999999
 43
22.3052735059473
 44
30.95908321608931
 45
4.495232831380026
 46
7.168251005683543
 79
     6
 49
0.0
 49
-2.0828
 49
0.0
 49
-3.4798
 49
0.0
 49
-1.3335
 53
327.5
 43
19.18107350594729
 44
30.95908321608931
 45
7.909923702414579
 46
0.0143718467854569
 79
     6
 49
0.0
 49
-1.27
 49
0.0
 49
-4.572
 49
0.0
 49
-5.969
 53
317.5
 43
19.18107350594729
 44
30.95908321608931
 45
7.635564524722972
 46
2.229293232572162
 79
     6
 49
0.0
 49
-0.635
 49
0.0
 49
-2.997199999999999
 49
0.0
 49
-3.429
 47
0.1460720291888353
 98
        1
 10
196.1263961952645
 20
285.0762969010236
1001
GradientColor1ACI
1070
     5
1001
GradientColor2ACI
1070
     2
1001
ACAD
1010
0.0
1020
0.0
1030
0.0
  0
LWPOLYLINE
  5
425
102
{ACAD_REACTORS
330
424
102
}
330
1F
100
AcDbEntity
  8
Specialized_Lines
100
AcDbPolyline
 90
        2
 70
     0
 43
0.0
 10
129.69026105199
 20
275.7819558351027
 10
222.69026105199
 20
301.279342263754
  0
LWPOLYLINE
  5
426
102
{ACAD_REACTORS
330
443
102
}
330
1F
100
AcDbEntity
  8
Specialized_Lines
  6
PLASTER
 48
3.0
100
AcDbPolyline
 90
        5
 70
     0
 43
0.0
 10
122.69026105199
 20
146.567636676408
 10
122.69026105199
 20
273.3981493694435
 10
124.4802911952138
 20
279.3814944464673
 10
129.6759796924686
 20
283.0363575320807
 10
224.6902610519901
 20
309.0859903069659
  0
LINE
  5
427
102
{ACAD_REACTORS
330
424
102
}
330
1F
100
AcDbEntity
  8
Specialized_Lines
100
AcDbLine
 10
129.69026105199
 20
275.7819558351027
 30
0.0
 11
222.69026105199
 21
275.7819558351027
 31
0.0
  0
LINE
  5
428
102
{ACAD_REACTORS
330
424
102
}
330
1F
100
AcDbEntity
  8
Specialized_Lines
100
AcDbLine
 10
222.69026105199
 20
275.7819558351027
 30
0.0
 11
222.69026105199
 21
301.279342263754
 31
0.0
  0
LWPOLYLINE
  5
42D
330
1F
100
AcDbEntity
  8
Specialized_Lines
  6
Hidden
 62
   251
 48
0.5
100
AcDbPolyline
 90
        2
 70
     0
 43
0.0
 10
122.69026105199
 20
273.3981493694435
 10
122.69026105199
 20
447.3796376865502
  0
LWPOLYLINE
  5
42E
330
1F
100
AcDbEntity
  8
Specialized_Lines
  6
Hidden
 62
   251
 48
0.5
100
AcDbPolyline
 90
        2
 70
     0
 43
0.0
 10
204.6902610519901
 20
303.6026813975785
 10
204.6902610519901
 20
447.3796376865502
  0
LWPOLYLINE
  5
42F
102
{ACAD_REACTORS
330
439
330
440
102
}
330
1F
100
AcDbEntity
  8
Specialized_Lines
  6
DASHEDX2
100
AcDbPolyline
 90
        5
 70
     0
 43
0.0
 10
320.2340768217109
 20
329.6945298535709
 10
223.8202558385674
 20
329.6945298535709
 10
223.8202558385674
 20
274.7759963105625
 10
128.694460591767
 20
274.7759963105625
 10
128.694460591767
 20
224.7759963105625
  0
LINE
  5
430
330
1F
100
AcDbEntity
  8
Specialized_Lines
  6
DASHEDX2
100
AcDbLine
 10
122.69026105199
 20
146.567636676408
 30
0.0
 11
129.69026105199
 21
146.567636676408
 31
0.0
  0
LINE
  5
431
330
1F
100
AcDbEntity
  8
Specialized_Lines
  6
DASHEDX2
100
AcDbLine
 10
126.1445354020688
 20
146.567636676408
 30
0.0
 11
126.1445354020688
 21
273.7172611068661
 31
0.0
  0
LINE
  5
432
330
1F
100
AcDbEntity
  8
Specialized_Lines
  6
DASHEDX2
100
AcDbLine
 10
126.1445354020688
 20
273.7172611068661
 30
0.0
 11
126.9988648456055
 21
277.3400740325876
 31
0.0
  0
LINE
  5
433
330
1F
100
AcDbEntity
  8
Specialized_Lines
  6
DASHEDX2
100
AcDbLine
 10
126.9988648456055
 20
277.3400740325876
 30
0.0
 11
130.1954155319836
 21
279.5783297237201
 31
0.0
  0
LINE
  5
434
330
1F
100
AcDbEntity
  8
Specialized_Lines
  6
DASHEDX2
100
AcDbLine
 10
130.1954155319836
 20
279.5783297237201
 30
0.0
 11
221.1475371201522
 21
304.840348153534
 31
0.0
  0
MULTILEADER
  5
435
330
1F
100
AcDbEntity
  8
Specialized_Lines
 92
     1420
310
8C050000250000000C00000016000000000000C00C00000033000000000000000C00000013000000993A0000BC0000000B000000000072C181BF2940264EE848D80A7B40000000000000000000000000000000000000000000000000000000000000F03F000000000000F03F00000000000000000000000000000000416972
310
207365616C20616761696E7374205045460000650014000000010000000000000000001640000000000000F03F0000000000000000000000000000F03F0000000000000000000000000000000000000000417269616C20556E69636F6465204D530000630000002E00C00000000B000000FE32B8E458B828407BA33D9E2D78
310
7A40000000000000000000000000000000000000000000000000000000000000F03F000000000000F03F000000000000000000000000000000006261636B696E6720726F6420696E7374616C6C656420627900003A0018000000010000000000000000001640000000000000F03F0000000000000000000000000000F03F00
310
00000000000000000000000000000000000000417269616C20556E69636F6465204D530000730000002000AC0000000B000000FE32B8E458B82840D0F892F382E57940000000000000000000000000000000000000000000000000000000000000F03F000000000000F03F000000000000000000000000000000006275696C
310
6465720007000000010000000000000000001640000000000000F03F0000000000000000000000000000F03F0000000000000000000000000000000000000000417269616C20556E69636F6465204D530000803F000000000C00000033000000000000000C00000010000000020000000C000000160000005F5F5FC20C0000
310
0012000000FF7F00000C0000001300000001000000880000001D000000333333333333DDBC3333333333331D400000000000000000812699D9BE6074403333333333331DC0333333333333DDBC00000000000000001071325844247540000000000000000000000000000000003333333333331D4000000000000000000000
310
00000000000000000000000000000000000000000000000000000000F03F0C000000160000005F5F5FC20C00000017000000000000000C00000014000000020000000C00000012000000000000000C00000013000000FFFFFFFFB00000000900000004000000000000000000F0BF304CA60A4625D13F000000000000000000
310
0000000000000000000000000000000000000000000000000000000000F0BF304CA60A4625D13F0000000000000000000000000000F0BF304CA60A4625D1BF00000000000000000500000004000000000000000100000002000000030000006000000001000000020000000300000004000000010000000100000001000000
310
0100000000000000000000000C000000160000005F5F5FC20C0000001700000000000000540000002000000002000000000000000000000000000000000000000000000000000000000000000000F0BF0000000000000000000000000000000000000000000000000000000000000000000000000000F03F080000001F0000
310
000C000000160000005F5F5FC20C00000012000000FF7F00000C00000033000000000000000C00000013000000891300003C0000000600000002000000812699D9BE607440DD3DFF24119975400000000000000000812699D9BE607440E8328E3218367B4000000000000000000C00000013000000112700003C0000000600
310
000002000000812699D9BE607440E8328E3218367B40000000000000000004DAA1F141A65740E8328E3218367B4000000000000000000C000000160000005F5F5FC20C00000012000000FF7F00000C00000017000000000000000C000000130000009A3A00000C00000016000000000000C00C00000012000000FF7F00000C
310
00000017000000FFFFFFFF0C0000003300000000000000
100
AcDbMLeader
300
CONTEXT_DATA{
 40
1.0
 10
10.87403683201408
 20
435.3809075884478
 30
0.0
 41
5.5
140
7.299999999999999
145
2.0
174
     1
175
     1
176
     0
177
     0
290
     1
304
Air seal against PEF backing rod installed by builder
 11
0.0
 21
0.0
 31
1.0
340
251
 12
12.8740368320141
 22
438.1778039049553
 32
0.0
 13
1.0
 23
0.0
 33
0.0
 42
0.0
 43
87.09980120672843
 44
0.0
 45
1.0
170
     1
 90
-1073741824
171
     1
172
     5
 91
-1073741824
141
0.0
 92
        0
291
     0
292
     0
173
     0
293
     0
142
0.0
143
0.0
294
     0
295
     0
296
     0
110
351.0565588164609
120
328.8490328669275
130
0.0
111
1.0
121
0.0
131
0.0
112
0.0
122
1.0
132
0.0
297
     0
302
LEADER{
290
     1
291
     1
 10
326.0465942366064
 20
435.3809075884478
 30
0.0
 11
-1.0
 21
0.0
 31
0.0
 90
        0
 40
231.4488193418365
304
LEADER_LINE{
 10
326.0465942366064
 20
338.2666856737496
 30
0.0
 91
        0
305
}
303
}
301
}
340
259
 90
 67388544
170
     1
 91
-1033937057
341
14
171
    -2
290
     1
291
     1
 41
10.0
342
240
 42
7.299999999999999
172
     2
343
251
173
     1
 95
        1
174
     1
175
     2
 92
-1056964608
292
     0
 93
-1056964608
 10
1.0
 20
1.0
 30
1.0
 43
0.0
176
     0
293
     0
294
     0
178
     1
179
     3
 45
1.0
1001
ACAD_MLEADERVER
1070
     2
  0
MULTILEADER
  5
436
330
1F
100
AcDbEntity
  8
Specialized_Lines
 92
     1412
310
84050000260000000C00000016000000000000C00C00000033000000000000000C00000013000000993A0000B00000000B000000000072C181BF2940CC558C43E7027940000000000000000000000000000000000000000000000000000000000000F03F000000000000F03F000000000000000000000000000000004C696E
310
65206F66200000F0BF08000000010000000000000000001640000000000000F03F0000000000000000000000000000F03F0000000000000000000000000000000000000000417269616C20556E69636F6465204D5300000000000000000C000000160000000078FFC2B00000000B00000057B32DAEFB094340CC558C43E702
310
7940000000000000000000000000000000000000000000000000000000000000F03F000000000000F03F00000000000000000000000000000000546865726D617368656C6C000B000000010000000000000000001640000000000000F03F0000000000000000000000000000F03F0000000000000000000000000000000000
310
000000417269616C20556E69636F6465204D530000000000000000B40000000B0000006051F5E97D46294022ABE1983C707840000000000000000000000000000000000000000000000000000000000000F03F000000000000F03F0000000000000000000000000000000073797374656D206265796F6E640000000D000000
310
010000000000000000001640000000000000F03F0000000000000000000000000000F03F0000000000000000000000000000000000000000417269616C20556E69636F6465204D5300000000000000000C00000033000000000000000C00000010000000020000000C000000160000005F5F5FC20C00000012000000FF7F00
310
000C0000001300000001000000880000001D0000003333333333331D40A58FB62DE0342E3D0000000000000000FEFFB03C2DAC5E40A58FB62DE0342EBD3333333333331D400000000000000000ECEA65897F237940000000000000000000000000000000003333333333331D40000000000000000000000000000000000000
310
0000000000000000000000000000000000000000F03F0C000000160000005F5F5FC20C00000017000000000000000C00000014000000020000000C00000012000000000000000C00000013000000FFFFFFFFB00000000900000004000000000000000000F0BF304CA60A4625D13F0000000000000000000000000000000000
310
000000000000000000000000000000000000000000F0BF304CA60A4625D13F0000000000000000000000000000F0BF304CA60A4625D1BF000000000000000005000000040000000000000001000000020000000300000060000000010000000200000003000000040000000100000001000000010000000100000000000000
310
000000000C000000160000005F5F5FC20C0000001700000000000000540000002000000002000000000000000000000000000000000000000000000000000000000000000000F0BF0000000000000000000000000000000000000000000000000000000000000000000000000000F03F080000001F0000000C000000160000
310
005F5F5FC20C00000012000000FF7F00000C00000033000000000000000C00000013000000891300003C0000000600000002000000CBCC7D09FAD85C40EDEA65897F2379400000000000000000B9FB1825CE985A40EEEA65897F23794000000000000000000C00000013000000112700003C0000000600000002000000B9FB
310
1825CE985A40EEEA65897F2379400000000000000000B97B07F36D505440EEEA65897F23794000000000000000000C000000160000005F5F5FC20C00000012000000FF7F00000C00000017000000000000000C000000130000009A3A00000C00000016000000000000C00C00000012000000FF7F00000C00000017000000FF
310
FFFFFF0C0000003300000000000000
100
AcDbMLeader
300
CONTEXT_DATA{
 40
1.0
 10
10.8740368320141
 20
402.2186368924293
 30
0.0
 41
5.5
140
7.299999999999999
145
2.0
174
     1
175
     1
176
     0
177
     0
290
     1
304
Line of {\C30;\c30975;Thermashell} system beyond 
 11
0.0
 21
0.0
 31
1.0
340
251
 12
12.8740368320141
 22
405.7752535363583
 32
0.0
 13
1.0
 23
0.0
 33
0.0
 42
0.0
 43
81.50616408442147
 44
0.0
 45
1.0
170
     1
 90
-1073741824
171
     1
172
     5
 91
-1073741824
141
0.0
 92
        0
291
     0
292
     0
173
     0
293
     0
142
0.0
143
0.0
294
     0
295
     0
296
     0
110
122.69026105199
120
402.2186368924292
130
0.0
111
1.0
121
0.0
131
0.0
112
0.0
122
1.0
132
0.0
297
     0
302
LEADER{
290
     1
291
     1
 10
106.3875820869424
 20
402.2186368924293
 30
0.0
 11
-1.0
 21
0.0
 31
0.0
 90
        0
 40
25.1308713122271
304
LEADER_LINE{
 10
122.69026105199
 20
402.2186368924292
 30
0.0
 91
        0
305
}
303
}
301
}
340
259
 90
 67388544
170
     1
 91
-1033937057
341
14
171
    -2
290
     1
291
     1
 41
10.0
342
240
 42
7.299999999999999
172
     2
343
251
173
     1
 95
        1
174
     1
175
     2
 92
-1056964608
292
     0
 93
-1056964608
 10
1.0
 20
1.0
 30
1.0
 43
0.0
176
     0
293
     0
294
     0
178
     1
179
     1
 45
1.0
1001
ACAD_MLEADERVER
1070
     2
  0
MULTILEADER
  5
437
102
{ACAD_XDICTIONARY
360
438
102
}
102
{ACAD_REACTORS
330
439
102
}
330
1F
100
AcDbEntity
  8
Specialized_Lines
 92
     2216
310
A8080000290000000C00000016000000000000C00C00000033000000000000000C00000013000000993A0000C00000000B0000000242115AC90E29404EB3C68D336A7740000000000000000000000000000000000000000000000000000000000000F03F000000000000F03F00000000000000000000000000000000536C61
310
62206D757374206265207365616C65642062792074686500001A000000010000000000000000001640000000000000F03F0000000000000000000000000000F03F0000000000000000000000000000000000000000417269616C20556E69636F6465204D530000000000000000C00000000B000000FE32B8E458B82840A408
310
1CE388D77640000000000000000000000000000000000000000000000000000000000000F03F000000000000F03F000000000000000000000000000000006275696C646572207573696E672061207375697461626C650000000018000000010000000000000000001640000000000000F03F00000000000000000000000000
310
00F03F0000000000000000000000000000000000000000417269616C20556E69636F6465204D5300002E0000007A00BC0000000B00000038E008524CAC29407D27BD0B5E437640000000000000000000000000000000000000000000000000000000000000F03F000000000000F03F00000000000000000000000000000000
310
776174657270726F6F66696E67206D656D6272616E65000016000000010000000000000000001640000000000000F03F0000000000000000000000000000F03F0000000000000000000000000000000000000000417269616C20556E69636F6465204D530000000000000000C80000000B0000000993096881B4284057465E
310
3433AF7540000000000000000000000000000000000000000000000000000000000000F03F000000000000F03F000000000000000000000000000000007072696F7220746F2074686520696E7374616C6C6174696F6E206F66207468650000430020000000010000000000000000001640000000000000F03F000000000000
310
0000000000000000F03F0000000000000000000000000000000000000000417269616C20556E69636F6465204D530000730000000000C00000000B000000000072C181BF2940AD9BB389881C7540000000000000000000000000000000000000000000000000000000000000F03F000000000000F03F000000000000000000
310
000000000000006A6F696E6572792E20546865206D656D6272616E65206D75737400001A000000010000000000000000001640000000000000F03F0000000000000000000000000000F03F0000000000000000000000000000000000000000417269616C20556E69636F6465204D530000670000004100C40000000B000000
310
6051F5E97D46294002F108DFDD897440000000000000000000000000000000000000000000000000000000000000F03F000000000000F03F000000000000000000000000000000007365616C2074686520656E746972652073696C6C206172656120616E640000001D000000010000000000000000001640000000000000F0
310
3F0000000000000000000000000000F03F0000000000000000000000000000000000000000417269616C20556E69636F6465204D530000000000000000BC0000000B000000F41406FA770B2840DB0FAA07B3F57340000000000000000000000000000000000000000000000000000000000000F03F000000000000F03F0000
310
00000000000000000000000000003130306D6D20757020746865206A616D62206672616D650017000000010000000000000000001640000000000000F03F0000000000000000000000000000F03F0000000000000000000000000000000000000000417269616C20556E69636F6465204D5300000000000000000C00000033
310
000000000000000C00000010000000020000000C000000160000005F5F5FC20C00000012000000FF7F00000C0000001300000001000000880000001D0000005F353C0C1A6916404F7C8B191BB81240000000000000000000202C893FFA6B404F7C8B191BB812C05F353C0C1A6916400000000000000000EC1AB8467A1A7440
310
000000000000000000000000000000003333333333331D400000000000000000000000000000000000000000000000000000000000000000000000000000F03F0C000000160000005F5F5FC20C00000017000000000000000C00000014000000020000000C00000012000000000000000C00000013000000FFFFFFFFB00000
310
000900000004000000000000000000F0BF304CA60A4625D13F0000000000000000000000000000000000000000000000000000000000000000000000000000F0BF304CA60A4625D13F0000000000000000000000000000F0BF304CA60A4625D1BF000000000000000005000000040000000000000001000000020000000300
310
000060000000010000000200000003000000040000000100000001000000010000000100000000000000000000000C000000160000005F5F5FC20C0000001700000000000000540000002000000002000000000000000000000000000000000000000000000000000000000000000000F0BF00000000000000000000000000
310
00000000000000000000000000000000000000000000000000F03F080000001F0000000C000000160000005F5F5FC20C00000012000000FF7F00000C00000033000000000000000C00000013000000891300003C0000000600000002000000553ECAB8F6466B40DD481EB35A657440000000000000000078274ABD45BE6340
310
F0029331DB8A774000000000000000000C00000013000000112700003C000000060000000200000078274ABD45BE6340F0029331DB8A77400000000000000000F08EE4A60F265C40F0029331DB8A774000000000000000000C000000160000005F5F5FC20C00000012000000FF7F00000C00000017000000000000000C0000
310
00130000009A3A00000C00000016000000000000C00C00000012000000FF7F00000C00000017000000FFFFFFFF0C0000003300000000000000
100
AcDbMLeader
300
CONTEXT_DATA{
 40
1.0
 10
10.87403683201411
 20
376.6785140745769
 30
0.0
 41
5.5
140
7.299999999999999
145
2.0
174
     1
175
     1
176
     0
177
     0
290
     1
304
Slab must be sealed by the builder using a suitable waterproofing membrane prior to the installation of the joinery. The membrane must seal the entire sill area and 100mm up the jamb frame
 11
0.0
 21
0.0
 31
1.0
340
251
 12
12.8740368320141
 22
380.2313790131853
 32
0.0
 13
1.0
 23
0.0
 33
0.0
 42
0.0
 43
100.7507839081809
 44
0.0
 45
1.0
170
     1
 90
-1073741824
171
     1
172
     5
 91
-1073741824
141
0.0
 92
        0
291
     0
292
     0
173
     0
293
     0
142
0.0
143
0.0
294
     0
295
     0
296
     0
110
223.8202558385674
120
321.6548525992973
130
0.0
111
1.0
121
0.0
131
0.0
112
0.0
122
1.0
132
0.0
297
     0
302
LEADER{
290
     1
291
     1
 10
157.9460131119083
 20
376.6785140745769
 30
0.0
 11
-1.0
 21
0.0
 31
0.0
 90
        0
 40
45.35130779421888
304
LEADER_LINE{
 10
223.8202558385674
 20
321.6548525992973
 30
0.0
 91
        0
305
}
303
}
301
}
340
259
 90
 67388544
170
     1
 91
-1033937057
341
14
171
    -2
290
     1
291
     1
 41
10.0
342
240
 42
7.299999999999999
172
     2
343
251
173
     1
 95
        1
174
     1
175
     2
 92
-1056964608
292
     0
 93
-1056964608
 10
1.0
 20
1.0
 30
1.0
 43
0.0
176
     0
293
     0
294
     0
178
     1
179
     1
 45
1.0
1001
ACAD_MLEADERVER
1070
     2
  0
MULTILEADER
  5
43A
330
1F
100
AcDbEntity
  8
Specialized_Lines
 92
     1232
310
D0040000240000000C00000016000000000000C00C00000033000000000000000C00000013000000993A0000BC0000000B0000008C30EB2A7C8F2940C8B043BAA0F17240000000000000000000000000000000000000000000000000000000000000F03F000000000000F03F0000000000000000000000000000000057414E
310
5A2077696E646F7720737570706F7274206261720017000000010000000000000000001640000000000000F03F0000000000000000000000000000F03F0000000000000000000000000000000000000000417269616C20556E69636F6465204D530000650000000000B00000000B000000B4A1D7C2AD2929401D06990FF65E
310
7240000000000000000000000000000000000000000000000000000000000000F03F000000000000F03F000000000000000000000000000000006173207265717569726564000B000000010000000000000000001640000000000000F03F0000000000000000000000000000F03F0000000000000000000000000000000000
310
000000417269616C20556E69636F6465204D5300000000000000000C00000033000000000000000C00000010000000020000000C000000160000005F5F5FC20C00000012000000FF7F00000C0000001300000001000000880000001D000000DDC3F1567FD71B40FB68038A9D9A01C000000000000000000080589E16966940
310
FB68038A9D9A0140DDC3F1567FD71B4000000000000000002CCECCD9957B7440000000000000000000000000000000003333333333331D400000000000000000000000000000000000000000000000000000000000000000000000000000F03F0C000000160000005F5F5FC20C00000017000000000000000C000000140000
310
00020000000C00000012000000000000000C00000013000000FFFFFFFFB00000000900000004000000000000000000F0BF304CA60A4625D13F0000000000000000000000000000000000000000000000000000000000000000000000000000F0BF304CA60A4625D13F0000000000000000000000000000F0BF304CA60A4625
310
D1BF000000000000000005000000040000000000000001000000020000000300000060000000010000000200000003000000040000000100000001000000010000000100000000000000000000000C000000160000005F5F5FC20C000000170000000000000054000000200000000200000000000000000000000000000000
310
0000000000000000000000000000000000F0BF0000000000000000000000000000000000000000000000000000000000000000000000000000F03F080000001F0000000C000000160000005F5F5FC20C00000012000000FF7F00000C00000033000000000000000C00000013000000891300003C0000000600000002000000
310
E1F1A0A35AB768405AC7B89E605874400000000000000000C4F1E332B3A26040EC12D7DC6111734000000000000000000C00000013000000112700003C0000000600000002000000C4F1E332B3A26040EC12D7DC61117340000000000000000088A3EDC4C1905A40EC12D7DC6111734000000000000000000C000000160000
310
005F5F5FC20C00000012000000FF7F00000C00000017000000000000000C000000130000009A3A00000C00000016000000000000C00C00000012000000FF7F00000C00000017000000FFFFFFFF0C0000003300000000000000
100
AcDbMLeader
300
CONTEXT_DATA{
 40
1.0
 10
10.87403683201408
 20
305.0863922501874
 30
0.0
 41
5.5
140
7.299999999999999
145
2.0
174
     1
175
     1
176
     0
177
     0
290
     1
304
WANZ window support bar as required
 11
0.0
 21
0.0
 31
1.0
340
251
 12
12.8740368320141
 22
308.6017401355898
 32
0.0
 13
1.0
 23
0.0
 33
0.0
 42
0.0
 43
100.3170876158401
 44
0.0
 45
1.0
170
     1
 90
-1073741824
171
     1
172
     5
 91
-1073741824
141
0.0
 92
        0
291
     0
292
     0
173
     0
293
     0
142
0.0
143
0.0
294
     0
295
     0
296
     0
110
204.6902610519901
120
327.7240846634111
130
0.0
111
1.0
121
0.0
131
0.0
112
0.0
122
1.0
132
0.0
297
     0
302
LEADER{
290
     1
291
     1
 10
133.0843748523749
 20
305.0863922501874
 30
0.0
 11
-1.0
 21
0.0
 31
0.0
 90
        0
 40
26.82254811585881
304
LEADER_LINE{
 10
204.6902610519901
 20
327.7240846634111
 30
0.0
 91
        0
305
}
303
}
301
}
340
259
 90
 67388544
170
     1
 91
-1033937057
341
14
171
    -2
290
     1
291
     1
 41
10.0
342
240
 42
7.299999999999999
172
     2
343
251
173
     1
 95
        1
174
     1
175
     2
 92
-1056964608
292
     0
 93
-1056964608
 10
1.0
 20
1.0
 30
1.0
 43
0.0
176
     0
293
     0
294
     0
178
     1
179
     3
 45
1.0
1001
ACAD_MLEADERVER
1070
     2
  0
MULTILEADER
  5
43D
330
1F
100
AcDbEntity
  8
Specialized_Lines
 92
     1044
310
14040000230000000C00000016000000000000C00C00000033000000000000000C00000013000000993A0000B00000000B000000D95BF157B1FE274046DC12A5DC657140000000000000000000000000000000000000000000000000000000000000F03F000000000000F03F00000000000000000000000000000000356D6D
310
20676170206D696E000B000000010000000000000000001640000000000000F03F0000000000000000000000000000F03F0000000000000000000000000000000000000000417269616C20556E69636F6465204D5300000000000000000C00000033000000000000000C00000010000000020000000C000000160000005F5F
310
5FC20C00000012000000FF7F00000C0000001300000001000000880000001D000000EDE96917D6111C4064663C5B671700C000000000000000000040E8CF3A3B674064663C5B67170040EDE96917D6111C400000000000000000EC92EE39CA127340000000000000000000000000000000003333333333331D400000000000
310
000000000000000000000000000000000000000000000000000000000000000000F03F0C000000160000005F5F5FC20C00000017000000000000000C00000014000000020000000C00000012000000000000000C00000013000000FFFFFFFFB00000000900000004000000000000000000F0BF304CA60A4625D13F00000000
310
00000000000000000000000000000000000000000000000000000000000000000000F0BF304CA60A4625D13F0000000000000000000000000000F0BF304CA60A4625D1BF0000000000000000050000000400000000000000010000000200000003000000600000000100000002000000030000000400000001000000010000
310
00010000000100000000000000000000000C000000160000005F5F5FC20C0000001700000000000000540000002000000002000000000000000000000000000000000000000000000000000000000000000000F0BF0000000000000000000000000000000000000000000000000000000000000000000000000000F03F0800
310
00001F0000000C000000160000005F5F5FC20C00000012000000FF7F00000C00000033000000000000000C00000013000000891300003C0000000600000002000000B1F02C1FAC5A66401F1A386B9BF27240000000000000000000001ABDA5C65840EC3A38BEF484714000000000000000000C00000013000000112700003C
310
000000060000000200000000001ABDA5C65840EC3A38BEF484714000000000000000000000C9846E044E40EC3A38BEF484714000000000000000000C000000160000005F5F5FC20C00000012000000FF7F00000C00000017000000000000000C000000130000009A3A00000C00000016000000000000C00C00000012000000
310
FF7F00000C00000017000000FFFFFFFF0C0000003300000000000000
100
AcDbMLeader
300
CONTEXT_DATA{
 40
1.0
 10
10.32009343130356
 20
280.3097517200938
 30
0.0
 41
5.5
140
7.299999999999999
145
2.0
174
     1
175
     1
176
     2
177
     0
290
     1
304
5mm gap min
 11
0.0
 21
0.0
 31
1.0
340
251
 12
58.03462276281789
 22
283.8663683640228
 32
0.0
 13
1.0
 23
0.0
 33
0.0
 42
0.0
 43
0.0
 44
0.0
 45
1.0
170
     1
 90
-1073741824
171
     3
172
     5
 91
-1073741824
141
0.0
 92
        0
291
     0
292
     0
173
     0
293
     0
142
0.0
143
0.0
294
     0
295
     0
296
     0
110
185.8509292160161
120
305.1743716544431
130
0.0
111
1.0
121
0.0
131
0.0
112
0.0
122
1.0
132
0.0
297
     0
302
LEADER{
290
     1
291
     1
 10
99.10386588610709
 20
280.3097517200938
 30
0.0
 11
-1.0
 21
0.0
 31
0.0
 90
        0
 40
39.0692431232892
304
LEADER_LINE{
 10
185.8509292160161
 20
305.1743716544431
 30
0.0
 91
        0
305
}
303
}
301
}
340
259
 90
   279680
170
     1
 91
-1033937057
341
14
171
    -2
290
     1
291
     1
 41
10.0
342
240
 42
7.299999999999999
172
     2
343
251
173
     1
 95
        1
174
     1
175
     2
 92
-1056964608
292
     0
 93
-1056964608
 10
1.0
 20
1.0
 30
1.0
 43
0.0
176
     0
293
     0
294
     0
178
     0
179
     3
 45
1.0
1001
ACAD_MLEADERVER
1070
     2
  0
MULTILEADER
  5
43E
102
{ACAD_XDICTIONARY
360
43F
102
}
102
{ACAD_REACTORS
330
440
102
}
330
1F
100
AcDbEntity
  8
Specialized_Lines
 92
     1992
310
C8070000280000000C00000016000000000000C00C00000033000000000000000C00000013000000993A0000BC0000000B00000094C382D17B842840502CC9C9D5A06F40000000000000000000000000000000000000000000000000000000000000F03F000000000000F03F00000000000000000000000000000000526562
310
61746520696E20736C6162206D757374206265000016000000010000000000000000001640000000000000F03F0000000000000000000000000000F03F0000000000000000000000000000000000000000417269616C20556E69636F6465204D530000000000000000BC0000000B000000BF012946D6252940046A0B1B8078
310
6E40000000000000000000000000000000000000000000000000000000000000F03F000000000000F03F00000000000000000000000000000000636F6D706C6574656C7920776174657270726F6F6665640017000000010000000000000000001640000000000000F03F0000000000000000000000000000F03F0000000000
310
000000000000000000000000000000417269616C20556E69636F6465204D530000000000000000BC0000000B00000038E008524CAC2940AE14B6C52A536D40000000000000000000000000000000000000000000000000000000000000F03F000000000000F03F00000000000000000000000000000000776974682054616E
310
6B69742070726F70726965746172790017000000010000000000000000001640000000000000F03F0000000000000000000000000000F03F0000000000000000000000000000000000000000417269616C20556E69636F6465204D5300204D5300006700B80000000B00000038E008524CAC29406252F816D52A6C40000000
310
000000000000000000000000000000000000000000000000000000F03F000000000000F03F0000000000000000000000000000000077617465722070726F6F66696E6720617300D1BF11000000010000000000000000001640000000000000F03F0000000000000000000000000000F03F0000000000000000000000000000
310
000000000000417269616C20556E69636F6465204D530000000000000000BC0000000B0000006051F5E97D46294015903A687F026B40000000000000000000000000000000000000000000000000000000000000F03F000000000000F03F00000000000000000000000000000000737570706C696564206279205370656369
310
616C697A65640017000000010000000000000000001640000000000000F03F0000000000000000000000000000F03F0000000000000000000000000000000000000000417269616C20556E69636F6465204D530020556E00636F64BC0000000B0000004582F96DBCF72840C8CD7CB929DA6940000000000000000000000000
310
000000000000000000000000000000000000F03F000000000000F03F00000000000000000000000000000000436F6E737472756374696F6E2050726F647563747300000015000000010000000000000000001640000000000000F03F0000000000000000000000000000F03F00000000000000000000000000000000000000
310
00417269616C20556E69636F6465204D5300000000000000000C00000033000000000000000C00000010000000020000000C000000160000005F5F5FC20C00000012000000FF7F00000C0000001300000001000000880000001D0000003333333333331D406714CF942CB920BD000000000000000000406B05391660406714
310
CF942CB9203D3333333333331D400000000000000000D8F5149D55F76F40000000000000000000000000000000003333333333331D400000000000000000000000000000000000000000000000000000000000000000000000000000F03F0C000000160000005F5F5FC20C00000017000000000000000C0000001400000002
310
0000000C00000012000000000000000C00000013000000FFFFFFFFB00000000900000004000000000000000000F0BF304CA60A4625D13F0000000000000000000000000000000000000000000000000000000000000000000000000000F0BF304CA60A4625D13F0000000000000000000000000000F0BF304CA60A4625D1BF
310
000000000000000005000000040000000000000001000000020000000300000060000000010000000200000003000000040000000100000001000000010000000100000000000000000000000C000000160000005F5F5FC20C0000001700000000000000540000002000000002000000000000000000000000000000000000
310
000000000000000000000000000000F0BF0000000000000000000000000000000000000000000000000000000000000000000000000000F03F080000001F0000000C000000160000005F5F5FC20C00000012000000FF7F00000C00000033000000000000000C00000013000000891300003C0000000600000002000000CD4C
310
A3D73E595E40D7F5149D55F76F400000000000000000BCD3DB1378EF5A40D5F5149D55F76F4000000000000000000C00000013000000112700003C0000000600000002000000BCD3DB1378EF5A40D5F5149D55F76F400000000000000000BCD3DB13786F5840D5F5149D55F76F4000000000000000000C000000160000005F
310
5F5FC20C00000012000000FF7F00000C00000017000000000000000C000000130000009A3A00000C00000016000000000000C00C00000012000000FF7F00000C00000017000000FFFFFFFF0C0000003300000000000000
100
AcDbMLeader
300
CONTEXT_DATA{
 40
1.0
 10
10.8740368320141
 20
255.7292008790379
 30
0.0
 41
5.5
140
7.299999999999999
145
2.0
174
     1
175
     1
176
     0
177
     0
290
     1
304
Rebate in slab must be completely waterproofed with Tankit proprietary water proofing as supplied by Specialized Construction Products
 11
0.0
 21
0.0
 31
1.0
340
251
 12
12.8740368320141
 22
258.5260971955454
 32
0.0
 13
1.0
 23
0.0
 33
0.0
 42
0.0
 43
87.17687374074012
 44
0.0
 45
1.0
170
     1
 90
-1073741824
171
     1
172
     5
 91
-1073741824
141
0.0
 92
        0
291
     0
292
     0
173
     0
293
     0
142
0.0
143
0.0
294
     0
295
     0
296
     0
110
128.694460591767
120
255.729200879038
130
0.0
111
1.0
121
0.0
131
0.0
112
0.0
122
1.0
132
0.0
297
     0
302
LEADER{
290
     1
291
     1
 10
107.7417039534329
 20
255.7292008790379
 30
0.0
 11
-1.0
 21
0.0
 31
0.0
 90
        0
 40
10.0
304
LEADER_LINE{
 10
128.694460591767
 20
255.729200879038
 30
0.0
 91
        0
305
}
303
}
301
}
340
259
 90
 67388416
170
     1
 91
-1033937057
341
14
171
    -2
290
     1
291
     1
 41
10.0
342
240
 42
7.299999999999999
172
     2
343
251
173
     1
 95
        1
174
     1
175
     2
 92
-1056964608
292
     0
 93
-1056964608
 10
1.0
 20
1.0
 30
1.0
 43
0.0
176
     0
293
     0
294
     0
178
     1
179
     3
 45
1.0
1001
ACAD_MLEADERVER
1070
     2
  0
MULTILEADER
  5
441
102
{ACAD_XDICTIONARY
360
442
102
}
102
{ACAD_REACTORS
330
443
102
}
330
1F
100
AcDbEntity
  8
Specialized_Lines
 92
     1428
310
94050000250000000C00000016000000000000C00C00000033000000000000000C00000013000000993A0000B80000000B0000000242115AC90E29409F3422D0E8D16640000000000000000000000000000000000000000000000000000000000000F03F000000000000F03F00000000000000000000000000000000537065
310
6369616C697A6564204D61736F6E72790013000000010000000000000000001640000000000000F03F0000000000000000000000000000F03F0000000000000000000000000000000000000000417269616C20556E69636F6465204D530000000000000000BC0000000B0000005DE3EB40B197284049DFCC7A93AC65400000
310
00000000000000000000000000000000000000000000000000000000F03F000000000000F03F000000000000000000000000000000004C6576656C696E6720636F6D706F756E642077697468000016000000010000000000000000001640000000000000F03F0000000000000000000000000000F03F000000000000000000
310
0000000000000000000000417269616C20556E69636F6465204D530000500000006F00BC0000000B0000006051F5E97D462940FD1C0FCC3D846440000000000000000000000000000000000000000000000000000000000000F03F000000000000F03F0000000000000000000000000000000073656C656374656420706C61
310
737465722066696E6973680017000000010000000000000000001640000000000000F03F0000000000000000000000000000F03F0000000000000000000000000000000000000000417269616C20556E69636F6465204D530020556E00636F640C00000033000000000000000C00000010000000020000000C000000160000
310
005F5F5FC20C00000012000000FF7F00000C0000001300000001000000880000001D0000003333333333331D4039AE417DD6C0323D0000000000000000FBFFB03C2DAC5E4039AE417DD6C032BD3333333333331D400000000000000000D865B16E6B146740000000000000000000000000000000003333333333331D400000
310
000000000000000000000000000000000000000000000000000000000000000000000000F03F0C000000160000005F5F5FC20C00000017000000000000000C00000014000000020000000C00000012000000000000000C00000013000000FFFFFFFFB00000000900000004000000000000000000F0BF304CA60A4625D13F00
310
00000000000000000000000000000000000000000000000000000000000000000000000000F0BF304CA60A4625D13F0000000000000000000000000000F0BF304CA60A4625D1BF0000000000000000050000000400000000000000010000000200000003000000600000000100000002000000030000000400000001000000
310
01000000010000000100000000000000000000000C000000160000005F5F5FC20C0000001700000000000000540000002000000002000000000000000000000000000000000000000000000000000000000000000000F0BF0000000000000000000000000000000000000000000000000000000000000000000000000000F0
310
3F080000001F0000000C000000160000005F5F5FC20C00000012000000FF7F00000C00000033000000000000000C00000013000000891300003C0000000600000002000000C8CC7D09FAD85C40DA65B16E6B1467400000000000000000D68CA207778E5A40DD65B16E6B14674000000000000000000C000000130000001127
310
00003C0000000600000002000000D68CA207778E5A40DD65B16E6B1467400000000000000000D68CA207770E5840DD65B16E6B14674000000000000000000C000000160000005F5F5FC20C00000012000000FF7F00000C00000017000000000000000C000000130000009A3A00000C00000016000000000000C00C00000012
310
000000FF7F00000C00000017000000FFFFFFFF0C0000003300000000000000
100
AcDbMLeader
300
CONTEXT_DATA{
 40
1.0
 10
10.8740368320141
 20
184.6381143059542
 30
0.0
 41
5.5
140
7.299999999999999
145
2.0
174
     1
175
     1
176
     0
177
     0
290
     1
304
Specialized Masonry Leveling compound with selected plaster finish
 11
0.0
 21
0.0
 31
1.0
340
251
 12
12.8740368320141
 22
188.1534621913567
 32
0.0
 13
1.0
 23
0.0
 33
0.0
 42
0.0
 43
86.589032380376
 44
0.0
 45
1.0
170
     1
 90
-1073741824
171
     1
172
     5
 91
-1073741824
141
0.0
 92
        0
291
     0
292
     0
173
     0
293
     0
142
0.0
143
0.0
294
     0
295
     0
296
     0
110
122.69026105199
120
184.6381143059541
130
0.0
111
1.0
121
0.0
131
0.0
112
0.0
122
1.0
132
0.0
297
     0
302
LEADER{
290
     1
291
     1
 10
106.2260150039104
 20
184.6381143059542
 30
0.0
 11
-1.0
 21
0.0
 31
0.0
 90
        0
 40
10.0
304
LEADER_LINE{
 10
122.69026105199
 20
184.6381143059541
 30
0.0
 91
        0
305
}
303
}
301
}
340
259
 90
 67388416
170
     1
 91
-1033937057
341
14
171
    -2
290
     1
291
     1
 41
10.0
342
240
 42
7.299999999999999
172
     2
343
251
173
     1
 95
        1
174
     1
175
     2
 92
-1056964608
292
     0
 93
-1056964608
 10
1.0
 20
1.0
 30
1.0
 43
0.0
176
     0
293
     0
294
     0
178
     1
179
     1
 45
1.0
1001
ACAD_MLEADERVER
1070
     2
  0
MULTILEADER
  5
444
330
1F
100
AcDbEntity
  8
Specialized_Lines
 92
     1492
310
D4050000250000000C00000016000000000000C00C00000033000000000000000C00000013000000993A0000D40000000B000000FA41115AC90E29402D17409368C75F40000000000000000000000000000000000000000000000000000000000000F03F000000000000F03F0000000000000000000000000000000053656C
310
6563746564206D61736F6E727920706C617374657220746F2066696C6C20262063726561746520646F6F7200002E000000010000000000000000001640000000000000F03F0000000000000000000000000000F03F0000000000000000000000000000000000000000417269616C20556E69636F6465204D53000070000000
310
6C00D40000000B0000005851F5E97D4629409492C435BD765D40000000000000000000000000000000000000000000000000000000000000F03F000000000000F03F0000000000000000000000000000000073696C6C207769746820736C6F70206F662031352064656772656573206D696E20776974682073656C65637465
310
6400002E000000010000000000000000001640000000000000F03F0000000000000000000000000000F03F0000000000000000000000000000000000000000417269616C20556E69636F6465204D530000000000000000C80000000B0000005100FDDBC5A02940FB0D49D811265B4000000000000000000000000000000000
310
0000000000000000000000000000F03F000000000000F03F0000000000000000000000000000000066696E697368696E6720706C617374657220746F206D6174636820636C616464696E670023000000010000000000000000001640000000000000F03F0000000000000000000000000000F03F0000000000000000000000
310
000000000000000000417269616C20556E69636F6465204D5300007300000000000C00000033000000000000000C00000010000000020000000C000000160000005F5F5FC20C00000012000000FF7F00000C0000001300000001000000880000001D000000333333333333DD3C3333333333331DC000000000000000007E23
310
8525A13066403333333333331D40333333333333DD3C0000000000000000ECFA3CC00FCF7140000000000000000000000000000000003333333333331D400000000000000000000000000000000000000000000000000000000000000000000000000000F03F0C000000160000005F5F5FC20C00000017000000000000000C
310
00000014000000020000000C00000012000000000000000C00000013000000FFFFFFFFB00000000900000004000000000000000000F0BF304CA60A4625D13F0000000000000000000000000000000000000000000000000000000000000000000000000000F0BF304CA60A4625D13F0000000000000000000000000000F0BF
310
304CA60A4625D1BF000000000000000005000000040000000000000001000000020000000300000060000000010000000200000003000000040000000100000001000000010000000100000000000000000000000C000000160000005F5F5FC20C000000170000000000000054000000200000000200000000000000000000
310
0000000000000000000000000000000000000000000000F0BF0000000000000000000000000000000000000000000000000000000000000000000000000000F03F080000001F0000000C000000160000005F5F5FC20C00000012000000FF7F00000C00000033000000000000000C00000013000000891300003C0000000600
310
0000020000007E238525A13066401F2E70F3425A714000000000000000007E238525A1306640D83553D5E424604000000000000000000C00000013000000112700003C00000006000000020000007E238525A1306640D83553D5E424604000000000000000007E238525A1F06440D83553D5E424604000000000000000000C
310
000000160000005F5F5FC20C00000012000000FF7F00000C00000017000000000000000C000000130000009A3A00000C00000016000000000000C00C00000012000000FF7F00000C00000017000000FFFFFFFF0C0000003300000000000000
100
AcDbMLeader
300
CONTEXT_DATA{
 40
1.0
 10
10.8740368320141
 20
129.152933752556
 30
0.0
 41
5.5
140
7.299999999999999
145
2.0
174
     1
175
     1
176
     0
177
     0
290
     1
304
Selected masonry plaster to fill & create door sill with slop of 15 degrees min with selected finishing plaster to match cladding
 11
0.0
 21
0.0
 31
1.0
340
251
 12
12.87403683201408
 22
132.7095503964851
 32
0.0
 13
1.0
 23
0.0
 33
0.0
 42
0.0
 43
152.8910062578507
 44
0.0
 45
1.0
170
     1
 90
-1073741824
171
     1
172
     5
 91
-1073741824
141
0.0
 92
        0
291
     0
292
     0
173
     0
293
     0
142
0.0
143
0.0
294
     0
295
     0
296
     0
110
177.5196712112774
120
281.7054927773268
130
0.0
111
1.0
121
0.0
131
0.0
112
0.0
122
1.0
132
0.0
297
     0
302
LEADER{
290
     1
291
     1
 10
177.5196712112774
 20
129.152933752556
 30
0.0
 11
-1.0
 21
0.0
 31
0.0
 90
        0
 40
10.0
304
LEADER_LINE{
 10
177.5196712112774
 20
284.9413454420126
 30
0.0
 91
        0
305
}
303
}
301
}
340
259
 90
 67388416
170
     1
 91
-1033937057
341
14
171
    -2
290
     1
291
     1
 41
10.0
342
240
 42
7.299999999999999
172
     2
343
251
173
     1
 95
        1
174
     1
175
     2
 92
-1056964608
292
     0
 93
-1056964608
 10
1.0
 20
1.0
 30
1.0
 43
0.0
176
     0
293
     0
294
     0
178
     1
179
     1
 45
1.0
1001
ACAD_MLEADERVER
1070
     2
  0
PDFUNDERLAY
  5
445
330
1F
100
AcDbEntity
  8
0
 62
     7
 92
        8
310
0800000000000000
100
AcDbUnderlayReference
340
0
 10
115.4978629121297
 20
399.0079998462877
 30
0.0
 41
14.64050888668862
 42
14.64050888668862
 43
14.64050888668862
281
   100
282
     0
 11
0.918513357764084
 21
9.215030932800971
 11
6.878692319585923
 21
7.080213791027176
  0
LINE
  5
5A8
330
1F
100
AcDbEntity
  8
Specialized_Lines
  6
Continuous
 62
   251
370
    13
100
AcDbLine
 10
285.3748034372032
 20
447.3796376865501
 30
0.0
 11
285.3748034372032
 21
372.791660292769
 31
0.0
  0
LINE
  5
5BE
330
1F
100
AcDbEntity
  8
Specialized_Lines
  6
Continuous
 62
   251
370
    13
100
AcDbLine
 10
175.7748034371715
 20
447.3796376865502
 30
0.0
 11
175.7748034371715
 21
372.0916602927709
 31
0.0
  0
LWPOLYLINE
  5
5BF
330
1F
100
AcDbEntity
  8
0
100
AcDbPolyline
 90
       39
 70
     1
 43
0.0
 10
192.8748033469016
 20
337.5916601654771
 10
212.2748033469018
 20
337.5916601654763
 42
-0.6681786379186013
 10
212.4515800421989
 20
337.1648834701796
 10
209.9515800421989
 20
334.6648834701798
 42
-0.1989123673797833
 10
209.7748033469017
 20
334.5916601654762
 10
208.8748033469019
 20
334.591660165476
 42
0.4142135623730951
 10
205.8748033469019
 20
331.591660165476
 10
205.8748033469019
 20
329.6783904547082
 42
0.131652497587394
 10
206.2767271355485
 20
328.1783904547081
 10
209.7909025065212
 20
322.0916601654762
 42
0.3152987888789941
 10
212.9099232508754
 20
320.6372369064395
 10
220.8748033469019
 20
322.041660165477
 10
220.8748033469019
 20
330.5916601654758
 42
-0.4142135623730951
 10
222.8748033469019
 20
332.5916601654758
 10
272.3919606344275
 20
332.591660165476
 42
-0.1989123673801284
 10
272.533381990665
 20
332.533081521713
 10
272.8748033469023
 20
332.1916601654757
 10
273.2162247031406
 20
332.5330815217135
 42
-0.1989123673801284
 10
273.3576460593781
 20
332.5916601654764
 10
296.8748033469019
 20
332.5916601654762
 42
-0.9999999999999998
 10
296.8748033469019
 20
330.5916601654754
 10
222.8748033469019
 20
330.5916601654753
 10
222.8748033469042
 20
315.5416601654779
 42
-0.9999999999999149
 10
220.8748033469015
 20
315.5416601654778
 10
220.874803346901
 20
316.4355461639225
 42
0.4663076581550142
 10
217.3538588139002
 20
319.3899694229592
 10
206.874803346901
 20
317.5422292117866
 10
206.8748033340325
 20
317.0165339051345
 42
-0.1989123610177722
 10
206.2890168964059
 20
315.6023203917191
 10
205.3015799748668
 20
314.6148834701796
 42
-0.6681786467730138
 10
204.8748032795702
 20
314.7916601715976
 10
204.874803346901
 20
317.5422292607443
 42
-0.2572636715746948
 10
205.8063661112778
 20
319.2329219318085
 42
0.4025503156670796
 10
206.8017864691969
 20
323.2689610118409
 10
204.5446763279797
 20
327.178390454708
 42
-0.1316524975873955
 10
203.8748033469019
 20
329.6783904547082
 10
203.8748033469019
 20
332.5916601654762
 42
0.4142135623730951
 10
200.8748033469019
 20
335.5916601654763
 10
192.8748033469019
 20
335.5916601654763
  0
LWPOLYLINE
  5
5C0
330
1F
100
AcDbEntity
  8
0
100
AcDbPolyline
 90
        4
 70
     1
 43
0.0
 10
212.8748033469019
 20
332.5916601654753
 10
297.8748033469019
 20
332.5916601654753
 10
297.8748033469019
 20
337.5916601654753
 10
212.8748033469019
 20
337.5916601654753
  0
LINE
  5
5C1
330
1F
100
AcDbEntity
  8
0
100
AcDbLine
 10
212.8748033469019
 20
337.5916601654753
 30
0.0
 11
297.8748033469019
 21
332.5916601654753
 31
0.0
  0
LINE
  5
5C2
330
1F
100
AcDbEntity
  8
0
100
AcDbLine
 10
285.8748034377711
 20
342.7427513034358
 30
0.0
 11
337.8748033469028
 21
352.3605555059364
 31
0.0
  0
ARC
  5
5C3
330
1F
100
AcDbEntity
  8
0
100
AcDbCircle
 10
239.970073256296
 20
330.6654329979799
 30
0.0
 40
70.60535943222368
100
AcDbArc
 50
6.445667898545943
 51
22.41809651419051
  0
ARC
  5
5C4
330
1F
100
AcDbEntity
  8
0
100
AcDbCircle
 10
234.6554962410219
 20
330.6600829296933
 30
0.0
 40
56.92039600384132
100
AcDbArc
 50
8.009950734976424
 51
25.86282211689888
  0
ARC
  5
5C5
330
1F
100
AcDbEntity
  8
0
100
AcDbCircle
 10
233.7278686613308
 20
330.670085868381
 30
0.0
 40
97.99711760219869
100
AcDbArc
 50
4.636549845857021
 51
15.94521081773161
  0
LWPOLYLINE
  5
5C6
330
1F
100
AcDbEntity
  8
0
100
AcDbPolyline
 90
       10
 70
     1
 43
0.0
 10
316.2748033469024
 20
338.5916601654728
 10
285.8748034377711
 20
338.5916601654969
 10
285.8748034377711
 20
357.5916601654792
 10
337.3748033469028
 20
357.5916601654692
 10
337.8748033469028
 20
357.0916601654692
 10
337.874803346901
 20
339.0916601654683
 10
337.374803346901
 20
338.5916601654683
 10
327.8748033469019
 20
338.5916601654683
 10
327.8748033469019
 20
338.5916601654683
 10
316.2748033469024
 20
338.5916601654728
  0
LINE
  5
5C7
330
1F
100
AcDbEntity
  8
0
100
AcDbLine
 10
285.8748034377711
 20
357.1745479577714
 30
0.0
 11
289.4751776066296
 21
357.5916601654715
 31
0.0
  0
LINE
  5
5C8
330
1F
100
AcDbEntity
  8
0
370
    -3
100
AcDbLine
 10
324.4363443678899
 20
338.5916601654729
 30
0.0
 11
334.4363443678899
 21
338.5916601654729
 31
0.0
  0
LWPOLYLINE
  5
5C9
330
1F
100
AcDbEntity
  8
0
  6
Continuous
370
    -3
100
AcDbPolyline
 90
        4
 70
     1
 43
0.0
 10
300.3678730017559
 20
338.5916601654836
 10
318.0330070311243
 20
338.5916601654836
 10
318.0330070311243
 20
329.5916601654753
 10
300.3678730017559
 20
329.5916601654753
  0
LINE
  5
5CA
330
1F
100
AcDbEntity
  8
0
  6
Continuous
370
    -3
100
AcDbLine
 10
318.0330070311243
 20
338.5916601654836
 30
0.0
 11
300.3678730017559
 21
329.5916601654753
 31
0.0
  0
LWPOLYLINE
  5
5CB
330
1F
100
AcDbEntity
  8
0
100
AcDbPolyline
 90
       49
 70
     1
 43
0.0
 10
217.1918405240584
 20
359.8622507702348
 10
217.4519094586748
 20
358.891660292782
 10
215.474803437205
 20
358.891660292782
 10
215.4748034374506
 20
365.0834027233977
 42
0.6546536703226699
 10
215.4748034374578
 20
365.9999178621692
 10
215.4748034372123
 20
372.1916602927777
 10
217.4519094586748
 20
372.1916602927777
 10
217.1918405240603
 20
371.2210698153249
 42
1.000000000007587
 10
218.1577663503489
 20
370.9622507702261
 10
218.4871856390827
 20
372.1916602927777
 10
237.3748034371973
 20
372.1916602927777
 10
237.3748034371955
 20
362.8916602927747
 10
233.1301981220394
 20
356.829735672527
 42
0.3639702342668208
 10
233.5111520165946
 20
352.4754127328924
 10
235.4296831937708
 20
350.5568815557235
 42
0.6882472016188443
 10
237.2790073946688
 20
348.7075573548245
 10
239.5084487261369
 20
346.4781160233578
 42
-0.4910416961006478
 10
239.407822997632
 20
345.693253465517
 42
0.2469949378962828
 10
237.982281484973
 20
343.3997870623134
 42
-0.3832857576782047
 10
237.5010205517737
 20
342.9359755742807
 10
187.5259441418064
 20
341.1908074506464
 42
0.1898559321062965
 10
186.5848539435291
 20
340.7816097864815
 10
184.8848539435079
 20
339.0816097864626
 42
0.1989123673798221
 10
184.4748034371681
 20
338.0916602928009
 10
184.4748034371681
 20
332.1479057220894
 10
183.3025830144732
 20
317.5826354776472
 42
0.2125553162368661
 10
183.4646933172924
 20
317.1222620826483
 42
-2.321887592546932
 10
181.2849135570876
 20
317.1222620826483
 42
0.9999999999998697
 10
180.4130016530006
 20
317.9467435145233
 42
0.3316792665638623
 10
180.0365348469539
 20
314.741660292846
 42
-0.577350269185355
 10
179.6035221449864
 20
313.9916602927951
 10
178.3748525651525
 20
313.9916602935518
 42
-0.4142314838071272
 10
176.7748034371969
 20
315.5917090643815
 10
176.7748034371969
 20
345.7783005525161
 10
193.4179108859288
 20
348.7129294385558
 42
0.2429559809372662
 10
194.4397145012557
 20
349.491660292766
 10
197.8949044498739
 20
349.4916602927732
 42
0.1989123673764054
 10
198.8848539435411
 20
349.9017107991058
 10
201.1748034371984
 20
352.1916602927777
 10
205.5748034371981
 20
352.1916602927704
 10
206.0626714028412
 20
351.7037923271236
 42
0.6681786379159074
 10
206.5748034371944
 20
351.9159243614813
 10
206.574803437198
 20
352.1916602927704
 10
214.0748034371999
 20
352.1916602927704
 42
0.4142135623730951
 10
215.4748034372013
 20
353.5916602927719
 10
215.4748034372031
 20
357.891660292782
 10
217.451909458673
 20
357.891660292782
 42
0.4931454260287646
 10
218.4178352849775
 20
359.1504793378808
 10
218.1577663503493
 20
360.1210698153409
 42
0.9999999999999998
  0
LWPOLYLINE
  5
5CC
330
1F
100
AcDbEntity
  8
0
100
AcDbPolyline
 90
      146
 70
     1
 43
0.0
 10
184.723966061815
 20
317.7920822883716
 42
-0.2776890157456105
 10
184.9773225121465
 20
314.8122485277963
 42
0.5553303288496409
 10
185.426032696764
 20
314.0916602928009
 10
185.4748034371899
 20
314.0916602928009
 42
-0.4142135623711804
 10
185.87480343719
 20
313.6916602928031
 10
185.87480343719
 20
312.9916602928024
 42
-0.414213562371014
 10
185.4748034371904
 20
312.5916602928009
 10
178.374803437201
 20
312.5916602927936
 42
-0.414213562373428
 10
175.3748034371973
 20
315.5916602927936
 10
175.3748034371973
 20
353.5916602927719
 10
178.3748034371973
 20
353.5916602927719
 42
-0.1989123673831162
 10
178.5869354715531
 20
353.5037923271266
 10
178.786935471552
 20
353.3037923271295
 42
-0.4142135623730951
 10
178.786935471552
 20
352.8795282584142
 10
178.5869354715513
 20
352.6795282584171
 42
-0.1989123673828277
 10
178.3748034371973
 20
352.5916602927718
 10
176.6748034371966
 20
352.5916602927718
 10
176.6748034372011
 20
347.182265111096
 10
193.1748034371966
 20
350.0916602927719
 10
193.1748034372029
 20
352.3916602927747
 42
-0.4142135623742606
 10
194.3748034371973
 20
353.5916602927791
 10
195.8748034371973
 20
353.5916602927719
 42
-0.1989123673831162
 10
196.0869354715531
 20
353.5037923271266
 10
196.286935471552
 20
353.3037923271295
 42
-0.4142135623730953
 10
196.286935471552
 20
352.8795282584142
 10
196.0869354715513
 20
352.6795282584171
 42
-0.1989123673828277
 10
195.8748034371973
 20
352.5916602927718
 10
194.3748034371973
 20
352.5916602927718
 10
194.3748034371973
 20
350.8916602927748
 10
197.8949044498739
 20
350.8916602927748
 10
200.1848539435385
 20
353.1816097864321
 42
-0.1989123673793266
 10
201.1748034372002
 20
353.5916602927719
 10
214.0748034371981
 20
353.5916602927719
 10
214.0748034371981
 20
364.7916602927689
 10
212.6748034371948
 20
364.7916602927762
 42
-0.4142135623695433
 10
211.774803437197
 20
365.6916602927704
 10
211.7748034371988
 20
366.5416602927835
 42
-0.9999999999999998
 10
212.6748034371966
 20
366.5416602927835
 10
212.6748034371948
 20
365.8916602927748
 10
214.0748034371944
 20
365.8916602927748
 10
214.0748034371944
 20
372.291660292769
 10
212.6748034371948
 20
372.291660292769
 10
212.674803437202
 20
370.7416602927842
 42
-1.000000000002021
 10
211.774803437197
 20
370.7416602927806
 10
211.7748034371952
 20
372.791660292769
 42
-0.4142135623724291
 10
212.5748034371962
 20
373.5916602927718
 10
240.8748034371973
 20
373.5916602927718
 42
-0.4142135623730951
 10
241.3748034371973
 20
373.0916602927718
 10
241.3748034372082
 20
370.7416602927806
 42
-0.9999999999979786
 10
240.4748034371995
 20
370.7416602927769
 10
240.4748034371995
 20
372.0916602927719
 10
238.7748034371952
 20
372.0916602927719
 10
238.7748034371952
 20
364.1916602927777
 10
240.4748034371995
 20
364.1916602927777
 10
240.4748034371959
 20
365.3416602927718
 42
-0.9999999999939367
 10
241.3748034371955
 20
365.3416602927718
 10
241.3748034371991
 20
363.8916602927748
 42
-0.4142135623730951
 10
240.4748034371977
 20
362.9916602927733
 10
239.1539086152851
 20
362.9916602927733
 10
234.2770109840493
 20
356.0267286616327
 42
0.3639702342658242
 10
234.5011015102531
 20
353.4653622265614
 10
236.7078986848063
 20
351.258565052005
 10
236.7078986848063
 20
349.9857728458628
 10
237.9806908909412
 20
349.9857728458628
 10
241.3748034372428
 20
346.5916602927718
 10
281.3748034371855
 20
346.5916602927718
 10
281.3748034371755
 20
350.7916602927616
 42
-1.618033988748249
 10
282.1748034371734
 20
350.3916602927747
 10
282.1748034371802
 20
349.6916602927631
 10
284.4748034371995
 20
349.6916602927631
 10
284.4748034371959
 20
357.7916602927762
 10
284.2748034371588
 20
357.7916602927762
 42
-0.7207592200892937
 10
283.9748034371959
 20
358.6916602927959
 10
283.9748034371995
 20
362.991660292766
 10
282.1748034371784
 20
362.991660292766
 10
282.1748034371747
 20
362.2916602927544
 42
-1.618033988742326
 10
281.3748034371782
 20
361.8916602927602
 10
281.3748034371901
 20
365.3416602927682
 42
-0.9999999999939367
 10
282.2748034371969
 20
365.3416602927646
 10
282.2748034371969
 20
364.1916602927777
 10
283.9748034371995
 20
364.1916602927777
 10
283.9748034371995
 20
372.0916602927719
 10
282.5475956433337
 20
372.0916602927719
 10
282.2748034371969
 20
371.8188680866333
 10
282.2748034372015
 20
370.7416602927769
 42
-1.000000000004042
 10
281.3748034372001
 20
370.7416602927769
 10
281.3748034372046
 20
371.9845535115855
 42
-0.1989123673807241
 10
281.5212500466072
 20
372.3381069021816
 10
282.6283568277948
 20
373.4452136833679
 42
-0.1989123673815836
 10
282.9819102183854
 20
373.5916602927718
 10
284.5748034372017
 20
373.5916602927755
 42
-0.4142135623719296
 10
285.3748034372032
 20
372.791660292769
 10
285.3748034371973
 20
358.9916602927806
 10
288.9091180122381
 20
358.9916602927806
 42
-0.3178372451941607
 10
289.8519270538189
 20
358.32499362612
 42
-0.517638090206035
 10
289.4748034371872
 20
357.7916602927835
 10
285.8748034297067
 20
357.7916602927762
 10
285.8748034297095
 20
349.6916602927631
 42
-0.4142135623730951
 10
284.3748034297095
 20
348.191660292763
 10
282.8748034371828
 20
348.191660292763
 10
282.8748034371882
 20
346.5916602927791
 42
-0.2824884189368925
 10
282.0535142001553
 20
345.25399377969
 42
-0.3774927764351468
 10
282.1964407900686
 20
341.2916602923178
 10
284.6748034376395
 20
341.2916602923287
 42
-0.4142135623726511
 10
285.8748034371873
 20
340.0916602927827
 10
285.8748034371901
 20
338.5916602927791
 10
295.3748034371737
 20
338.5916602927718
 42
-0.9999999999999998
 10
295.3748034371737
 20
337.5916602927718
 10
293.8748034371755
 20
337.5916602927718
 10
293.6748034371748
 20
337.7916602927689
 10
287.0748034371762
 20
337.7916602927762
 10
286.8748034371755
 20
337.5916602927718
 10
285.8748034371883
 20
337.5916602927718
 42
-0.414222509010911
 10
284.6748034377496
 20
338.7916969475445
 10
284.6748034376414
 20
340.0916602927791
 10
276.7748034371892
 20
340.0916602927791
 42
-0.4142135623718464
 10
276.3748034371873
 20
340.4916602927805
 10
276.3748034371892
 20
340.6916602927849
 42
-0.4142135623724291
 10
277.1748034371902
 20
341.4916602927878
 10
277.7204209013511
 20
341.4916602919656
 42
-0.6721048871133514
 10
278.8819130887381
 20
342.0673076993734
 42
2.217178468841919
 10
278.8819130889709
 20
344.3160128697745
 42
-0.7844881835047892
 10
277.7650932768569
 20
345.0916602937468
 10
242.9845136102366
 20
345.0916602931865
 42
-0.7844881764153652
 10
241.8676937918493
 20
344.3160128814488
 42
2.217178472101616
 10
241.8676937918502
 20
342.0673077041101
 42
-0.5239287846814868
 10
242.9852397401017
 20
341.7916602927834
 10
243.5748034371999
 20
341.7916602927834
 42
-0.4142135623720961
 10
244.3748034372001
 20
340.9916602927805
 10
244.374803437201
 20
340.4916602927805
 42
-0.4142135623718464
 10
243.9748034372009
 20
340.0916602927827
 10
239.274803437207
 20
340.0916602927791
 42
-0.4142135623753428
 10
238.874803437206
 20
340.4916602927878
 10
238.8748034372155
 20
341.0916602927645
 42
-0.0358328342393421
 10
238.5954557987633
 20
341.398736885796
 10
235.3748034371991
 20
341.2862692270682
 10
235.3748034371991
 20
338.0916602927791
 42
-0.9999999999999998
 10
234.3748034371992
 20
338.0916602927791
 10
234.3748034371969
 20
341.4259523050313
 10
209.9748034371995
 20
340.5738855294366
 10
209.9748034371995
 20
338.1416602928038
 42
-0.9999999999999998
 10
208.8748034371973
 20
338.1416602928038
 10
208.8748034372014
 20
340.5354726829973
 10
187.5748034371907
 20
339.7916602928198
 10
185.8748034371682
 20
338.0916602928009
 10
185.8748034371682
 20
332.0916602928009
  0
LWPOLYLINE
  5
5CD
330
1F
100
AcDbEntity
  8
0
100
AcDbPolyline
 90
       90
 70
     1
 43
0.0
 10
247.4748034372295
 20
402.191660292693
 10
247.4748034372291
 20
401.8416602926931
 42
0.4142206397282934
 10
248.124819143531
 20
401.1916602928827
 10
251.4248034371998
 20
401.1916602927222
 42
0.4142135623732998
 10
252.0748034372313
 20
401.8416602926931
 10
252.0748034372313
 20
402.191660292693
 42
0.4142135623730951
 10
251.774803437232
 20
402.4916602926932
 10
250.3748034372305
 20
402.4916602926936
 10
250.3748034372287
 20
404.1916602926903
 10
260.6748034372316
 20
404.1916602926903
 10
260.6748034373008
 20
402.4141592919558
 42
0.3119464465246401
 10
258.2064440621792
 20
399.7405465487691
 42
1.072968081416243
 10
258.2064440621792
 20
398.8427740367151
 42
0.1312610659879743
 10
258.8523332552226
 20
397.3226137770025
 10
258.6034448113527
 20
396.8915263467998
 42
1.000000000005264
 10
259.6426752958972
 20
396.2915263468031
 10
260.1419206368331
 20
397.1562446427479
 42
0.340584674604048
 10
260.0367568901378
 20
397.9427231415239
 42
-2.428119678272793
 10
262.7128499841632
 20
397.9427231414511
 42
0.3405846746021555
 10
262.6076862375334
 20
397.1562446427479
 10
263.1069315784729
 20
396.2915263468012
 42
0.9999999999999998
 10
264.1461620630102
 20
396.8915263467998
 10
263.8972736191457
 20
397.3226137770025
 42
0.1312610659881374
 10
264.5431628121873
 20
398.8427740367151
 42
1.07296808151828
 10
264.5431628121836
 20
399.7405465487677
 42
0.3119464465164329
 10
262.0748034372331
 20
402.4141592922514
 10
262.0748034372331
 20
404.1916602926903
 10
272.3748034371455
 20
404.1916602926903
 10
272.3748034371437
 20
402.4916602926936
 10
270.9748034371422
 20
402.4916602926932
 42
0.4142135623730951
 10
270.6748034371429
 20
402.191660292693
 10
270.6748034371434
 20
401.8416602926931
 42
0.4142135623730951
 10
271.3248034371749
 20
401.1916602927217
 10
274.6247877308436
 20
401.1916602928827
 42
0.4142206397282936
 10
275.2748034371446
 20
401.8416602926931
 10
275.2748034371446
 20
402.191660292693
 42
0.4142135623730951
 10
274.9748034371454
 20
402.4916602926932
 10
273.5748034371448
 20
402.4916602926936
 10
273.5748034371439
 20
404.1916602926903
 10
276.9748034371799
 20
404.1916602926903
 42
-0.4142135623728287
 10
277.47480343718
 20
403.6916602926908
 10
277.4748034371841
 20
369.4916602927615
 10
277.1748034371848
 20
369.4916602927615
 42
0.9999999999999998
 10
277.1748034371848
 20
368.0916602927528
 10
277.4748034371981
 20
368.0916602927528
 10
277.4748034372
 20
364.2916602927553
 42
1.000000000001299
 10
278.8748034371978
 20
364.2916602927553
 10
278.8748034371851
 20
425.5916602926845
 10
276.0748034372203
 20
425.5916602926845
 42
0.4142135623744271
 10
275.2748034372211
 20
424.7916602926888
 10
275.2748034372211
 20
422.7416602926933
 42
0.9999999999999998
 10
276.1748034372189
 20
422.7416602926933
 10
276.1748034372189
 20
424.2916602926834
 10
277.5748034371821
 20
424.2916602926834
 10
277.5748034371821
 20
417.8916602926874
 10
276.1748034372189
 20
417.8916602926874
 10
276.1748034372189
 20
418.5416602926961
 42
0.9999999999999998
 10
275.2748034372174
 20
418.5416602926961
 10
275.2748034372211
 20
417.7916602926889
 42
0.4142135623730951
 10
276.2748034372211
 20
416.7916602926888
 10
277.4748034372309
 20
416.7916602926888
 10
277.4748034372309
 20
405.591660292699
 10
272.7748034371865
 20
405.5916602926973
 10
272.7748034371865
 20
406.7916602926953
 42
0.4142135623748711
 10
272.4748034371872
 20
407.0916602926955
 10
272.2748034371865
 20
407.0916602926959
 42
0.4142135623730951
 10
271.9748034371872
 20
406.7916602926957
 10
271.9748034371872
 20
405.5916602926968
 10
245.1748034372462
 20
405.5916602926849
 10
245.1748034372353
 20
421.2916602926961
 10
246.1248034372232
 20
421.2916602926961
 42
0.6681786379174496
 10
246.4430014887524
 20
422.0598583442224
 10
245.47480343724
 20
423.0280563957458
 10
245.47480343724
 20
423.6916602926976
 10
246.2748034372211
 20
423.6916602926976
 42
0.4142135623651035
 10
246.5748034372276
 20
423.9916602926932
 10
246.5748034372203
 20
424.2916602926961
 42
0.4142135623730951
 10
246.2748034372211
 20
424.5916602926991
 10
245.1748034372407
 20
424.5916602926991
 10
245.1748034372443
 20
425.2916602926961
 42
0.4142135623695433
 10
244.8748034372487
 20
425.5916602926991
 10
244.1748034372462
 20
425.5916602926991
 42
0.4142135623793108
 10
243.8748034371991
 20
425.2916602927002
 10
243.8748034371887
 20
364.2916602927571
 42
0.9999999999999998
 10
245.2748034371901
 20
364.2916602927571
 10
245.2748034371901
 20
403.6916602926903
 42
-0.4142135623730951
 10
245.7748034371901
 20
404.1916602926903
 10
249.1748034372307
 20
404.1916602926903
 10
249.1748034372293
 20
402.4916602926936
 10
247.7748034372288
 20
402.4916602926932
 42
0.4142135623730951
  0
LWPOLYLINE
  5
5CE
330
1F
100
AcDbEntity
  8
0
 62
   251
370
    -3
100
AcDbPolyline
 90
       23
 70
     1
 43
0.0
 10
277.2605476273207
 20
421.9778859889922
 42
0.2556906500445654
 10
277.3757476273204
 20
422.1884304261068
 10
277.3757476273204
 20
422.8918448161368
 42
0.9999999999999998
 10
276.4757476273204
 20
422.8918448161368
 10
276.4757476273204
 20
422.0418448161367
 10
275.8757476273204
 20
422.0418448161367
 10
275.2757476273203
 20
422.0418448161369
 10
275.2757476273203
 20
424.6418448161369
 42
0.4142135623730951
 10
275.0257476273203
 20
424.8918448161369
 10
274.5257476273204
 20
424.8918448161369
 42
0.4142135623730951
 10
274.2757476273204
 20
424.6418448161368
 10
274.2757476273204
 20
421.0918448161369
 10
274.2757476273204
 20
417.5418448161369
 42
0.4142135623730951
 10
274.5257476273204
 20
417.2918448161369
 10
275.0257476273203
 20
417.2918448161369
 42
0.4142135623730951
 10
275.2757476273203
 20
417.5418448161369
 10
275.2757476273203
 20
420.1418448161368
 10
275.8757476273204
 20
420.1418448161368
 10
276.4757476273204
 20
420.1418448161368
 10
276.4757476273204
 20
419.2918448161367
 42
0.9999999999999998
 10
277.3757476273204
 20
419.2918448161369
 10
277.3757476273204
 20
419.9952592061667
 42
0.2556906500445664
 10
277.2605476273193
 20
420.2058036432792
 42
-0.5471529031042364
  0
LINE
  5
5CF
330
1F
100
AcDbEntity
  8
0
 62
   251
370
    -3
100
AcDbLine
 10
275.8757476273204
 20
422.0418448161367
 30
0.0
 11
275.8757476273204
 21
420.1418448161368
 31
0.0
  0
LINE
  5
5D0
330
1F
100
AcDbEntity
  8
0
 62
   251
370
    -3
100
AcDbLine
 10
275.8757476273204
 20
420.1418448161368
 30
0.0
 11
275.8757476273204
 21
422.0418448161367
 31
0.0
  0
LWPOLYLINE
  5
5D1
330
1F
100
AcDbEntity
  8
0
100
AcDbPolyline
 90
        5
 70
     0
 43
0.0
 10
271.7757476273231
 20
413.5916602706751
 10
270.2757476273231
 20
413.5916602706751
 10
269.2757476273231
 20
414.5916602706752
 10
269.2757476273231
 20
444.3113748514693
 10
269.2757476273231
 20
447.3796376865501
  0
LINE
  5
5D2
330
1F
100
AcDbEntity
  8
0
 62
     9
100
AcDbLine
 10
270.2757476273231
 20
414.5214932855138
 30
0.0
 11
270.2757476273231
 21
447.3796376865501
 31
0.0
  0
LINE
  5
5D3
330
1F
100
AcDbEntity
  8
0
 62
     9
100
AcDbLine
 10
271.2757476273231
 20
414.5214932855138
 30
0.0
 11
271.2757476273231
 21
447.3796376865501
 31
0.0
  0
LINE
  5
5D4
330
1F
100
AcDbEntity
  8
0
 62
     9
100
AcDbLine
 10
272.2463135776646
 20
414.5214932855138
 30
0.0
 11
272.2463135776646
 21
447.3796376865501
 31
0.0
  0
LWPOLYLINE
  5
5D5
330
1F
100
AcDbEntity
  8
0
100
AcDbPolyline
 90
        5
 70
     0
 43
0.0
 10
271.7757476273231
 20
413.5916602706751
 10
273.2757476273231
 20
413.5916602706751
 10
274.2757476273231
 20
414.5916602706752
 10
274.2757476273231
 20
444.3113748514693
 10
274.2757476273231
 20
447.3796376865501
  0
LINE
  5
5D6
330
1F
100
AcDbEntity
  8
0
 62
     9
100
AcDbLine
 10
273.2757476273231
 20
414.5214932855138
 30
0.0
 11
273.2757476273231
 21
447.3796376865501
 31
0.0
  0
LINE
  5
5D7
330
1F
100
AcDbEntity
  8
0
100
AcDbLine
 10
255.2757476273231
 20
413.5916602706751
 30
0.0
 11
269.2757476273231
 21
427.5916602706752
 31
0.0
  0
LINE
  5
5D8
330
1F
100
AcDbEntity
  8
0
100
AcDbLine
 10
255.2757476273231
 20
427.5916602706752
 30
0.0
 11
269.2757476273231
 21
413.5916602706751
 31
0.0
  0
LWPOLYLINE
  5
5D9
330
1F
100
AcDbEntity
  8
0
100
AcDbPolyline
 90
        4
 70
     1
 43
0.0
 10
255.2757476273231
 20
413.5916602706751
 10
269.2757476273231
 20
413.5916602706751
 10
269.2757476273231
 20
427.5916602706752
 10
255.2757476273231
 20
427.5916602706752
  0
LWPOLYLINE
  5
5DA
330
1F
100
AcDbEntity
  8
0
100
AcDbPolyline
 90
        5
 70
     0
 43
0.0
 10
252.7757476273231
 20
413.5916602706751
 10
254.2757476273231
 20
413.5916602706751
 10
255.2757476273231
 20
414.5916602706752
 10
255.2757476273231
 20
444.3113748514693
 10
255.2757476273231
 20
445.3537031953888
  0
LINE
  5
5DB
330
1F
100
AcDbEntity
  8
0
 62
     9
100
AcDbLine
 10
254.2757476273231
 20
414.5214932855138
 30
0.0
 11
254.2757476273231
 21
447.3796376865501
 31
0.0
  0
LINE
  5
5DC
330
1F
100
AcDbEntity
  8
0
 62
     9
100
AcDbLine
 10
253.2757476273231
 20
414.5214932855138
 30
0.0
 11
253.2757476273231
 21
447.3796376865501
 31
0.0
  0
LINE
  5
5DD
330
1F
100
AcDbEntity
  8
0
 62
     9
100
AcDbLine
 10
252.3051816769815
 20
414.5214932855138
 30
0.0
 11
252.3051816769815
 21
447.3796376865501
 31
0.0
  0
LWPOLYLINE
  5
5DE
330
1F
100
AcDbEntity
  8
0
100
AcDbPolyline
 90
        5
 70
     0
 43
0.0
 10
252.7757476273231
 20
413.5916602706751
 10
251.2757476273231
 20
413.5916602706751
 10
250.2757476273231
 20
414.5916602706752
 10
250.2757476273231
 20
444.3113748514693
 10
250.2757476273231
 20
447.3796376865501
  0
LINE
  5
5DF
330
1F
100
AcDbEntity
  8
0
 62
     9
100
AcDbLine
 10
251.2757476273231
 20
414.5214932855138
 30
0.0
 11
251.2757476273231
 21
447.3796376865501
 31
0.0
  0
LWPOLYLINE
  5
5E0
330
1F
100
AcDbEntity
  8
0
100
AcDbPolyline
 90
        4
 70
     1
 43
0.0
 10
250.2757476273262
 20
405.5916602926918
 10
274.2757476273261
 20
405.5916602926918
 10
274.2757476273231
 20
413.5916602706751
 10
250.2757476273231
 20
413.5916602706751
  0
LINE
  5
5E1
330
1F
100
AcDbEntity
  8
0
100
AcDbLine
 10
274.2757476273231
 20
413.5916602706751
 30
0.0
 11
250.2757476273262
 21
405.5916602926918
 31
0.0
  0
SPLINE
  5
5E2
330
1F
100
AcDbEntity
  8
0
100
AcDbSpline
210
0.0
220
0.0
230
1.0
 70
     8
 71
     3
 72
    11
 73
     7
 74
     0
 42
0.000000001
 43
0.0000000001
 40
0.0
 40
0.0
 40
0.0
 40
0.0
 40
0.2408130190104188
 40
0.4995243114977934
 40
0.7584759826014813
 40
1.0
 40
1.0
 40
1.0
 40
1.0
 10
255.8748034669959
 20
357.3440211840584
 30
0.0
 10
255.8816805489549
 20
357.2808830131439
 30
0.0
 10
255.8959458475869
 20
357.1499139671808
 30
0.0
 10
256.0121737250045
 20
356.9794591415166
 30
0.0
 10
256.1820214261727
 20
356.862834699728
 30
0.0
 10
256.3120521591525
 20
356.8485525880797
 30
0.0
 10
256.3748035489523
 20
356.8416601993754
 30
0.0
  0
SPLINE
  5
5E3
330
1F
100
AcDbEntity
  8
0
100
AcDbSpline
210
0.0
220
0.0
230
1.0
 70
     8
 71
     3
 72
    11
 73
     7
 74
     0
 42
0.000000001
 43
0.0000000001
 40
0.0
 40
0.0
 40
0.0
 40
0.0
 40
0.2415240173985187
 40
0.5004756885022069
 40
0.7591869809895813
 40
1.0
 40
1.0
 40
1.0
 40
1.0
 10
266.3748033254349
 20
356.8416601993754
 30
0.0
 10
266.4375547152348
 20
356.8485525880797
 30
0.0
 10
266.5675854482147
 20
356.862834699728
 30
0.0
 10
266.7374331493827
 20
356.9794591415166
 30
0.0
 10
266.8536610268004
 20
357.1499139671808
 30
0.0
 10
266.8679263254323
 20
357.2808830131439
 30
0.0
 10
266.8748034073912
 20
357.3440211840584
 30
0.0
  0
SPLINE
  5
5E4
330
1F
100
AcDbEntity
  8
0
100
AcDbSpline
210
0.0
220
0.0
230
1.0
 70
     8
 71
     3
 72
    11
 73
     7
 74
     0
 42
0.000000001
 43
0.0000000001
 40
0.0
 40
0.0
 40
0.0
 40
0.0
 40
0.2415235526762246
 40
0.5004757252023132
 40
0.7591869282121645
 40
1.0
 40
1.0
 40
1.0
 40
1.0
 10
257.1748035869502
 20
356.8416601993754
 30
0.0
 10
257.2375547864382
 20
356.8485526370978
 30
0.0
 10
257.367585384792
 20
356.8628348788475
 30
0.0
 10
257.5374334337225
 20
356.9794589228529
 30
0.0
 10
257.6536609977081
 20
357.1499140472438
 30
0.0
 10
257.6679263339658
 20
357.28088302672
 30
0.0
 10
257.674803436076
 20
357.3440211840584
 30
0.0
  0
SPLINE
  5
5E5
330
1F
100
AcDbEntity
  8
0
100
AcDbSpline
210
0.0
220
0.0
230
1.0
 70
     8
 71
     3
 72
    11
 73
     7
 74
     0
 42
0.000000001
 43
0.0000000001
 40
0.0
 40
0.0
 40
0.0
 40
0.0
 40
0.2408130717878357
 40
0.4995242747976868
 40
0.7584764473237753
 40
0.9999999999999998
 40
0.9999999999999998
 40
0.9999999999999998
 40
0.9999999999999998
 10
265.0748034383112
 20
357.3440211840584
 30
0.0
 10
265.0816805404214
 20
357.28088302672
 30
0.0
 10
265.0959458766792
 20
357.1499140472438
 30
0.0
 10
265.2121734406646
 20
356.9794589228529
 30
0.0
 10
265.3820214895952
 20
356.8628348788475
 30
0.0
 10
265.5120520879491
 20
356.8485526370978
 30
0.0
 10
265.5748032874369
 20
356.8416601993754
 30
0.0
  0
LINE
  5
5E6
330
1F
100
AcDbEntity
  8
0
100
AcDbLine
 10
256.3748035489523
 20
356.8416601993753
 30
0.0
 11
257.1748035869502
 21
356.8416601993753
 31
0.0
  0
LINE
  5
5E7
330
1F
100
AcDbEntity
  8
0
100
AcDbLine
 10
265.5748032874369
 20
356.8416601993753
 30
0.0
 11
266.3748033254349
 21
356.8416601993753
 31
0.0
  0
LINE
  5
5E8
330
1F
100
AcDbEntity
  8
0
100
AcDbLine
 10
261.3748034371936
 20
360.0916602664305
 30
0.0
 11
265.0748034383112
 21
359.1002482936395
 31
0.0
  0
LINE
  5
5E9
330
1F
100
AcDbEntity
  8
0
100
AcDbLine
 10
257.674803436076
 20
359.1002482936395
 30
0.0
 11
261.3748034371936
 21
360.0916602664305
 31
0.0
  0
SPLINE
  5
5EA
330
1F
100
AcDbEntity
  8
0
100
AcDbSpline
210
0.0
220
0.0
230
1.0
 70
     8
 71
     3
 72
    30
 73
    26
 74
     0
 42
0.000000001
 43
0.0000000001
 40
0.0
 40
0.0
 40
0.0
 40
0.0
 40
0.0440718781041286
 40
0.0863222773638957
 40
0.1247550255214862
 40
0.1574398198602515
 40
0.1924922539276213
 40
0.2274789666482863
 40
0.2631791756136696
 40
0.3175032067273433
 40
0.3728779158724726
 40
0.4287700383109107
 40
0.4844755744907956
 40
0.5406069243401496
 40
0.596592618426386
 40
0.6515116450223423
 40
0.7043020397330479
 40
0.7297241866316157
 40
0.7544105512335652
 40
0.781171905737067
 40
0.8158410065710368
 40
0.8570911912142239
 40
0.9029572010520086
 40
0.9512878502641875
 40
1.0
 40
1.0
 40
1.0
 40
1.0
 10
261.3748034372723
 20
367.5922454301745
 30
0.0
 10
261.8823959151758
 20
367.6124922920849
 30
0.0
 10
262.8766022106711
 20
367.6521492185593
 30
0.0
 10
264.2864286014898
 20
367.9561733969986
 30
0.0
 10
265.5230724455762
 20
368.379248900812
 30
0.0
 10
266.6287163769001
 20
368.9046453976921
 30
0.0
 10
267.6388988065719
 20
369.5231568357185
 30
0.0
 10
268.6025320740275
 20
370.2703379982891
 30
0.0
 10
269.6368813349728
 20
371.2741751522244
 30
0.0
 10
270.6666873681875
 20
372.6039219376605
 30
0.0
 10
271.5620852904051
 20
374.2968590010451
 30
0.0
 10
272.1544155835434
 20
376.1352817680483
 30
0.0
 10
272.4180619877346
 20
378.0573797942625
 30
0.0
 10
272.3415728121306
 20
379.9972350382502
 30
0.0
 10
271.9281604197758
 20
381.884760105638
 30
0.0
 10
271.2087305918868
 20
383.6357411765496
 30
0.0
 10
270.3919013764728
 20
384.940946901781
 30
0.0
 10
269.6448134910536
 20
385.8610264561014
 30
0.0
 10
269.0343552028105
 20
386.5025307793212
 30
0.0
 10
268.2946397112099
 20
387.1637749916206
 30
0.0
 10
267.3400156429491
 20
387.8640247208375
 30
0.0
 10
266.1160125826332
 20
388.5555803964503
 30
0.0
 10
264.6616702695633
 20
389.1277434688259
 30
0.0
 10
263.0537943744712
 20
389.5168193812328
 30
0.0
 10
261.9359319524716
 20
389.5662593407135
 30
0.0
 10
261.3748034372723
 20
389.591076501134
 30
0.0
  0
SPLINE
  5
5EB
330
1F
100
AcDbEntity
  8
0
100
AcDbSpline
210
0.0
220
0.0
230
1.0
 70
     8
 71
     3
 72
    30
 73
    26
 74
     0
 42
0.000000001
 43
0.0000000001
 40
0.0
 40
0.0
 40
0.0
 40
0.0
 40
0.0440718778707466
 40
0.0863222741637752
 40
0.1247550265076851
 40
0.1574398264570893
 40
0.1924922532943134
 40
0.2274789658297068
 40
0.2631791746060401
 40
0.317503226761099
 40
0.3728779117672532
 40
0.4287700595859145
 40
0.4844755687451498
 40
0.5406069182972609
 40
0.5965926120870259
 40
0.6515116383921593
 40
0.704302032823314
 40
0.7297242005297557
 40
0.7544105356884786
 40
0.7811719170168261
 40
0.8158410017097798
 40
0.8570911861345271
 40
0.9029572056583731
 40
0.95128785155326
 40
1.0
 40
1.0
 40
1.0
 40
1.0
 10
261.3748034372723
 20
389.591076501134
 30
0.0
 10
260.8672109731301
 20
389.5708295753304
 30
0.0
 10
259.8730047361813
 20
389.5311725249706
 30
0.0
 10
258.4631781359484
 20
389.2271492322489
 30
0.0
 10
257.2265343635304
 20
388.8040730683904
 30
0.0
 10
256.1208907553653
 20
388.2786759184728
 30
0.0
 10
255.1107079032687
 20
387.6601652067343
 30
0.0
 10
254.1470748522647
 20
386.912983872066
 30
0.0
 10
253.1127252286884
 20
385.9091467137618
 30
0.0
 10
252.0829201333777
 20
384.5793992742733
 30
0.0
 10
251.1875210604019
 20
382.8864625556355
 30
0.0
 10
250.5951916254397
 20
381.0480397470869
 30
0.0
 10
250.331544793465
 20
379.1259418582404
 30
0.0
 10
250.4080340763148
 20
377.1860868724079
 30
0.0
 10
250.821446504294
 20
375.2985618774965
 30
0.0
 10
251.5408760789237
 20
373.5475805747519
 30
0.0
 10
252.3577062011325
 20
372.2423753257999
 30
0.0
 10
253.1047925370049
 20
371.3222945437246
 30
0.0
 10
253.7152526995996
 20
370.6807917436713
 30
0.0
 10
254.4549662138269
 20
370.0195456845841
 30
0.0
 10
255.4095917242428
 20
369.3192974961416
 30
0.0
 10
256.633594390376
 20
368.62774163203
 30
0.0
 10
258.0879363382919
 20
368.0555771820191
 30
0.0
 10
259.6958125724436
 20
367.6665021817951
 30
0.0
 10
260.8136749384123
 20
367.6170624678605
 30
0.0
 10
261.3748034372723
 20
367.5922454301745
 30
0.0
  0
LINE
  5
5EC
330
1F
100
AcDbEntity
  8
0
100
AcDbLine
 10
247.2112031563913
 20
368.6765605550735
 30
0.0
 11
247.3748030051386
 21
363.9916608251641
 31
0.0
  0
LINE
  5
5ED
330
1F
100
AcDbEntity
  8
0
100
AcDbLine
 10
275.3748038694059
 20
363.9916608251641
 30
0.0
 11
275.5384037181532
 21
368.6765605550735
 31
0.0
  0
SPLINE
  5
5EE
330
1F
100
AcDbEntity
  8
0
100
AcDbSpline
210
0.0
220
0.0
230
1.0
 70
     8
 71
     3
 72
    11
 73
     7
 74
     0
 42
0.000000001
 43
0.0000000001
 40
0.0
 40
0.0
 40
0.0
 40
0.0
 40
0.2405542749184051
 40
0.5000001540583626
 40
0.7594461093041675
 40
1.0
 40
1.0
 40
1.0
 40
1.0
 10
246.2118120774424
 20
369.6416608024865
 30
0.0
 10
246.3350092231264
 20
369.6283422347326
 30
0.0
 10
246.5910786354971
 20
369.6006591435426
 30
0.0
 10
246.9233017244776
 20
369.3784296389413
 30
0.0
 10
247.156989738207
 20
369.0541646400971
 30
0.0
 10
247.1935930249086
 20
368.7992175984468
 30
0.0
 10
247.2112031563913
 20
368.6765605550736
 30
0.0
  0
SPLINE
  5
5EF
330
1F
100
AcDbEntity
  8
0
100
AcDbSpline
210
0.0
220
0.0
230
1.0
 70
     8
 71
     3
 72
    11
 73
     7
 74
     0
 42
0.000000001
 43
0.0000000001
 40
0.0
 40
0.0
 40
0.0
 40
0.0
 40
0.2405538902011192
 40
0.4999998449890424
 40
0.7594457241216539
 40
1.0
 40
1.0
 40
1.0
 40
1.0
 10
275.5384037181532
 20
368.6765605550736
 30
0.0
 10
275.5560138496378
 20
368.7992175984466
 30
0.0
 10
275.5926171363493
 20
369.0541646401348
 30
0.0
 10
275.8263051502565
 20
369.37842963923
 30
0.0
 10
276.1585282398869
 20
369.6006591438031
 30
0.0
 10
276.4145976515172
 20
369.6283422347985
 30
0.0
 10
276.5377947971022
 20
369.6416608024865
 30
0.0
  0
CIRCLE
  5
5F0
330
1F
100
AcDbEntity
  8
0
100
AcDbCircle
 10
261.3748034372723
 20
378.5916608352691
 30
0.0
 40
4.960769515000039
  0
LINE
  5
5F1
330
1F
100
AcDbEntity
  8
0
100
AcDbLine
 10
259.9474641637673
 20
381.1008512009411
 30
0.0
 11
262.834156342203
 21
381.0823681731252
 31
0.0
  0
LINE
  5
5F2
330
1F
100
AcDbEntity
  8
0
100
AcDbLine
 10
259.9154505323415
 20
376.100953758183
 30
0.0
 11
258.488111375252
 21
378.6101435278086
 31
0.0
  0
LINE
  5
5F3
330
1F
100
AcDbEntity
  8
0
100
AcDbLine
 10
262.834156342203
 20
381.0823681731252
 30
0.0
 11
264.2614954992926
 21
378.573177472177
 31
0.0
  0
LINE
  5
5F4
330
1F
100
AcDbEntity
  8
0
100
AcDbLine
 10
262.8021427107772
 20
376.0824707303672
 30
0.0
 11
259.9154505323415
 21
376.100953758183
 31
0.0
  0
LINE
  5
5F5
330
1F
100
AcDbEntity
  8
0
100
AcDbLine
 10
258.488111375252
 20
378.6101435278086
 30
0.0
 11
259.9474641637673
 21
381.1008512009411
 31
0.0
  0
LINE
  5
5F6
330
1F
100
AcDbEntity
  8
0
100
AcDbLine
 10
264.2614954992926
 20
378.573177472177
 30
0.0
 11
262.8021427107772
 21
376.0824707303672
 31
0.0
  0
CIRCLE
  5
5F7
330
1F
100
AcDbEntity
  8
0
100
AcDbCircle
 10
261.3748034372723
 20
378.5916608352691
 30
0.0
 40
6.000000000000006
  0
SPLINE
  5
5F8
330
1F
100
AcDbEntity
  8
0
100
AcDbSpline
210
0.0
220
0.0
230
1.0
 70
    24
 71
     3
 72
    14
 73
    10
 74
     0
 42
0.000000001
 43
0.0000000001
 40
0.0
 40
0.0
 40
0.0
 40
0.0
 40
0.1158621508784692
 40
0.2535952676876412
 40
0.3963021321585516
 40
0.5432544324557418
 40
0.6935593639688035
 40
0.8461857590817748
 40
1.0
 40
1.0
 40
1.0
 40
1.0
 10
255.8748034669959
 20
363.9916608251642
 30
0.0
 10
255.8748034669959
 20
362.024630148102
 30
0.0
 10
255.8748034669959
 20
361.2544124437727
 30
0.0
 10
255.8748034669959
 20
360.218384226474
 30
0.0
 10
255.8748034669959
 20
359.2542921494053
 30
0.0
 10
255.8748034669959
 20
358.4539769365429
 30
0.0
 10
255.8748034669959
 20
357.8499602471284
 30
0.0
 10
255.8748034669959
 20
357.4473040638986
 30
0.0
 10
255.8748034669959
 20
357.3785376629881
 30
0.0
 10
255.8748034669959
 20
357.3440211840584
 30
0.0
  0
SPLINE
  5
5F9
330
1F
100
AcDbEntity
  8
0
100
AcDbSpline
210
0.0
220
0.0
230
1.0
 70
    24
 71
     3
 72
    14
 73
    10
 74
     0
 42
0.000000001
 43
0.0000000001
 40
0.0
 40
0.0
 40
0.0
 40
0.0
 40
0.1538142409182252
 40
0.3064406360311965
 40
0.4567455675442584
 40
0.6036978678414485
 40
0.7464047323123589
 40
0.8841378491215309
 40
1.0
 40
1.0
 40
1.0
 40
1.0
 10
266.8748034073912
 20
357.3440211840584
 30
0.0
 10
266.8748034073912
 20
357.3785376629881
 30
0.0
 10
266.8748034073912
 20
357.4473040638986
 30
0.0
 10
266.8748034073912
 20
357.8499602471284
 30
0.0
 10
266.8748034073912
 20
358.4539769365429
 30
0.0
 10
266.8748034073912
 20
359.2542921494053
 30
0.0
 10
266.8748034073912
 20
360.218384226474
 30
0.0
 10
266.8748034073912
 20
361.2544124437727
 30
0.0
 10
266.8748034073912
 20
362.024630148102
 30
0.0
 10
266.8748034073912
 20
363.9916608251642
 30
0.0
  0
SPLINE
  5
5FA
330
1F
100
AcDbEntity
  8
0
100
AcDbSpline
210
0.0
220
0.0
230
1.0
 70
    24
 71
     3
 72
    14
 73
    10
 74
     0
 42
0.000000001
 43
0.0000000001
 40
0.0
 40
0.0
 40
0.0
 40
0.0
 40
0.1538142409182252
 40
0.3064406360311965
 40
0.4567455675442584
 40
0.6036978678414485
 40
0.7464047323123589
 40
0.8841378491215309
 40
1.0
 40
1.0
 40
1.0
 40
1.0
 10
257.674803436076
 20
357.3440211840584
 30
0.0
 10
257.674803436076
 20
357.3785376629881
 30
0.0
 10
257.674803436076
 20
357.4473040638986
 30
0.0
 10
257.674803436076
 20
357.8499602471284
 30
0.0
 10
257.674803436076
 20
358.4539769365429
 30
0.0
 10
257.674803436076
 20
359.2542921494053
 30
0.0
 10
257.674803436076
 20
360.218384226474
 30
0.0
 10
257.674803436076
 20
361.2544124437727
 30
0.0
 10
257.674803436076
 20
362.024630148102
 30
0.0
 10
257.674803436076
 20
363.9916608251642
 30
0.0
  0
SPLINE
  5
5FB
330
1F
100
AcDbEntity
  8
0
100
AcDbSpline
210
0.0
220
0.0
230
1.0
 70
    24
 71
     3
 72
    14
 73
    10
 74
     0
 42
0.000000001
 43
0.0000000001
 40
0.0
 40
0.0
 40
0.0
 40
0.0
 40
0.1158621508784692
 40
0.2535952676876412
 40
0.3963021321585516
 40
0.5432544324557418
 40
0.6935593639688035
 40
0.8461857590817748
 40
1.0
 40
1.0
 40
1.0
 40
1.0
 10
265.0748034383112
 20
363.9916608251642
 30
0.0
 10
265.0748034383112
 20
362.024630148102
 30
0.0
 10
265.0748034383112
 20
361.2544124437727
 30
0.0
 10
265.0748034383112
 20
360.218384226474
 30
0.0
 10
265.0748034383112
 20
359.2542921494053
 30
0.0
 10
265.0748034383112
 20
358.4539769365429
 30
0.0
 10
265.0748034383112
 20
357.8499602471284
 30
0.0
 10
265.0748034383112
 20
357.4473040638986
 30
0.0
 10
265.0748034383112
 20
357.3785376629881
 30
0.0
 10
265.0748034383112
 20
357.3440211840584
 30
0.0
  0
LINE
  5
5FC
330
1F
100
AcDbEntity
  8
0
100
AcDbLine
 10
261.3748034371936
 20
363.9916608251641
 30
0.0
 11
261.3748034371936
 21
360.0916602664305
 31
0.0
  0
ARC
  5
5FD
330
1F
100
AcDbEntity
  8
0
100
AcDbCircle
 10
261.3748034372723
 20
378.5916608352691
 30
0.0
 40
9.528823258660054
100
AcDbArc
 50
270.0
 51
90.0
  0
ARC
  5
5FE
330
1F
100
AcDbEntity
  8
0
100
AcDbCircle
 10
261.3748034372723
 20
378.5916608352691
 30
0.0
 40
9.528823258660054
100
AcDbArc
 50
90.0
 51
270.0
  0
CIRCLE
  5
5FF
330
1F
100
AcDbEntity
  8
0
100
AcDbCircle
 10
261.3748034372723
 20
378.5916608352691
 30
0.0
 40
6.25
  0
LINE
  5
600
330
1F
100
AcDbEntity
  8
0
100
AcDbLine
 10
252.5318993165886
 20
369.591660887423
 30
0.0
 11
255.0749030805921
 21
369.591660887423
 31
0.0
  0
LINE
  5
601
330
1F
100
AcDbEntity
  8
0
100
AcDbLine
 10
267.691102056185
 20
369.591660887423
 30
0.0
 11
270.2177075579559
 21
369.591660887423
 31
0.0
  0
LINE
  5
602
330
1F
100
AcDbEntity
  8
0
100
AcDbLine
 10
252.4875990956819
 20
372.1296136234431
 30
0.0
 11
252.5318993165886
 21
369.591660887423
 31
0.0
  0
LINE
  5
603
330
1F
100
AcDbEntity
  8
0
100
AcDbLine
 10
270.2177075579559
 20
369.591660887423
 30
0.0
 11
270.2625265255367
 21
372.159312569025
 31
0.0
  0
ARC
  5
604
330
1F
100
AcDbEntity
  8
0
100
AcDbCircle
 10
255.4799908112721
 20
384.5916608352691
 30
0.0
 40
3.000000000000002
100
AcDbArc
 50
101.0592713376691
 51
169.1668935468191
  0
ARC
  5
605
330
1F
100
AcDbEntity
  8
0
100
AcDbCircle
 10
267.2696160632722
 20
384.5916608352691
 30
0.0
 40
2.999999999999997
100
AcDbArc
 50
12.47913038396501
 51
79.16211076006797
  0
LINE
  5
606
330
1F
100
AcDbEntity
  8
0
100
AcDbLine
 10
271.8749532386457
 20
395.9916616756944
 30
0.0
 11
250.8746536358988
 21
395.9916616756944
 31
0.0
  0
LINE
  5
607
330
1F
100
AcDbEntity
  8
0
100
AcDbLine
 10
272.482574163357
 20
378.5916604999928
 30
0.0
 11
271.8749532386457
 21
395.9916616756944
 31
0.0
  0
LINE
  5
608
330
1F
100
AcDbEntity
  8
0
100
AcDbLine
 10
272.482574163357
 20
378.5916604999928
 30
0.0
 11
272.3459798753058
 21
378.5916604999928
 31
0.0
  0
LINE
  5
609
330
1F
100
AcDbEntity
  8
0
100
AcDbLine
 10
250.4036269992387
 20
378.5916604999928
 30
0.0
 11
250.2670327111875
 21
378.5916604999928
 31
0.0
  0
LINE
  5
60A
330
1F
100
AcDbEntity
  8
0
100
AcDbLine
 10
250.8746536358988
 20
395.9916616756944
 30
0.0
 11
250.2670327111875
 21
378.5916604999928
 31
0.0
  0
LINE
  5
60B
330
1F
100
AcDbEntity
  8
0
100
AcDbLine
 10
272.9346465229785
 20
378.5916604999928
 30
0.0
 11
272.424803292731
 21
363.9916608251641
 31
0.0
  0
LINE
  5
60C
330
1F
100
AcDbEntity
  8
0
100
AcDbLine
 10
250.3248035818135
 20
363.9916608251641
 30
0.0
 11
272.424803292731
 21
363.9916608251641
 31
0.0
  0
LINE
  5
60D
330
1F
100
AcDbEntity
  8
0
100
AcDbLine
 10
249.814960351566
 20
378.5916604999928
 30
0.0
 11
250.3248035818135
 21
363.9916608251641
 31
0.0
  0
LINE
  5
60E
330
1F
100
AcDbEntity
  8
0
100
AcDbLine
 10
249.814960351566
 20
378.5916604999928
 30
0.0
 11
250.2670327111875
 21
378.5916604999928
 31
0.0
  0
LINE
  5
60F
330
1F
100
AcDbEntity
  8
0
100
AcDbLine
 10
272.9346465229785
 20
378.5916604999928
 30
0.0
 11
272.482574163357
 21
378.5916604999928
 31
0.0
  0
LWPOLYLINE
  5
610
330
1F
100
AcDbEntity
  8
0
100
AcDbPolyline
 90
        3
 70
   128
 43
0.0
 10
247.650870299319
 20
368.6765605550735
 10
247.4799390792643
 20
374.6900717694788
 10
247.3690949290788
 20
378.5916604999928
  0
LINE
  5
611
330
1F
100
AcDbEntity
  8
0
100
AcDbLine
 10
247.3748030051386
 20
363.9916608251641
 30
0.0
 11
250.3248035818135
 21
363.9916608251641
 31
0.0
  0
LINE
  5
612
330
1F
100
AcDbEntity
  8
0
100
AcDbLine
 10
247.3690949290788
 20
378.5916604999928
 30
0.0
 11
249.814960351566
 21
378.5916604999928
 31
0.0
  0
LWPOLYLINE
  5
613
330
1F
100
AcDbEntity
  8
0
100
AcDbPolyline
 90
        3
 70
   128
 43
0.0
 10
275.3805119454658
 20
378.5916604999928
 10
275.1906432121789
 20
371.9094238210945
 10
275.0987365752255
 20
368.6765605550735
  0
LINE
  5
614
330
1F
100
AcDbEntity
  8
0
100
AcDbLine
 10
272.424803292731
 20
363.9916608251641
 30
0.0
 11
275.3748038694059
 21
363.9916608251641
 31
0.0
  0
LINE
  5
615
330
1F
100
AcDbEntity
  8
0
100
AcDbLine
 10
272.9346465229785
 20
378.5916604999928
 30
0.0
 11
275.3805119454658
 21
378.5916604999928
 31
0.0
  0
SPLINE
  5
616
330
1F
100
AcDbEntity
  8
0
100
AcDbSpline
210
0.0
220
0.0
230
1.0
 70
     8
 71
     3
 72
    12
 73
     8
 74
     0
 42
0.000000001
 43
0.0000000001
 40
0.0
 40
0.0
 40
0.0
 40
0.0
 40
0.1880196960552159
 40
0.3755569491378956
 40
0.5754161453774459
 40
0.8010465696450436
 40
0.9999999999999998
 40
0.9999999999999998
 40
0.9999999999999998
 40
0.9999999999999998
 10
247.650870299319
 20
368.6765605550736
 30
0.0
 10
247.6373044701553
 20
368.7778828969153
 30
0.0
 10
247.6102076206225
 20
368.980267595859
 30
0.0
 10
247.4405416830247
 20
369.2496796489349
 30
0.0
 10
247.1909844589932
 20
369.4694321426375
 30
0.0
 10
246.878633371643
 20
369.6148998914023
 30
0.0
 10
246.6495006758295
 20
369.633122138981
 30
0.0
 10
246.5421326368844
 20
369.6416608024865
 30
0.0
  0
SPLINE
  5
617
330
1F
100
AcDbEntity
  8
0
100
AcDbSpline
210
0.0
220
0.0
230
1.0
 70
     8
 71
     3
 72
    12
 73
     8
 74
     0
 42
0.000000001
 43
0.0000000001
 40
0.0
 40
0.0
 40
0.0
 40
0.0
 40
0.2483446393485296
 40
0.4968116796831954
 40
0.7388529852868739
 40
0.9540561343083126
 40
1.0
 40
1.0
 40
1.0
 40
1.0
 10
276.2074742376601
 20
369.6416608024865
 30
0.0
 10
276.0733603674757
 20
369.6284222358376
 30
0.0
 10
275.8050665267476
 20
369.6019385776817
 30
0.0
 10
275.45016808922
 20
369.3984973852207
 30
0.0
 10
275.1973641728521
 20
369.1061727317997
 30
0.0
 10
275.1078788962391
 20
368.8414268546521
 30
0.0
 10
275.1001043578447
 20
368.7012262016565
 30
0.0
 10
275.0987365752255
 20
368.6765605550736
 30
0.0
  0
ARC
  5
618
330
1F
100
AcDbEntity
  8
0
100
AcDbCircle
 10
272.1850908462723
 20
396.991660835269
 30
0.0
 40
1.000000000000028
100
AcDbArc
 50
270.0
 51
358.9999999901739
  0
LINE
  5
619
330
1F
100
AcDbEntity
  8
0
100
AcDbLine
 10
273.1849385335838
 20
396.9742069919138
 30
0.0
 11
273.2585539951717
 21
401.1916602928667
 31
0.0
  0
LINE
  5
61A
330
1F
100
AcDbEntity
  8
0
100
AcDbLine
 10
273.2585539951717
 20
401.1916602928667
 30
0.0
 11
275.7585544049537
 21
401.1916602928667
 31
0.0
  0
LINE
  5
61B
330
1F
100
AcDbEntity
  8
0
100
AcDbLine
 10
275.7585544049537
 20
401.1916602928667
 30
0.0
 11
277.0710850044882
 21
395.9916616756944
 31
0.0
  0
LINE
  5
61C
330
1F
100
AcDbEntity
  8
0
100
AcDbLine
 10
277.0710850044882
 20
395.9916616756944
 30
0.0
 11
277.3748041972315
 21
378.5916604999928
 31
0.0
  0
LINE
  5
61D
330
1F
100
AcDbEntity
  8
0
100
AcDbLine
 10
275.3805119454658
 20
378.5916604999928
 30
0.0
 11
277.3748041972315
 21
378.5916604999928
 31
0.0
  0
LINE
  5
61E
330
1F
100
AcDbEntity
  8
0
100
AcDbLine
 10
272.1850911065733
 20
395.9916616756944
 30
0.0
 11
271.8749532386457
 21
395.9916616756944
 31
0.0
  0
LINE
  5
61F
330
1F
100
AcDbEntity
  8
0
100
AcDbLine
 10
245.374802677313
 20
378.5916604999928
 30
0.0
 11
247.3690949290788
 21
378.5916604999928
 31
0.0
  0
LINE
  5
620
330
1F
100
AcDbEntity
  8
0
100
AcDbLine
 10
245.374802677313
 20
378.5916604999928
 30
0.0
 11
245.6785218700563
 21
395.9916616756944
 31
0.0
  0
LINE
  5
621
330
1F
100
AcDbEntity
  8
0
100
AcDbLine
 10
245.6785218700563
 20
395.9916616756944
 30
0.0
 11
246.9910524695908
 21
401.1916602928667
 31
0.0
  0
LINE
  5
622
330
1F
100
AcDbEntity
  8
0
100
AcDbLine
 10
246.9910524695908
 20
401.1916602928667
 30
0.0
 11
249.4910528793728
 21
401.1916602928667
 31
0.0
  0
LINE
  5
623
330
1F
100
AcDbEntity
  8
0
100
AcDbLine
 10
249.4910528793728
 20
401.1916602928667
 30
0.0
 11
249.5646683409607
 21
396.9742069919138
 31
0.0
  0
ARC
  5
624
330
1F
100
AcDbEntity
  8
0
100
AcDbCircle
 10
250.5645160282722
 20
396.991660835269
 30
0.0
 40
1.000000000000028
100
AcDbArc
 50
180.999999986324
 51
270.0
  0
LINE
  5
625
330
1F
100
AcDbEntity
  8
0
100
AcDbLine
 10
250.8746536358988
 20
395.9916616756944
 30
0.0
 11
250.5645157679712
 21
395.9916616756944
 31
0.0
  0
LINE
  5
626
330
1F
100
AcDbEntity
  8
0
100
AcDbLine
 10
245.5310264512693
 20
369.6416608024864
 30
0.0
 11
246.5421326368844
 21
369.6416608024864
 31
0.0
  0
LINE
  5
627
330
1F
100
AcDbEntity
  8
0
100
AcDbLine
 10
245.5310264512693
 20
369.6416608024864
 30
0.0
 11
245.374802677313
 21
378.5916604999928
 31
0.0
  0
LINE
  5
628
330
1F
100
AcDbEntity
  8
0
100
AcDbLine
 10
276.2074742376601
 20
369.6416608024864
 30
0.0
 11
277.2185804232752
 21
369.6416608024864
 31
0.0
  0
LINE
  5
629
330
1F
100
AcDbEntity
  8
0
100
AcDbLine
 10
277.3748041972315
 20
378.5916604999928
 30
0.0
 11
277.2185804232752
 21
369.6416608024864
 31
0.0
  0
LINE
  5
62A
330
1F
100
AcDbEntity
  8
0
100
AcDbLine
 10
247.3748030051386
 20
363.9916608251641
 30
0.0
 11
247.2112031563913
 21
368.6765605550735
 31
0.0
  0
LINE
  5
62B
330
1F
100
AcDbEntity
  8
0
100
AcDbLine
 10
275.5384037181532
 20
368.6765605550735
 30
0.0
 11
275.3748038694059
 21
363.9916608251641
 31
0.0
  0
LINE
  5
62C
330
1F
100
AcDbEntity
  8
0
100
AcDbLine
 10
256.3748035489523
 20
356.8416601993753
 30
0.0
 11
256.3748035489523
 21
363.9916608251641
 31
0.0
  0
LINE
  5
62D
330
1F
100
AcDbEntity
  8
0
100
AcDbLine
 10
266.3748033254349
 20
363.9916608251641
 30
0.0
 11
266.3748033254349
 21
356.8416606650365
 31
0.0
  0
LINE
  5
62E
330
1F
100
AcDbEntity
  8
0
100
AcDbLine
 10
257.1748035869502
 20
363.9916608251641
 30
0.0
 11
257.1748035869502
 21
356.8416606650365
 31
0.0
  0
LINE
  5
62F
330
1F
100
AcDbEntity
  8
0
100
AcDbLine
 10
265.5748032874369
 20
356.8416601993753
 30
0.0
 11
265.5748032874369
 21
363.9916608251641
 31
0.0
  0
SPLINE
  5
630
330
1F
100
AcDbEntity
  8
0
100
AcDbSpline
210
0.0
220
0.0
230
1.0
 70
    24
 71
     3
 72
    15
 73
    11
 74
     0
 42
0.000000001
 43
0.0000000001
 40
0.0
 40
0.0
 40
0.0
 40
0.0
 40
0.1258460914178421
 40
0.2607067082668941
 40
0.4151798785989615
 40
0.556372091607011
 40
0.6975644111599735
 40
0.8520380926871261
 40
0.9868982150742692
 40
1.0
 40
1.0
 40
1.0
 40
1.0
 10
261.3748034372723
 20
369.0628377687663
 30
0.0
 10
261.3748034372723
 20
369.0296039997984
 30
0.0
 10
261.3748034372723
 20
368.9607558821231
 30
0.0
 10
261.3748034372723
 20
368.7364805377092
 30
0.0
 10
261.3748034372723
 20
368.4438807408883
 30
0.0
 10
261.3748034372723
 20
368.1306332882955
 30
0.0
 10
261.3748034372723
 20
367.8489753619665
 30
0.0
 10
261.3748034372723
 20
367.6633420317835
 30
0.0
 10
261.3748034372723
 20
367.5836453741526
 30
0.0
 10
261.3748034372723
 20
367.5955802665689
 30
0.0
 10
261.3748034372723
 20
367.5966370817751
 30
0.0
  0
SPLINE
  5
631
330
1F
100
AcDbEntity
  8
0
100
AcDbSpline
210
0.0
220
0.0
230
1.0
 70
    24
 71
     3
 72
    15
 73
    11
 74
     0
 42
0.000000001
 43
0.0000000001
 40
0.0
 40
0.0
 40
0.0
 40
0.0
 40
0.0131018084115245
 40
0.147961943434482
 40
0.3024359163061263
 40
0.4436282490882032
 40
0.5848198133089677
 40
0.7392936244214327
 40
0.874154091570033
 40
1.0
 40
1.0
 40
1.0
 40
1.0
 10
261.3748034372723
 20
389.5866843838721
 30
0.0
 10
261.3748034372723
 20
389.5877413621756
 30
0.0
 10
261.3748034372723
 20
389.5996780780129
 30
0.0
 10
261.3748034372723
 20
389.5199792425633
 30
0.0
 10
261.3748034372723
 20
389.3343458034851
 30
0.0
 10
261.3748034372723
 20
389.0526881319734
 30
0.0
 10
261.3748034372723
 20
388.7394408260289
 30
0.0
 10
261.3748034372723
 20
388.4468408571672
 30
0.0
 10
261.3748034372723
 20
388.2225654756369
 30
0.0
 10
261.3748034372723
 20
388.1537180548576
 30
0.0
 10
261.3748034372723
 20
388.1204846282035
 30
0.0
  0
LINE
  5
632
330
1F
100
AcDbEntity
  8
0
100
AcDbLine
 10
247.2112031563913
 20
368.6765605550735
 30
0.0
 11
247.650870299319
 21
368.6765605550735
 31
0.0
  0
LINE
  5
633
330
1F
100
AcDbEntity
  8
0
100
AcDbLine
 10
275.0987365752255
 20
368.6765605550735
 30
0.0
 11
275.5384037181532
 21
368.6765605550735
 31
0.0
  0
LWPOLYLINE
  5
634
330
1F
100
AcDbEntity
  8
0
100
AcDbPolyline
 90
       63
 70
     1
 43
0.0
 10
257.7748034371893
 20
347.2916602927598
 10
258.474803437189
 20
346.59166029276
 10
259.1748034371898
 20
347.2916602927598
 10
259.8748034371896
 20
346.59166029276
 10
260.5748034371903
 20
347.2916602927598
 10
261.2748034371902
 20
346.59166029276
 10
261.9748034371909
 20
347.2916602927598
 10
262.6748034371907
 20
346.59166029276
 10
263.3748034371914
 20
347.2916602927598
 10
264.0748034371912
 20
346.59166029276
 10
264.7748034371919
 20
347.2916602927598
 10
265.4748034371918
 20
346.59166029276
 10
266.1748034371925
 20
347.2916602927598
 10
266.8748034371923
 20
346.59166029276
 10
267.5748034371931
 20
347.2916602927598
 10
268.2748034371929
 20
346.59166029276
 10
268.9748034371936
 20
347.2916602927598
 10
269.6748034371934
 20
346.59166029276
 10
270.3748034371941
 20
347.2916602927598
 10
271.074803437194
 20
346.59166029276
 10
271.7748034371947
 20
347.2916602927598
 10
272.4748034371945
 20
346.59166029276
 10
273.1748034371952
 20
347.2916602927598
 10
273.8748034371951
 20
346.59166029276
 10
274.5748034371958
 20
347.2916602927598
 10
275.2748034371956
 20
346.59166029276
 10
275.9748034371963
 20
347.2916602927598
 10
276.6748034371961
 20
346.59166029276
 10
277.3748034371969
 20
347.2916602927598
 10
278.0748034371967
 20
346.59166029276
 10
278.7748034371974
 20
347.2916602927598
 10
279.4748034371973
 20
346.59166029276
 10
280.7748034371883
 20
346.5916602927604
 42
0.4142135623730061
 10
281.1748034371889
 20
346.9916602927605
 10
281.1748034371889
 20
347.5916602927613
 42
0.4142135623730951
 10
280.5748034371885
 20
348.1916602927626
 10
262.1248034372005
 20
348.1916602927599
 10
262.1248034371778
 20
357.4444410841857
 42
-0.49043611152182
 10
262.4999174383969
 20
357.7348853762983
 10
263.7496134278175
 20
357.4116920183219
 42
0.4904361115217962
 10
264.3748034298491
 20
357.8957658385097
 10
264.3748034298491
 20
358.9286661507094
 42
0.3418891185870438
 10
263.9999934318797
 20
359.4127399708987
 10
261.6251834412482
 20
360.0269075940041
 42
0.127216068003945
 10
261.1244234331292
 20
360.0269075940041
 10
258.7496134424977
 20
359.4127399708987
 42
0.3418891185875355
 10
258.3748034445274
 20
358.9286661507094
 10
258.3748034445274
 20
357.8957658385093
 42
0.4904361115221491
 10
258.9999934465589
 20
357.4116920183215
 10
260.2496894359596
 20
357.7348853762919
 42
-0.49043611152182
 10
260.6248034371787
 20
357.4444410841793
 10
260.6248034371769
 20
348.1916602927599
 10
252.5748034371903
 20
348.1916602927599
 42
0.4142135623728732
 10
251.97480343719
 20
347.5916602927604
 10
251.97480343719
 20
346.9916602927605
 42
0.4142135623735095
 10
252.3748034371896
 20
346.59166029276
 10
252.8748034371878
 20
346.5916602927604
 10
253.5748034371876
 20
347.2916602927598
 10
254.2748034371874
 20
346.59166029276
 10
254.9748034371881
 20
347.2916602927598
 10
255.674803437188
 20
346.59166029276
 10
256.3748034371887
 20
347.2916602927598
 10
257.0748034371885
 20
346.59166029276
  0
LINE
  5
635
330
1F
100
AcDbEntity
  8
0
100
AcDbLine
 10
193.342646099073
 20
355.5916602707544
 30
0.0
 11
214.0757476273019
 21
361.5916602707543
 31
0.0
  0
LINE
  5
636
330
1F
100
AcDbEntity
  8
0
100
AcDbLine
 10
186.075586706618
 20
361.5916602707543
 30
0.0
 11
214.0757476273019
 21
353.5916602707544
 31
0.0
  0
LWPOLYLINE
  5
637
330
1F
100
AcDbEntity
  8
0
100
AcDbPolyline
 90
        6
 70
     1
 43
0.0
 10
198.0758295572903
 20
353.5916602707544
 10
214.0757476273019
 20
353.5916602707544
 10
214.0757476273019
 20
361.5916602707543
 10
186.075586706618
 20
361.5916602707543
 10
186.075586706618
 20
355.5916602707544
 10
198.0758295572903
 20
355.5916602707544
  0
LWPOLYLINE
  5
638
330
1F
100
AcDbEntity
  8
0
 62
   251
370
    -3
100
AcDbPolyline
 90
       23
 70
     1
 43
0.0
 10
213.7605476273002
 20
369.977885967214
 42
0.2556906500445654
 10
213.8757476272999
 20
370.1884304043285
 10
213.8757476272999
 20
370.8918447943586
 42
0.9999999999999998
 10
212.9757476272999
 20
370.8918447943586
 10
212.9757476272999
 20
370.0418447943584
 10
212.3757476272999
 20
370.0418447943584
 10
211.7757476272999
 20
370.0418447943587
 10
211.7757476272999
 20
372.6418447943587
 42
0.4142135623730951
 10
211.5257476272999
 20
372.8918447943586
 10
211.0257476272999
 20
372.8918447943587
 42
0.4142135623730951
 10
210.7757476272999
 20
372.6418447943586
 10
210.7757476272999
 20
369.0918447943586
 10
210.7757476272999
 20
365.5418447943587
 42
0.4142135623730951
 10
211.0257476272999
 20
365.2918447943587
 10
211.5257476272999
 20
365.2918447943587
 42
0.4142135623730951
 10
211.7757476272999
 20
365.5418447943587
 10
211.7757476272999
 20
368.1418447943586
 10
212.3757476272999
 20
368.1418447943586
 10
212.9757476272999
 20
368.1418447943586
 10
212.9757476272999
 20
367.2918447943585
 42
0.9999999999999998
 10
213.8757476272999
 20
367.2918447943585
 10
213.8757476272999
 20
367.9952591843885
 42
0.2556906500445664
 10
213.7605476272988
 20
368.2058036215011
 42
-0.5471529031042364
  0
LINE
  5
639
330
1F
100
AcDbEntity
  8
0
 62
   251
370
    -3
100
AcDbLine
 10
212.3757476272999
 20
370.0418447943584
 30
0.0
 11
212.3757476272999
 21
368.1418447943586
 31
0.0
  0
LINE
  5
63A
330
1F
100
AcDbEntity
  8
0
 62
   251
370
    -3
100
AcDbLine
 10
212.3757476272999
 20
368.1418447943586
 30
0.0
 11
212.3757476272999
 21
370.0418447943584
 31
0.0
  0
LINE
  5
63B
330
1F
100
AcDbEntity
  8
0
 62
     9
100
AcDbLine
 10
206.7757476273026
 20
362.5214932637391
 30
0.0
 11
206.7757476273027
 21
447.3796376865501
 31
0.0
  0
LINE
  5
63C
330
1F
100
AcDbEntity
  8
0
 62
     9
100
AcDbLine
 10
207.7757476273026
 20
362.5214932637391
 30
0.0
 11
207.7757476273026
 21
447.3796376865501
 31
0.0
  0
LINE
  5
63D
330
1F
100
AcDbEntity
  8
0
 62
     9
100
AcDbLine
 10
208.7463135776442
 20
362.5214932637391
 30
0.0
 11
208.7463135776442
 21
447.3796376865501
 31
0.0
  0
LINE
  5
63E
330
1F
100
AcDbEntity
  8
0
 62
     9
100
AcDbLine
 10
209.7757476273026
 20
362.5214932637391
 30
0.0
 11
209.7757476273026
 21
447.3796376865501
 31
0.0
  0
LINE
  5
63F
330
1F
100
AcDbEntity
  8
0
100
AcDbLine
 10
191.7757476273026
 20
361.5916602489006
 30
0.0
 11
205.7757476273026
 21
375.5916602489005
 31
0.0
  0
LINE
  5
640
330
1F
100
AcDbEntity
  8
0
100
AcDbLine
 10
191.7757476273026
 20
375.5916602489005
 30
0.0
 11
205.7757476273026
 21
361.5916602489006
 31
0.0
  0
LWPOLYLINE
  5
641
330
1F
100
AcDbEntity
  8
0
100
AcDbPolyline
 90
        4
 70
     1
 43
0.0
 10
191.7757476273026
 20
361.5916602489006
 10
205.7757476273026
 20
361.5916602489006
 10
205.7757476273026
 20
375.5916602489005
 10
191.7757476273026
 20
375.5916602489005
  0
LINE
  5
642
330
1F
100
AcDbEntity
  8
0
 62
     9
100
AcDbLine
 10
190.7757476273026
 20
362.5214932637391
 30
0.0
 11
190.7757476273026
 21
447.3796376865501
 31
0.0
  0
LINE
  5
643
330
1F
100
AcDbEntity
  8
0
 62
     9
100
AcDbLine
 10
189.7757476273026
 20
362.5214932637391
 30
0.0
 11
189.7757476273026
 21
447.3796376865501
 31
0.0
  0
LINE
  5
644
330
1F
100
AcDbEntity
  8
0
 62
     9
100
AcDbLine
 10
188.805181676961
 20
362.5214932637391
 30
0.0
 11
188.8051816769611
 21
447.3796376865501
 31
0.0
  0
LINE
  5
645
330
1F
100
AcDbEntity
  8
0
 62
     9
100
AcDbLine
 10
187.7757476273026
 20
362.5214932637391
 30
0.0
 11
187.7757476273027
 21
447.3796376865501
 31
0.0
  0
LWPOLYLINE
  5
646
330
1F
100
AcDbEntity
  8
0
100
AcDbPolyline
 90
       42
 70
     0
 43
0.0
 10
180.7803762461438
 20
371.4916602929188
 42
0.3819660112978571
 10
181.6748034371606
 20
370.6916602927704
 10
182.1748034371461
 20
370.6916602927704
 10
182.1748034371461
 20
368.7416602927697
 42
1.00000000000101
 10
183.0748034371439
 20
368.7416602927688
 10
183.0748034371421
 20
371.2916602927708
 42
0.4142135623732061
 10
182.7748034371428
 20
371.59166029277
 10
181.6748034371606
 20
371.59166029277
 10
181.6748034371661
 20
372.2916602927698
 42
0.414213562373983
 10
181.374803437165
 20
372.5916602927719
 10
176.274803437171
 20
372.5916602927709
 42
0.4142135623729619
 10
175.7748034371715
 20
372.0916602927709
 10
175.7748034371706
 20
353.8916602927721
 42
0.4142135623730951
 10
176.0748034371707
 20
353.5916602927719
 10
176.6748034371707
 20
353.5916602927728
 42
0.4142135623738997
 10
176.9748034371704
 20
353.8916602927729
 10
176.9748034371708
 20
358.7703399491638
 42
-0.6681786379194068
 10
177.4869354715268
 20
358.9824719835196
 10
179.3748034371218
 20
357.0946040179224
 10
179.3748034371218
 20
355.0916602919597
 42
0.4142135623730617
 10
180.3748034371218
 20
354.0916602919597
 10
196.3748936252931
 20
354.0916602919478
 10
196.3748936252913
 20
352.3916602927711
 10
195.1748936252924
 20
352.3916602927711
 42
0.7673269879784036
 10
195.0248936252918
 20
351.8318526716357
 10
195.6141241098329
 20
351.4916602927715
 10
196.4748936252907
 20
351.4916602927724
 42
0.4142135623724291
 10
197.3748936252904
 20
352.3916602927702
 10
197.3748936252954
 20
354.2916602919468
 42
0.4142135623736112
 10
196.3748936252954
 20
355.2916602919495
 10
183.0748034371207
 20
355.2916602919486
 10
183.0748034371189
 20
357.2916602919586
 42
0.9999999999999998
 10
182.0748034371189
 20
357.2916602919586
 10
182.0748034371207
 20
355.2916602919586
 10
180.5748034371207
 20
355.2916602919595
 10
180.5748034371203
 20
356.7632331680261
 42
0.1989123673795979
 10
179.9890169994941
 20
358.1774467303985
 10
177.0626714028147
 20
361.1037923270796
 42
-0.198912367379568
 10
176.9748034371708
 20
361.3159243614355
 10
176.9748034371708
 20
370.9916602927706
 42
-0.4142135623730118
 10
177.4748034371704
 20
371.4916602927706
 10
180.7803762461607
 20
371.4916602927706
  0
LWPOLYLINE
  5
647
330
1F
100
AcDbEntity
  8
0
100
AcDbPolyline
 90
        8
 70
     1
 43
0.0
 10
283.3748034371972
 20
368.0882050384259
 10
283.3748034371972
 20
370.788205038426
 42
-0.4142135623730368
 10
283.6748034371971
 20
371.088205038426
 42
-0.4142135623731117
 10
283.9748034371972
 20
370.788205038426
 10
283.9748034371972
 20
368.0882050384259
 10
283.9748034371972
 20
365.3882050384259
 42
-0.4142135623731117
 10
283.6748034371971
 20
365.088205038426
 42
-0.4142135623730368
 10
283.3748034371972
 20
365.3882050384259
  0
ARC
  5
648
330
1F
100
AcDbEntity
  8
0
 62
   251
100
AcDbCircle
 10
283.6371301774436
 20
379.7014685695592
 30
0.0
 40
9.866751380430809
100
AcDbArc
 50
230.5235810276833
 51
268.4765009498339
  0
ARC
  5
649
330
1F
100
AcDbEntity
  8
0
 62
   251
100
AcDbCircle
 10
283.2397929773843
 20
384.5201392877714
 30
0.0
 40
14.68255499313259
100
AcDbArc
 50
246.4110383110348
 51
270.5268591574222
  0
ARC
  5
64A
330
1F
100
AcDbEntity
  8
0
 62
   251
100
AcDbCircle
 10
284.6760171191725
 20
403.3408083174237
 30
0.0
 40
33.77767584005123
100
AcDbArc
 50
257.498346784682
 51
267.7922547198256
  0
LINE
  5
64B
330
1F
100
AcDbEntity
  8
0
 62
   251
100
AcDbLine
 10
283.3748034371972
 20
369.5882050384259
 30
0.0
 11
277.3748034371972
 21
369.5882050384259
 31
0.0
  0
LINE
  5
64C
330
1F
100
AcDbEntity
  8
0
 62
   251
100
AcDbLine
 10
283.3748034371972
 20
369.088205038426
 30
0.0
 11
277.3748034371972
 21
369.088205038426
 31
0.0
  0
LINE
  5
64D
330
1F
100
AcDbEntity
  8
0
 62
   251
100
AcDbLine
 10
283.3748034371972
 20
368.5882050384259
 30
0.0
 11
277.3748034371972
 21
368.5882050384259
 31
0.0
  0
ARC
  5
64E
330
1F
100
AcDbEntity
  8
0
 62
   251
100
AcDbCircle
 10
283.6566485339227
 20
356.4630036691799
 30
0.0
 40
9.879222577799744
100
AcDbArc
 50
91.63481749349317
 51
129.5635533420257
  0
LINE
  5
64F
330
1F
100
AcDbEntity
  8
0
 62
   251
100
AcDbLine
 10
283.3748034371972
 20
368.0882050384259
 30
0.0
 11
277.3748034371972
 21
368.0882050384259
 31
0.0
  0
LINE
  5
650
330
1F
100
AcDbEntity
  8
0
 62
   251
100
AcDbLine
 10
283.3748034371972
 20
367.5882050384259
 30
0.0
 11
277.3748034371972
 21
367.5882050384259
 31
0.0
  0
LINE
  5
651
330
1F
100
AcDbEntity
  8
0
 62
   251
100
AcDbLine
 10
283.3748034371972
 20
367.088205038426
 30
0.0
 11
277.3748034371972
 21
367.088205038426
 31
0.0
  0
LINE
  5
652
330
1F
100
AcDbEntity
  8
0
 62
   251
100
AcDbLine
 10
283.3748034371972
 20
366.5882050384259
 30
0.0
 11
277.3748034371972
 21
366.5882050384259
 31
0.0
  0
ARC
  5
653
330
1F
100
AcDbEntity
  8
0
 62
   251
100
AcDbCircle
 10
283.7030030318242
 20
319.7426343269715
 30
0.0
 40
46.84672037886739
100
AcDbArc
 50
90.40140708434515
 51
97.79306422810064
  0
ARC
  5
654
330
1F
100
AcDbEntity
  8
0
 62
   251
100
AcDbCircle
 10
283.2240525102404
 20
344.4615286554979
 30
0.0
 40
21.87719578477408
100
AcDbArc
 50
89.60518430637034
 51
105.5363886886682
  0
ARC
  5
655
330
1F
100
AcDbEntity
  8
0
 62
   251
100
AcDbCircle
 10
283.3195381519491
 20
353.1957710103969
 30
0.0
 40
13.1425502256163
100
AcDbArc
 50
89.75906678111307
 51
116.9447572289819
  0
LWPOLYLINE
  5
656
330
1F
100
AcDbEntity
  8
0
100
AcDbPolyline
 90
        8
 70
     1
 43
0.0
 10
239.3748034371929
 20
368.0882050384259
 10
239.3748034371929
 20
370.788205038426
 42
0.4142135623730368
 10
239.0748034371928
 20
371.088205038426
 42
0.4142135623731117
 10
238.7748034371929
 20
370.788205038426
 10
238.7748034371929
 20
368.0882050384259
 10
238.7748034371929
 20
365.3882050384259
 42
0.4142135623731117
 10
239.0748034371928
 20
365.088205038426
 42
0.4142135623730368
 10
239.3748034371929
 20
365.3882050384259
  0
ARC
  5
657
330
1F
100
AcDbEntity
  8
0
 62
   251
100
AcDbCircle
 10
239.1124766969465
 20
379.7014685695592
 30
0.0
 40
9.866751380430809
100
AcDbArc
 50
271.5234990501661
 51
309.4764189723167
  0
ARC
  5
658
330
1F
100
AcDbEntity
  8
0
 62
   251
100
AcDbCircle
 10
239.5098138970059
 20
384.5201392877714
 30
0.0
 40
14.68255499313259
100
AcDbArc
 50
269.4731408425778
 51
293.5889616889652
  0
ARC
  5
659
330
1F
100
AcDbEntity
  8
0
 62
   251
100
AcDbCircle
 10
238.0735897552177
 20
403.3408083174237
 30
0.0
 40
33.77767584005123
100
AcDbArc
 50
272.2077452801745
 51
282.5016532153179
  0
LINE
  5
65A
330
1F
100
AcDbEntity
  8
0
 62
   251
100
AcDbLine
 10
239.3748034371929
 20
369.5882050384259
 30
0.0
 11
245.3748034371929
 21
369.5882050384259
 31
0.0
  0
LINE
  5
65B
330
1F
100
AcDbEntity
  8
0
 62
   251
100
AcDbLine
 10
239.3748034371929
 20
369.088205038426
 30
0.0
 11
245.3748034371929
 21
369.088205038426
 31
0.0
  0
LINE
  5
65C
330
1F
100
AcDbEntity
  8
0
 62
   251
100
AcDbLine
 10
239.3748034371929
 20
368.5882050384259
 30
0.0
 11
245.3748034371929
 21
368.5882050384259
 31
0.0
  0
ARC
  5
65D
330
1F
100
AcDbEntity
  8
0
 62
   251
100
AcDbCircle
 10
239.0929583404674
 20
356.4630036691799
 30
0.0
 40
9.879222577799744
100
AcDbArc
 50
50.43644665797427
 51
88.36518250650682
  0
LINE
  5
65E
330
1F
100
AcDbEntity
  8
0
 62
   251
100
AcDbLine
 10
239.3748034371929
 20
368.0882050384259
 30
0.0
 11
245.3748034371929
 21
368.0882050384259
 31
0.0
  0
LINE
  5
65F
330
1F
100
AcDbEntity
  8
0
 62
   251
100
AcDbLine
 10
239.3748034371929
 20
367.5882050384259
 30
0.0
 11
245.3748034371929
 21
367.5882050384259
 31
0.0
  0
LINE
  5
660
330
1F
100
AcDbEntity
  8
0
 62
   251
100
AcDbLine
 10
239.3748034371929
 20
367.088205038426
 30
0.0
 11
245.3748034371929
 21
367.088205038426
 31
0.0
  0
LINE
  5
661
330
1F
100
AcDbEntity
  8
0
 62
   251
100
AcDbLine
 10
239.3748034371929
 20
366.5882050384259
 30
0.0
 11
245.3748034371929
 21
366.5882050384259
 31
0.0
  0
ARC
  5
662
330
1F
100
AcDbEntity
  8
0
 62
   251
100
AcDbCircle
 10
239.0466038425659
 20
319.7426343269715
 30
0.0
 40
46.84672037886739
100
AcDbArc
 50
82.20693577189937
 51
89.59859291565484
  0
ARC
  5
663
330
1F
100
AcDbEntity
  8
0
 62
   251
100
AcDbCircle
 10
239.5255543641497
 20
344.4615286554979
 30
0.0
 40
21.87719578477408
100
AcDbArc
 50
74.46361131133174
 51
90.39481569362965
  0
ARC
  5
664
330
1F
100
AcDbEntity
  8
0
 62
   251
100
AcDbCircle
 10
239.430068722441
 20
353.1957710103969
 30
0.0
 40
13.1425502256163
100
AcDbArc
 50
63.05524277101804
 51
90.2409332188869
  0
LWPOLYLINE
  5
665
330
1F
100
AcDbEntity
  8
0
 62
   251
100
AcDbPolyline
 90
       25
 70
     1
 43
0.0
 10
246.0085833698289
 20
421.2420487967851
 10
246.5585833698288
 20
421.2420487967851
 10
246.5585833698288
 20
424.7920487967844
 10
246.4085902057748
 20
424.7920487967844
 42
-0.414213562374094
 10
245.9085833698759
 20
425.2920556326817
 10
245.9085833698759
 20
425.6579973108891
 42
-0.3222824919740567
 10
246.2495412247159
 20
426.1320285293366
 42
-0.0594186347937949
 10
250.42335779994
 20
426.9998973070321
 42
-0.4660174091873958
 10
250.6398378578976
 20
426.7832106846847
 10
250.5409597156124
 20
425.6530283467645
 42
-0.310508253462837
 10
250.3968482471575
 20
425.4782071561264
 10
250.2033086581946
 20
425.4227105720296
 42
0.3345953195019858
 10
248.754583369829
 20
423.5001871801534
 10
248.754583369829
 20
422.0420487967844
 10
250.4808763196653
 20
422.6703680461485
 42
-0.8390996311772196
 10
250.8255590332195
 20
422.0733600737816
 10
248.7545833698288
 20
420.3356051584535
 10
248.7545833698285
 20
418.4039662276427
 10
250.4808763196651
 20
419.0322854770068
 42
-0.8390996311772196
 10
250.8255590332193
 20
418.4352775046402
 10
248.7545833698285
 20
416.6975225893118
 10
247.2289424108355
 20
415.2983593571944
 42
-0.6526623844698686
 10
246.5585833698288
 20
415.593157574533
 10
246.5585833698288
 20
419.787889338906
 10
245.8048876073121
 20
420.8471073039934
 42
-0.609409364796348
  0
LWPOLYLINE
  5
666
330
1F
100
AcDbEntity
  8
0
 62
   251
100
AcDbPolyline
 90
       25
 70
     1
 43
0.0
 10
182.5085833698084
 20
368.1722026552206
 10
183.0585833698084
 20
368.1722026552206
 10
183.0585833698084
 20
371.7222026552199
 10
182.9085902057543
 20
371.7222026552199
 42
-0.414213562374094
 10
182.4085833698554
 20
372.2222094911172
 10
182.4085833698554
 20
372.5881511693247
 42
-0.3222824919740567
 10
182.7495412246954
 20
373.062182387772
 42
-0.0594186347937949
 10
186.9233577999194
 20
373.9300511654676
 42
-0.4660174091873958
 10
187.1398378578772
 20
373.7133645431202
 10
187.0409597155919
 20
372.5831822052001
 42
-0.310508253462837
 10
186.8968482471371
 20
372.408361014562
 10
186.7033086581741
 20
372.3528644304652
 42
0.3345953195019858
 10
185.2545833698085
 20
370.430341038589
 10
185.2545833698085
 20
368.9722026552199
 10
186.9808763196448
 20
369.600521904584
 42
-0.8390996311772196
 10
187.325559033199
 20
369.0035139322172
 10
185.2545833698083
 20
367.265759016889
 10
185.254583369808
 20
365.3341200860782
 10
186.9808763196446
 20
365.9624393354422
 42
-0.8390996311772196
 10
187.3255590331988
 20
365.3654313630757
 10
185.254583369808
 20
363.6276764477472
 10
183.7289424108151
 20
362.2285132156298
 42
-0.6526623844698686
 10
183.0585833698084
 20
362.5233114329685
 10
183.0585833698084
 20
366.7180431973416
 10
182.3048876072917
 20
367.7772611624289
 42
-0.609409364796348
  0
HATCH
  5
667
330
1F
100
AcDbEntity
  8
Specialized_Fills
  6
Continuous
 62
   253
100
AcDbHatch
 10
0.0
 20
0.0
 30
0.0
210
0.0
220
0.0
230
1.0
  2
ANSI31
 70
     0
 71
     1
 91
        1
 92
        1
 93
        4
 72
     2
 10
323.12976896816
 20
333.3383123227616
 40
3.914636688942485
 50
259.3183653235836
 51
460.7212332897008
 73
     0
 72
     1
 10
322.401526169306
 20
329.4920098343539
 11
332.7518218637454
 21
329.4920098343539
 72
     2
 10
338.0055668272291
 20
333.3385635172721
 40
6.511360178710881
 50
143.7901041645913
 51
216.2098958354087
 73
     0
 72
     1
 10
332.7518218637454
 20
337.1851172001902
 11
322.4041846233688
 21
337.1851172001902
 97
        1
330
668
 75
     0
 76
     1
 52
0.0
 41
10.0
 77
     0
 78
     1
 53
45.0
 43
-10418.2511347102
 44
-233.9398568074564
 45
-0.8838834764831842
 46
0.8838834764831844
 79
     0
 98
        0
  0
LWPOLYLINE
  5
668
102
{ACAD_REACTORS
330
667
102
}
330
1F
100
AcDbEntity
  8
Specialized_Fills
  6
Continuous
100
AcDbPolyline
 90
        4
 70
   129
 43
0.0
 10
322.4041846233688
 20
337.1851172001902
 42
-1.206677563775184
 10
322.401526169306
 20
329.4920098343539
 10
332.7518218637454
 20
329.4920098343539
 42
-0.326945967454453
 10
332.7518218637454
 20
337.1851172001902
  0
HATCH
  5
669
330
1F
100
AcDbEntity
  8
Specialized_Fills
  6
Continuous
100
AcDbHatch
 10
0.0
 20
0.0
 30
0.0
210
0.0
220
0.0
230
1.0
  2
APDCONC
 70
     0
 71
     1
 91
        1
 92
        1
 93
        2
 72
     2
 10
323.1124006157291
 20
333.346550764466
 40
3.932015469253954
 50
180.1325492134581
 51
359.8674507865418
 73
     1
 72
     2
 10
323.1124006157291
 20
333.3355312227355
 40
3.932005417662124
 50
0.0280233959907292
 51
179.9719766040092
 73
     1
 97
        1
330
66A
 75
     0
 76
     2
 52
0.0
 41
1.0
 77
     0
 78
     5
 53
0.0
 43
-10393.2511347102
 44
-233.9398568074564
 45
0.5
 46
0.5
 79
     2
 49
0.1
 49
-0.9000000000000001
 53
90.0
 43
-10393.1511347102
 44
-233.9398568074564
 45
-0.5
 46
0.5
 79
     2
 49
0.1
 49
-0.9000000000000001
 53
45.0
 43
-10393.2511347102
 44
-233.9398568074564
 45
0.0
 46
0.9999999997361818
 79
     2
 49
0.1414235625
 49
-0.5656854240000002
 53
7.600000000000001
 43
-10392.9511347102
 44
-233.9398568074564
 45
0.2147397874986048
 46
0.280867982627166
 79
     2
 49
0.0
 49
-0.4999999999999987
 53
352.4
 43
-10392.9511347102
 44
-233.9398568074564
 45
0.2808679826271661
 46
0.2147397874986046
 79
     2
 49
0.0
 49
-0.4999999999999987
 98
        0
  0
LWPOLYLINE
  5
66A
102
{ACAD_REACTORS
330
669
102
}
330
1F
100
AcDbEntity
  8
Specialized_Fills
  6
Continuous
100
AcDbPolyline
 90
        2
 70
   129
 43
0.0
 10
319.1803956683727
 20
333.3374543685832
 42
0.9976892516396096
 10
327.0444055630853
 20
333.3374543685832
 42
0.9995110190430493
  0
LWPOLYLINE
  5
66B
330
1F
100
AcDbEntity
  8
0
100
AcDbPolyline
 90
        5
 70
     0
 43
0.0
 10
208.2757476054488
 20
361.5916602707543
 10
206.7757476054488
 20
361.5916602707543
 10
205.7757476054488
 20
362.5916602707544
 10
205.7757476054488
 20
392.3113748515484
 10
205.7757476054488
 20
447.3796376865501
  0
LWPOLYLINE
  5
66C
330
1F
100
AcDbEntity
  8
0
100
AcDbPolyline
 90
        5
 70
     0
 43
0.0
 10
208.2757476054488
 20
361.5916602707543
 10
209.7757476054488
 20
361.5916602707543
 10
210.7757476054488
 20
362.5916602707544
 10
210.7757476054488
 20
392.3113748515484
 10
210.7757476054489
 20
447.3796376865501
  0
LWPOLYLINE
  5
66D
330
1F
100
AcDbEntity
  8
0
100
AcDbPolyline
 90
        5
 70
     0
 43
0.0
 10
189.2757476054488
 20
361.5916602707543
 10
190.7757476054488
 20
361.5916602707543
 10
191.7757476054488
 20
362.5916602707544
 10
191.7757476054488
 20
392.3113748515484
 10
191.7757476054488
 20
447.3796376865501
  0
LWPOLYLINE
  5
66E
330
1F
100
AcDbEntity
  8
0
100
AcDbPolyline
 90
        5
 70
     0
 43
0.0
 10
189.2757476054488
 20
361.5916602707543
 10
187.7757476054488
 20
361.5916602707543
 10
186.7757476054488
 20
362.5916602707544
 10
186.7757476054488
 20
392.3113748515484
 10
186.7757476054488
 20
447.3796376865501
  0
LWPOLYLINE
  5
693
330
1F
100
AcDbEntity
  8
0
  6
Continuous
100
AcDbPolyline
 90
        6
 70
   128
 43
0.0
 10
349.6973689444712
 20
447.3796376865501
 10
262.5383677759664
 20
447.3796376865501
 10
260.5383677759673
 20
452.8745925254587
 10
256.5383677759665
 20
441.8846828476415
 10
254.5383677759673
 20
447.3796376865501
 10
107.7791854664101
 20
447.3796376865502
  0
ENDSEC
  0
SECTION
  2
OBJECTS
  0
DICTIONARY
  5
C
330
0
100
AcDbDictionary
281
     1
  3
ACAD_ASSOCNETWORK
350
352
  3
ACAD_CIP_PREVIOUS_PRODUCT_INFO
350
216
  3
ACAD_COLOR
350
6B
  3
ACAD_DETAILVIEWSTYLE
350
21B
  3
ACAD_GROUP
350
D
  3
ACAD_IMAGE_DICT
350
347
  3
ACAD_IMAGE_VARS
350
35C
  3
ACAD_LAYOUT
350
1A
  3
ACAD_MATERIAL
350
6A
  3
ACAD_MLEADERSTYLE
350
12D
  3
ACAD_MLINESTYLE
350
17
  3
ACAD_PDFDEFINITIONS
350
4A5
  3
ACAD_PLOTSETTINGS
350
19
  3
ACAD_PLOTSTYLENAME
350
E
  3
ACAD_SCALELIST
350
10C
  3
ACAD_SECTIONVIEWSTYLE
350
219
  3
ACAD_TABLESTYLE
350
7E
  3
ACAD_VISUALSTYLE
350
EF
  3
ACDB_RECOMPOSE_DATA
350
70C
  3
AcDbVariableDictionary
350
5E
  3
AcDsDecomposeData
350
713
  3
DWGPROPS
350
70D
  0
DICTIONARY
  5
1FF
330
2
100
AcDbDictionary
280
     1
281
     1
  3
ACAD_LAYERSTATES
360
200
  0
DICTIONARY
  5
13C
330
10
100
AcDbDictionary
280
     1
281
     1
  0
DICTIONARY
  5
24A
330
249
100
AcDbDictionary
280
     1
281
     1
  0
DICTIONARY
  5
24C
330
24B
100
AcDbDictionary
280
     1
281
     1
  0
DICTIONARY
  5
24E
330
24D
100
AcDbDictionary
280
     1
281
     1
  0
DICTIONARY
  5
250
330
24F
100
AcDbDictionary
280
     1
281
     1
  0
DICTIONARY
  5
1CE
330
1F
100
AcDbDictionary
280
     1
281
     1
  3
ACAD_ASSOCNETWORK
360
44B
  3
ACAD_SORTENTS
360
6D2
  0
DICTIONARY
  5
241
330
240
100
AcDbDictionary
280
     1
281
     1
  0
DICTIONARY
  5
751
330
36A
100
AcDbDictionary
280
     1
281
     1
  3
ACAD_MTEXT_RT
360
752
  0
DICTIONARY
  5
373
330
372
100
AcDbDictionary
280
     1
281
     1
  0
DICTIONARY
  5
438
330
437
100
AcDbDictionary
280
     1
281
     1
  3
ACAD_DIMASSOC
360
439
  0
DICTIONARY
  5
43F
330
43E
100
AcDbDictionary
280
     1
281
     1
  3
ACAD_DIMASSOC
360
440
  0
DICTIONARY
  5
442
330
441
100
AcDbDictionary
280
     1
281
     1
  3
ACAD_DIMASSOC
360
443
  0
DICTIONARY
  5
352
102
{ACAD_REACTORS
330
C
102
}
330
C
100
AcDbDictionary
281
     1
  3
ACAD_ASSOCNETWORK
350
353
  0
XRECORD
  5
216
102
{ACAD_REACTORS
330
C
102
}
330
C
100
AcDbXrecord
280
     1
300
ACD
300
2014
300
BDSPRM_F_S
  0
DICTIONARY
  5
6B
102
{ACAD_REACTORS
330
C
102
}
330
C
100
AcDbDictionary
281
     1
  0
DICTIONARY
  5
21B
102
{ACAD_REACTORS
330
C
102
}
330
C
100
AcDbDictionary
281
     1
  3
Imperial24
350
4A1
  3
Metric50
350
21C
  0
DICTIONARY
  5
D
102
{ACAD_REACTORS
330
C
102
}
330
C
100
AcDbDictionary
281
     1
  0
DICTIONARY
  5
347
102
{ACAD_REACTORS
330
C
102
}
330
C
100
AcDbDictionary
281
     1
  0
RASTERVARIABLES
  5
35C
102
{ACAD_REACTORS
330
C
102
}
330
C
100
AcDbRasterVariables
 90
        0
 70
     1
 71
     1
 72
     1
  0
DICTIONARY
  5
1A
102
{ACAD_REACTORS
330
C
102
}
330
C
100
AcDbDictionary
281
     1
  3
Layout1
350
D3
  3
Layout2
350
D7
  3
Model
350
22
  0
DICTIONARY
  5
6A
102
{ACAD_REACTORS
330
C
102
}
330
C
100
AcDbDictionary
281
     1
  3
ByBlock
350
ED
  3
ByLayer
350
EC
  3
Global
350
EE
  0
DICTIONARY
  5
12D
102
{ACAD_REACTORS
330
C
102
}
330
C
100
AcDbDictionary
281
     1
  3
Annotative
350
13B
  3
SPECIALIZED
350
259
  3
Standard
350
12E
  0
DICTIONARY
  5
17
102
{ACAD_REACTORS
330
C
102
}
330
C
100
AcDbDictionary
281
     1
  3
Standard
350
18
  0
DICTIONARY
  5
4A5
102
{ACAD_REACTORS
330
C
102
}
330
C
100
AcDbDictionary
281
     1
  0
DICTIONARY
  5
19
102
{ACAD_REACTORS
330
C
102
}
330
C
100
AcDbDictionary
281
     1
  0
ACDBDICTIONARYWDFLT
  5
E
102
{ACAD_REACTORS
330
C
102
}
330
C
100
AcDbDictionary
281
     1
  3
Normal
350
F
100
AcDbDictionaryWithDefault
340
F
  0
DICTIONARY
  5
10C
102
{ACAD_REACTORS
330
C
102
}
330
C
100
AcDbDictionary
281
     1
  3
A0
350
10D
  3
A1
350
1BE
  3
A2
350
1BF
  3
A3
350
1C0
  3
A4
350
1C1
  3
A5
350
1C2
  3
A6
350
1C3
  3
A7
350
1C4
  3
A8
350
1C5
  3
A9
350
1C6
  3
B0
350
1C7
  3
B1
350
1C8
  3
B2
350
1C9
  3
B3
350
1CA
  3
B4
350
1CB
  3
B5
350
1CC
  3
B6
350
1CD
  0
DICTIONARY
  5
219
102
{ACAD_REACTORS
330
C
102
}
330
C
100
AcDbDictionary
281
     1
  3
Imperial24
350
4A0
  3
Metric50
350
21A
  0
DICTIONARY
  5
7E
102
{ACAD_REACTORS
330
C
102
}
330
C
100
AcDbDictionary
281
     1
  3
Standard
350
7F
  0
DICTIONARY
  5
EF
102
{ACAD_REACTORS
330
C
102
}
330
C
100
AcDbDictionary
281
     1
  3
2dWireframe
350
F5
  3
Basic
350
F4
  3
Brighten
350
FB
  3
ColorChange
350
FF
  3
Conceptual
350
F8
  3
Dim
350
FA
  3
EdgeColorOff
350
1E6
  3
Facepattern
350
FE
  3
Flat
350
F0
  3
FlatWithEdges
350
F1
  3
Gouraud
350
F2
  3
GouraudWithEdges
350
F3
  3
Hidden
350
F7
  3
JitterOff
350
1E4
  3
Linepattern
350
FD
  3
OverhangOff
350
1E5
  3
Realistic
350
F9
  3
Shaded
350
1F3
  3
Shaded with edges
350
1F2
  3
Shades of Gray
350
1EF
  3
Sketchy
350
1F0
  3
Thicken
350
FC
  3
Wireframe
350
F6
  3
X-Ray
350
1F1
  0
XRECORD
  5
70C
102
{ACAD_REACTORS
330
C
102
}
330
C
100
AcDbXrecord
280
     1
 90
        1
330
7F
330
35F
330
361
330
372
330
374
  0
DICTIONARY
  5
5E
102
{ACAD_REACTORS
330
C
102
}
330
C
100
AcDbDictionary
281
     1
  3
CANNOSCALE
350
146
  3
CMLEADERSTYLE
350
145
  3
CTABLESTYLE
350
84
  3
CVIEWDETAILSTYLE
350
227
  3
CVIEWSECTIONSTYLE
350
228
  3
DIMASSOC
350
5F
  3
HIDETEXT
350
63
  3
INDEXCTL
350
707
  3
LAYEREVAL
350
1AE
  3
LAYERNOTIFY
350
1AF
  3
LIGHTINGUNITS
350
705
  3
MSLTSCALE
350
704
  3
PSOLHEIGHT
350
709
  3
PSOLWIDTH
350
708
  3
SORTENTS
350
706
  3
XCLIPFRAME
350
70A
  0
DICTIONARY
  5
713
102
{ACAD_REACTORS
330
C
102
}
330
C
100
AcDbDictionary
281
     1
  3
AcDsRecords
350
715
  3
AcDsSchemas
350
714
1001
ACAD
1070
     2
  0
XRECORD
  5
70D
102
{ACAD_REACTORS
330
C
102
}
330
C
100
AcDbXrecord
280
     1
  1
DWGPROPS COOKIE
  2

  3

  4

  6

  7

  8
Hayden
  9

300
=
301
=
302
=
303
=
304
=
305
=
306
=
307
=
308
=
309
=
 40
0.0559664814814815
 41
2456898.462589062
 42
2457071.446314537
  1

 90
        0
  0
DICTIONARY
  5
200
102
{ACAD_REACTORS
330
1FF
102
}
330
1FF
100
AcDbDictionary
281
     1
  0
DICTIONARY
  5
44B
102
{ACAD_REACTORS
330
1CE
102
}
330
1CE
100
AcDbDictionary
281
     1
  3
ACAD_ASSOCNETWORK
350
44C
  0
SORTENTSTABLE
  5
6D2
102
{ACAD_REACTORS
330
1CE
102
}
330
1CE
100
AcDbSortentsTable
330
1F
331
43E
  5
437
331
43A
  5
693
331
5E4
  5
5E1
331
65E
  5
65B
331
5E0
  5
5DD
331
65A
  5
657
331
61F
  5
61C
331
436
  5
435
331
5DC
  5
5D9
331
656
  5
653
331
61B
  5
618
331
432
  5
432
331
5D8
  5
5D5
331
652
  5
64F
331
617
  5
614
331
42E
  5
42E
331
613
  5
610
331
5D4
  5
5D1
331
64E
  5
64B
331
426
  5
426
331
5D0
  5
5CD
331
64A
  5
647
331
60F
  5
60C
331
422
  5
422
331
60B
  5
608
331
5CC
  5
5C9
331
646
  5
643
331
5C8
  5
5C5
331
642
  5
63F
331
607
  5
604
331
372
  5
372
331
603
  5
600
331
63E
  5
63B
331
5C4
  5
5C1
331
5FF
  5
5FC
331
63A
  5
637
331
5C0
  5
5A8
331
36A
  5
36A
331
636
  5
633
331
5FB
  5
5F8
331
632
  5
62F
331
366
  5
366
331
5F7
  5
5F4
331
362
  5
362
331
5F3
  5
5F0
331
62E
  5
62B
331
66D
  5
66A
331
35E
  5
35E
331
445
  5
43E
331
669
  5
666
331
62A
  5
627
331
5A8
  5
444
331
5EF
  5
5EC
331
441
  5
43A
331
665
  5
662
331
626
  5
623
331
5EB
  5
5E8
331
661
  5
65E
331
622
  5
61F
331
43D
  5
436
331
5E7
  5
5E4
331
5E3
  5
5E0
331
65D
  5
65A
331
435
  5
66D
331
659
  5
656
331
5DF
  5
5DC
331
61E
  5
61B
331
431
  5
431
331
5DB
  5
5D8
331
655
  5
652
331
61A
  5
617
331
651
  5
64E
331
42D
  5
42D
331
5D7
  5
5D4
331
616
  5
613
331
64D
  5
64A
331
5D3
  5
5D0
331
612
  5
60F
331
425
  5
425
331
5CF
  5
5CC
331
649
  5
646
331
60E
  5
60B
331
421
  5
421
331
5CB
  5
5C8
331
645
  5
642
331
60A
  5
607
331
641
  5
63E
331
5C7
  5
5C4
331
606
  5
603
331
5C3
  5
5C0
331
63D
  5
63A
331
602
  5
5FF
331
5BF
  5
4B0
331
639
  5
636
331
5FE
  5
5FB
331
369
  5
369
331
5FA
  5
5F7
331
635
  5
632
331
631
  5
62E
331
365
  5
365
331
5F6
  5
5F3
331
361
  5
361
331
5F2
  5
5EF
331
62D
  5
62A
331
66C
  5
669
331
444
  5
43D
331
35D
  5
35D
331
5EE
  5
5EB
331
629
  5
626
331
668
  5
665
331
5EA
  5
5E7
331
625
  5
622
331
664
  5
661
331
621
  5
61E
331
660
  5
65D
331
5E6
  5
5E3
331
5E2
  5
5DF
331
65C
  5
659
331
434
  5
434
331
658
  5
655
331
5DE
  5
5DB
331
61D
  5
61A
331
430
  5
430
331
5DA
  5
5D7
331
654
  5
651
331
619
  5
616
331
650
  5
64D
331
5D6
  5
5D3
331
615
  5
612
331
428
  5
428
331
5D2
  5
5CF
331
64C
  5
649
331
611
  5
60E
331
424
  5
424
331
5CE
  5
5CB
331
648
  5
645
331
60D
  5
60A
331
609
  5
606
331
5CA
  5
5C7
331
644
  5
641
331
640
  5
63D
331
374
  5
374
331
605
  5
602
331
5C6
  5
5C3
331
601
  5
5FE
331
63C
  5
639
331
693
  5
66C
331
5C2
  5
5BF
331
36C
  5
36C
331
5BE
  5
445
331
638
  5
635
331
5FD
  5
5FA
331
368
  5
368
331
634
  5
631
331
5F9
  5
5F6
331
630
  5
62D
331
364
  5
364
331
5F5
  5
5F2
331
360
  5
360
331
5F1
  5
5EE
331
62C
  5
629
331
66B
  5
668
331
667
  5
664
331
628
  5
625
331
5ED
  5
5EA
331
5E9
  5
5E6
331
663
  5
660
331
624
  5
621
331
620
  5
61D
331
5E5
  5
5E2
331
65F
  5
65C
331
437
  5
66E
331
5E1
  5
5DE
331
65B
  5
658
331
433
  5
433
331
5DD
  5
5DA
331
657
  5
654
331
61C
  5
619
331
5D9
  5
5D6
331
653
  5
650
331
618
  5
615
331
42F
  5
42F
331
64F
  5
64C
331
5D5
  5
5D2
331
614
  5
611
331
427
  5
427
331
64B
  5
648
331
5D1
  5
5CE
331
610
  5
60D
331
423
  5
423
331
5CD
  5
5CA
331
647
  5
644
331
60C
  5
609
331
5C9
  5
5C6
331
643
  5
640
331
608
  5
605
331
5C5
  5
5C2
331
63F
  5
63C
331
604
  5
601
331
5C1
  5
5BE
331
63B
  5
638
331
600
  5
5FD
331
36B
  5
36B
331
637
  5
634
331
5FC
  5
5F9
331
5F8
  5
5F5
331
633
  5
630
331
367
  5
367
331
363
  5
363
331
5F4
  5
5F1
331
66E
  5
66B
331
62F
  5
62C
331
35F
  5
35F
331
5F0
  5
5ED
331
62B
  5
628
331
66A
  5
667
331
5EC
  5
5E9
331
627
  5
624
331
666
  5
663
331
5E8
  5
5E5
331
623
  5
620
331
662
  5
65F
  0
XRECORD
  5
752
102
{ACAD_REACTORS
330
751
102
}
330
751
100
AcDbXrecord
280
     1
 40
173389.0
  1
© copyright 2013 Specialized Construction Products Ltd
  0
DIMASSOC
  5
439
102
{ACAD_REACTORS
330
438
102
}
330
438
100
AcDbDimAssoc
330
437
 90
        1
 70
     0
 71
     0
  1
AcDbOsnapPointRef
 72
    10
331
42F
 73
     2
 91
        2
 40
0.1463927882920879
 10
0.0
 20
0.0
 30
0.0
 75
     0
  0
DIMASSOC
  5
440
102
{ACAD_REACTORS
330
43F
102
}
330
43F
100
AcDbDimAssoc
330
43E
 90
        1
 70
     0
 71
     0
  1
AcDbOsnapPointRef
 72
    10
331
42F
 73
     2
 91
        4
 40
0.3809359086304903
 10
0.0
 20
0.0
 30
0.0
 75
     0
  0
DIMASSOC
  5
443
102
{ACAD_REACTORS
330
442
102
}
330
442
100
AcDbDimAssoc
330
441
 90
        1
 70
     0
 71
     0
  1
AcDbOsnapPointRef
 72
    10
331
426
 73
     2
 91
        1
 40
0.3001681284825131
 10
0.0
 20
0.0
 30
0.0
 75
     0
  0
ACDBASSOCNETWORK
  5
353
102
{ACAD_REACTORS
330
352
102
}
330
352
100
AcDbAssocAction
 90
        1
 90
        0
330
0
360
0
 90
        0
 90
        0
 90
        0
100
AcDbAssocNetwork
 90
        0
 90
        2
 90
        1
330
44C
 90
        0
  0
ACDBDETAILVIEWSTYLE
  5
4A1
102
{ACAD_XDICTIONARY
360
4DB
102
}
102
{ACAD_REACTORS
330
21B
102
}
330
21B
100
AcDbModelDocViewStyle
 70
     0
  3
Imperial24
290
     0
100
AcDbDetailViewStyle
 70
     0
 71
     0
 90
        3
 71
     1
340
11
 40
0.24
340
0
 40
0.24
300

 40
0.36
280
     3
 71
     2
340
16
 90
       25
 71
     3
340
11
 40
0.24
 90
        1
 40
0.75
 90
        1
300
%<\AcVar ViewType \f "%tc1">% %<\AcVar ViewDetailId>%\PSCALE %<\AcVar ViewScale \f "%sn">%
 71
     4
340
16
 90
       25
340
16
 90
       25
280
     0
  0
ACDBDETAILVIEWSTYLE
  5
21C
102
{ACAD_XDICTIONARY
360
236
102
}
102
{ACAD_REACTORS
330
21B
102
}
330
21B
100
AcDbModelDocViewStyle
 70
     0
  3
Metric50
290
     0
100
AcDbDetailViewStyle
 70
     0
 71
     0
 90
        3
 71
     1
340
11
 40
5.0
340
0
 40
5.0
300

 40
0.0
280
     1
 71
     2
340
16
 90
       25
 71
     3
340
11
 40
5.0
 90
        0
 40
15.0
 90
        1
300
%<\AcVar ViewDetailId>% (%<\AcVar ViewScale \f "%sn">%)
 71
     4
340
16
 90
       25
340
16
 90
       25
280
     0
  0
LAYOUT
  5
D3
102
{ACAD_XDICTIONARY
360
718
102
}
102
{ACAD_REACTORS
330
1A
102
}
330
1A
100
AcDbPlotSettings
  1

  2
C:\Documents and Settings\basas\Application Data\Autodesk\AutoCAD 2005\R16.1\enu\plotters\Default Windows System Printer.pc3
  4

  6

 40
0.0
 41
0.0
 42
0.0
 43
0.0
 44
0.0
 45
0.0
 46
0.0
 47
0.0
 48
0.0
 49
0.0
140
0.0
141
0.0
142
1.0
143
1.0
 70
   688
 72
     0
 73
     0
 74
     5
  7

 75
    16
147
1.0
148
0.0
149
0.0
100
AcDbLayout
  1
Layout1
 70
     1
 71
     1
 10
0.0
 20
0.0
 11
12.0
 21
9.0
 12
0.0
 22
0.0
 32
0.0
 14
0.0
 24
0.0
 34
0.0
 15
0.0
 25
0.0
 35
0.0
146
0.0
 13
0.0
 23
0.0
 33
0.0
 16
1.0
 26
0.0
 36
0.0
 17
0.0
 27
1.0
 37
0.0
 76
     0
330
D2
  0
LAYOUT
  5
D7
102
{ACAD_XDICTIONARY
360
71A
102
}
102
{ACAD_REACTORS
330
1A
102
}
330
1A
100
AcDbPlotSettings
  1

  2
C:\Documents and Settings\basas\Application Data\Autodesk\AutoCAD 2005\R16.1\enu\plotters\Default Windows System Printer.pc3
  4

  6

 40
0.0
 41
0.0
 42
0.0
 43
0.0
 44
0.0
 45
0.0
 46
0.0
 47
0.0
 48
0.0
 49
0.0
140
0.0
141
0.0
142
1.0
143
1.0
 70
   688
 72
     0
 73
     0
 74
     5
  7

 75
    16
147
1.0
148
0.0
149
0.0
100
AcDbLayout
  1
Layout2
 70
     1
 71
     2
 10
0.0
 20
0.0
 11
12.0
 21
9.0
 12
0.0
 22
0.0
 32
0.0
 14
0.0
 24
0.0
 34
0.0
 15
0.0
 25
0.0
 35
0.0
146
0.0
 13
0.0
 23
0.0
 33
0.0
 16
1.0
 26
0.0
 36
0.0
 17
0.0
 27
1.0
 37
0.0
 76
     0
330
D6
  0
LAYOUT
  5
22
102
{ACAD_XDICTIONARY
360
205
102
}
102
{ACAD_REACTORS
330
1A
102
}
330
1A
100
AcDbPlotSettings
  1

  2
none_device
  4
ISO_A4_(210.00_x_297.00_MM)
  6

 40
7.5
 41
20.0
 42
7.5
 43
20.0
 44
210.0
 45
297.0
 46
11.54999923706054
 47
-13.65000009536743
 48
0.0
 49
0.0
140
0.0
141
0.0
142
1.0
143
8.704084754739808
 70
 11952
 72
     1
 73
     0
 74
     0
  7

 75
     0
147
0.1148885871608098
148
0.0
149
0.0
100
AcDbLayout
  1
Model
 70
     1
 71
     0
 10
0.0
 20
0.0
 11
12.0
 21
9.0
 12
0.0
 22
0.0
 32
0.0
 14
0.0
 24
0.0
 34
0.0
 15
0.0
 25
0.0
 35
0.0
146
0.0
 13
0.0
 23
0.0
 33
0.0
 16
1.0
 26
0.0
 36
0.0
 17
0.0
 27
1.0
 37
0.0
 76
     0
330
1F
331
EA
1001
ACAD_PSEXT
1000
None
1000
None
1000
Not applicable
1000
The layout will not be plotted unless a new plotter configuration name is selected.
1070
     0
  0
MATERIAL
  5
ED
102
{ACAD_XDICTIONARY
360
1F9
102
}
102
{ACAD_REACTORS
330
6A
102
}
330
6A
100
AcDbMaterial
  1
ByBlock
  0
MATERIAL
  5
EC
102
{ACAD_XDICTIONARY
360
1F7
102
}
102
{ACAD_REACTORS
330
6A
102
}
330
6A
100
AcDbMaterial
  1
ByLayer
  0
MATERIAL
  5
EE
102
{ACAD_XDICTIONARY
360
173
102
}
102
{ACAD_REACTORS
330
6A
102
}
330
6A
100
AcDbMaterial
  1
Global
 43
0.0007999999797903
 43
0.0
 43
0.0
 43
0.0
 43
0.0
 43
0.0007999999797903
 43
0.0
 43
0.0
 43
0.0
 43
0.0
 43
1.0
 43
0.0
 43
0.0
 43
0.0
 43
0.0
 43
1.0
 49
0.0007999999797903
 49
0.0
 49
0.0
 49
0.0
 49
0.0
 49
0.0007999999797903
 49
0.0
 49
0.0
 49
0.0
 49
0.0
 49
1.0
 49
0.0
 49
0.0
 49
0.0
 49
0.0
 49
1.0
142
0.0007999999797903
142
0.0
142
0.0
142
0.0
142
0.0
142
0.0007999999797903
142
0.0
142
0.0
142
0.0
142
0.0
142
1.0
142
0.0
142
0.0
142
0.0
142
0.0
142
1.0
144
0.0007999999797903
144
0.0
144
0.0
144
0.0
144
0.0
144
0.0007999999797903
144
0.0
144
0.0
144
0.0
144
0.0
144
1.0
144
0.0
144
0.0
144
0.0
144
0.0
144
1.0
1001
ACAD
1070
    -1
1070
     3
1070
     0
1000

1071
        0
1070
     0
  0
MLEADERSTYLE
  5
13B
102
{ACAD_REACTORS
330
12D
102
}
330
12D
100
AcDbMLeaderStyle
170
     2
171
     1
172
     0
 90
        2
 40
0.0
 41
0.0
173
     1
 91
-1056964608
340
14
 92
       -2
290
     1
 42
2.0
291
     1
 43
8.0
  3
Standard
 44
4.0
300

342
11
174
     1
178
     1
175
     1
176
     0
 93
-1056964608
 45
4.0
292
     0
297
     0
 46
4.0
 94
-1056964608
 47
1.0
 49
1.0
140
1.0
293
     1
141
0.0
294
     1
177
     0
142
1.0
295
     0
296
     1
143
3.75
1001
ACAD_MLEADERVER
1070
     2
  0
MLEADERSTYLE
  5
259
102
{ACAD_REACTORS
330
12D
330
435
330
436
330
437
330
43A
330
43D
330
43E
330
441
330
444
102
}
330
12D
100
AcDbMLeaderStyle
170
     2
171
     1
172
     0
 90
        2
 40
0.0
 41
0.0
173
     1
 91
-1033937057
340
14
 92
       -2
290
     1
 42
2.0
291
     1
 43
10.0
  3
Standard
341
240
 44
7.299999999999999
300

342
251
174
     1
178
     1
175
     1
176
     0
 93
-1056964608
 45
5.5
292
     0
297
     0
 46
0.18
 94
-1056964608
 47
1.0
 49
1.0
140
1.0
293
     1
141
0.0
294
     1
177
     0
142
1.0
295
     0
296
     0
143
5.0
1001
ACAD_MLEADERVER
1070
     2
  0
MLEADERSTYLE
  5
12E
102
{ACAD_REACTORS
330
12D
102
}
330
12D
100
AcDbMLeaderStyle
170
     2
171
     1
172
     0
 90
        2
 40
0.0
 41
0.0
173
     1
 91
-1056964608
340
14
 92
       -2
290
     1
 42
2.0
291
     1
 43
8.0
  3
Standard
 44
4.0
300

342
11
174
     1
178
     1
175
     1
176
     0
 93
-1056964608
 45
4.0
292
     0
297
     0
 46
4.0
 94
-1056964608
 47
1.0
 49
1.0
140
1.0
293
     1
141
0.0
294
     1
177
     0
142
1.0
295
     0
296
     0
143
3.75
1001
ACAD_MLEADERVER
1070
     2
  0
MLINESTYLE
  5
18
102
{ACAD_REACTORS
330
17
102
}
330
17
100
AcDbMlineStyle
  2
STANDARD
 70
     0
  3

 62
   256
 51
90.0
 52
90.0
 71
     2
 49
0.5
 62
   256
  6
BYLAYER
 49
-0.5
 62
   256
  6
BYLAYER
  0
ACDBPLACEHOLDER
  5
F
102
{ACAD_REACTORS
330
E
102
}
330
E
  0
SCALE
  5
10D
102
{ACAD_REACTORS
330
10C
102
}
330
10C
100
AcDbScale
 70
     0
300
1:1
140
1.0
141
1.0
290
     1
  0
SCALE
  5
1BE
102
{ACAD_REACTORS
330
10C
102
}
330
10C
100
AcDbScale
 70
     0
300
1:2
140
1.0
141
2.0
290
     0
  0
SCALE
  5
1BF
102
{ACAD_REACTORS
330
10C
102
}
330
10C
100
AcDbScale
 70
     0
300
1:4
140
1.0
141
4.0
290
     0
  0
SCALE
  5
1C0
102
{ACAD_REACTORS
330
10C
102
}
330
10C
100
AcDbScale
 70
     0
300
1:5
140
1.0
141
5.0
290
     0
  0
SCALE
  5
1C1
102
{ACAD_REACTORS
330
10C
102
}
330
10C
100
AcDbScale
 70
     0
300
1:8
140
1.0
141
8.0
290
     0
  0
SCALE
  5
1C2
102
{ACAD_REACTORS
330
10C
102
}
330
10C
100
AcDbScale
 70
     0
300
1:10
140
1.0
141
10.0
290
     0
  0
SCALE
  5
1C3
102
{ACAD_REACTORS
330
10C
102
}
330
10C
100
AcDbScale
 70
     0
300
1:16
140
1.0
141
16.0
290
     0
  0
SCALE
  5
1C4
102
{ACAD_REACTORS
330
10C
102
}
330
10C
100
AcDbScale
 70
     0
300
1:20
140
1.0
141
20.0
290
     0
  0
SCALE
  5
1C5
102
{ACAD_REACTORS
330
10C
102
}
330
10C
100
AcDbScale
 70
     0
300
1:30
140
1.0
141
30.0
290
     0
  0
SCALE
  5
1C6
102
{ACAD_REACTORS
330
10C
102
}
330
10C
100
AcDbScale
 70
     0
300
1:40
140
1.0
141
40.0
290
     0
  0
SCALE
  5
1C7
102
{ACAD_REACTORS
330
10C
102
}
330
10C
100
AcDbScale
 70
     0
300
1:50
140
1.0
141
50.0
290
     0
  0
SCALE
  5
1C8
102
{ACAD_REACTORS
330
10C
102
}
330
10C
100
AcDbScale
 70
     0
300
1:100
140
1.0
141
100.0
290
     0
  0
SCALE
  5
1C9
102
{ACAD_REACTORS
330
10C
102
}
330
10C
100
AcDbScale
 70
     0
300
2:1
140
2.0
141
1.0
290
     0
  0
SCALE
  5
1CA
102
{ACAD_REACTORS
330
10C
102
}
330
10C
100
AcDbScale
 70
     0
300
4:1
140
4.0
141
1.0
290
     0
  0
SCALE
  5
1CB
102
{ACAD_REACTORS
330
10C
102
}
330
10C
100
AcDbScale
 70
     0
300
8:1
140
8.0
141
1.0
290
     0
  0
SCALE
  5
1CC
102
{ACAD_REACTORS
330
10C
102
}
330
10C
100
AcDbScale
 70
     0
300
10:1
140
10.0
141
1.0
290
     0
  0
SCALE
  5
1CD
102
{ACAD_REACTORS
330
10C
102
}
330
10C
100
AcDbScale
 70
     0
300
100:1
140
100.0
141
1.0
290
     0
  0
ACDBSECTIONVIEWSTYLE
  5
4A0
102
{ACAD_XDICTIONARY
360
4D9
102
}
102
{ACAD_REACTORS
330
219
102
}
330
219
100
AcDbModelDocViewStyle
 70
     0
  3
Imperial24
290
     0
100
AcDbSectionViewStyle
 70
     0
 71
     0
 90
       78
 71
     1
340
11
 40
0.24
340
0
340
0
 40
0.24
300
I, O, Q, S, X, Z
 40
0.48
 90
        3
 40
0.18
 90
        1
 71
     2
340
16
 90
       25
340
16
 90
       50
 40
0.24
 40
0.0
 40
0.24
 71
     3
340
11
 40
0.24
 90
        1
 40
0.75
 90
        1
300
%<\AcVar ViewType \f "%tc1">% %<\AcVar ViewSectionStartId>%-%<\AcVar ViewSectionEndId>%\PSCALE %<\AcVar ViewScale \f "%sn">%
 71
     4
300
ANSI31
 40
1.0
 90
        0
290
     0
290
     0
 90
        6
 40
0.0
 40
1.570796326794896
 40
0.2617993877991494
 40
1.308996938995747
 40
-0.2617993877991494
 40
1.832595714594046
  0
ACDBSECTIONVIEWSTYLE
  5
21A
102
{ACAD_XDICTIONARY
360
234
102
}
102
{ACAD_REACTORS
330
219
102
}
330
219
100
AcDbModelDocViewStyle
 70
     0
  3
Metric50
290
     0
100
AcDbSectionViewStyle
 70
     0
 71
     0
 90
      102
 71
     1
340
11
 40
5.0
340
0
340
0
 40
5.0
300
I, O, Q, S, X, Z
 40
10.0
 90
        0
 40
2.5
 90
        0
 71
     2
340
16
 90
       25
340
16
 90
       50
 40
5.0
 40
2.5
 40
5.0
 71
     3
340
11
 40
5.0
 90
        0
 40
15.0
 90
        1
300
%<\AcVar ViewSectionStartId>%-%<\AcVar ViewSectionEndId>% (%<\AcVar ViewScale \f "%sn">%)
 71
     4
300
ANSI31
 40
1.0
 90
        0
290
     0
290
     0
 90
        6
 40
0.0
 40
1.570796326794896
 40
0.2617993877991494
 40
1.308996938995747
 40
-0.2617993877991494
 40
1.832595714594046
  0
TABLESTYLE
  5
7F
102
{ACAD_XDICTIONARY
360
162
102
}
102
{ACAD_REACTORS
330
7E
102
}
330
7E
100
AcDbTableStyle
  3
Standard
 70
     0
 71
     0
 40
1.5
 41
1.5
280
     0
281
     0
  7
Standard
140
4.5
170
     2
 62
     0
 63
     7
283
     0
274
    -2
284
     1
 64
     0
275
    -2
285
     1
 65
     0
276
    -2
286
     1
 66
     0
277
    -2
287
     1
 67
     0
278
    -2
288
     1
 68
     0
279
    -2
289
     1
 69
     0
  7
Standard
140
6.0
170
     5
 62
     0
 63
     7
283
     0
274
    -2
284
     1
 64
     0
275
    -2
285
     1
 65
     0
276
    -2
286
     1
 66
     0
277
    -2
287
     1
 67
     0
278
    -2
288
     1
 68
     0
279
    -2
289
     1
 69
     0
  7
Standard
140
4.5
170
     5
 62
     0
 63
     7
283
     0
274
    -2
284
     1
 64
     0
275
    -2
285
     1
 65
     0
276
    -2
286
     1
 66
     0
277
    -2
287
     1
 67
     0
278
    -2
288
     1
 68
     0
279
    -2
289
     1
 69
     0
  0
VISUALSTYLE
  5
F5
102
{ACAD_XDICTIONARY
360
729
102
}
102
{ACAD_REACTORS
330
EF
102
}
330
EF
100
AcDbVisualStyle
  2
2dWireframe
 70
     4
 71
     0
 72
     2
 73
     1
 90
        0
 40
-0.6
 41
-30.0
 62
     5
 63
     7
 74
     1
 91
        4
 64
     7
 65
   257
 75
     1
175
     1
 42
1.0
 92
        0
 66
   257
 43
1.0
 76
     1
 77
     6
 78
     2
 67
     7
 79
     5
170
     0
171
     0
290
     0
174
     0
 93
        1
 44
0.0
173
     0
291
     0
 45
0.0
1001
ACAD
1000
AcDbSavedByObjectVersion
1070
     0
  0
VISUALSTYLE
  5
F4
102
{ACAD_XDICTIONARY
360
727
102
}
102
{ACAD_REACTORS
330
EF
102
}
330
EF
100
AcDbVisualStyle
  2
Basic
 70
     7
 71
     1
 72
     0
 73
     1
 90
        0
 40
-0.6
 41
-30.0
 62
     5
 63
     7
 74
     0
 91
        4
 64
     7
 65
   257
 75
     1
175
     1
 42
1.0
 92
        8
 66
     7
 43
1.0
 76
     1
 77
     6
 78
     2
 67
     7
 79
     5
170
     0
171
     0
290
     0
174
     0
 93
        1
 44
0.0
173
     0
291
     1
 45
0.0
1001
ACAD
1000
AcDbSavedByObjectVersion
1070
     0
  0
VISUALSTYLE
  5
FB
102
{ACAD_XDICTIONARY
360
735
102
}
102
{ACAD_REACTORS
330
EF
102
}
330
EF
100
AcDbVisualStyle
  2
Brighten
 70
    12
 71
     2
 72
     2
 73
     1
 90
        0
 40
-0.6
 41
-30.0
 62
     5
 63
     7
 74
     1
 91
        4
 64
     7
 65
   257
 75
     1
175
     1
 42
1.0
 92
        8
 66
     7
 43
1.0
 76
     1
 77
     6
 78
     2
 67
     7
 79
     5
170
     0
171
     0
290
     0
174
     0
 93
        1
 44
50.0
173
     0
291
     1
 45
0.0
1001
ACAD
1000
AcDbSavedByObjectVersion
1070
     0
  0
VISUALSTYLE
  5
FF
102
{ACAD_XDICTIONARY
360
73D
102
}
102
{ACAD_REACTORS
330
EF
102
}
330
EF
100
AcDbVisualStyle
  2
ColorChange
 70
    16
 71
     2
 72
     2
 73
     3
 90
        0
 40
-0.6
 41
-30.0
 62
     5
 63
     8
 74
     1
 91
        4
 64
     7
 65
   257
 75
     1
175
     1
 42
1.0
 92
        8
 66
     8
 43
1.0
 76
     1
 77
     6
 78
     2
 67
     7
 79
     5
170
     0
171
     0
290
     0
174
     0
 93
        1
 44
0.0
173
     0
291
     1
 45
0.0
1001
ACAD
1000
AcDbSavedByObjectVersion
1070
     0
  0
VISUALSTYLE
  5
F8
102
{ACAD_XDICTIONARY
360
72F
102
}
102
{ACAD_REACTORS
330
EF
102
}
330
EF
100
AcDbVisualStyle
  2
Conceptual
 70
     9
 71
     3
 72
     2
 73
     1
 90
        0
 40
-0.6
 41
-30.0
 62
     5
 63
     7
 74
     2
 91
        2
 64
     7
 65
   257
 75
     1
175
     1
 42
40.0
 92
        8
 66
     7
 43
1.0
 76
     1
 77
     6
 78
     2
 67
     7
 79
     3
170
     0
171
     0
290
     0
174
     0
 93
        1
 44
0.0
173
     0
291
     0
 45
0.0
1001
ACAD
1000
AcDbSavedByObjectVersion
1070
     0
  0
VISUALSTYLE
  5
FA
102
{ACAD_XDICTIONARY
360
733
102
}
102
{ACAD_REACTORS
330
EF
102
}
330
EF
100
AcDbVisualStyle
  2
Dim
 70
    11
 71
     2
 72
     2
 73
     1
 90
        0
 40
-0.6
 41
-30.0
 62
     5
 63
     7
 74
     1
 91
        4
 64
     7
 65
   257
 75
     1
175
     1
 42
1.0
 92
        8
 66
     7
 43
1.0
 76
     1
 77
     6
 78
     2
 67
     7
 79
     5
170
     0
171
     0
290
     0
174
     0
 93
        1
 44
-50.0
173
     0
291
     1
 45
0.0
1001
ACAD
1000
AcDbSavedByObjectVersion
1070
     0
  0
VISUALSTYLE
  5
1E6
102
{ACAD_XDICTIONARY
360
743
102
}
102
{ACAD_REACTORS
330
EF
102
}
330
EF
100
AcDbVisualStyle
  2
EdgeColorOff
 70
    22
 71
     2
 72
     2
 73
     0
 90
        0
 40
-0.6
 41
-30.0
 62
     5
 63
     7
 74
     1
 91
        4
 64
     7
 65
   257
 75
     1
175
     1
 42
1.0
 92
        8
 66
     7
 43
1.0
 76
     1
 77
     6
 78
     2
 67
     7
 79
     5
170
     0
171
     0
290
     0
174
     0
 93
        1
 44
0.0
173
     0
291
     1
 45
0.0
1001
ACAD
1000
AcDbSavedByObjectVersion
1070
     0
  0
VISUALSTYLE
  5
FE
102
{ACAD_XDICTIONARY
360
73B
102
}
102
{ACAD_REACTORS
330
EF
102
}
330
EF
100
AcDbVisualStyle
  2
Facepattern
 70
    15
 71
     2
 72
     2
 73
     1
 90
        0
 40
-0.6
 41
-30.0
 62
     5
 63
     7
 74
     1
 91
        4
 64
     7
 65
   257
 75
     1
175
     1
 42
1.0
 92
        8
 66
     7
 43
1.0
 76
     1
 77
     6
 78
     2
 67
     7
 79
     5
170
     0
171
     0
290
     0
174
     0
 93
        1
 44
0.0
173
     0
291
     1
 45
0.0
1001
ACAD
1000
AcDbSavedByObjectVersion
1070
     0
  0
VISUALSTYLE
  5
F0
102
{ACAD_XDICTIONARY
360
71F
102
}
102
{ACAD_REACTORS
330
EF
102
}
330
EF
100
AcDbVisualStyle
  2
Flat
 70
     0
 71
     2
 72
     1
 73
     1
 90
        2
 40
-0.6
 41
30.0
 62
     5
 63
     7
 74
     0
 91
        0
 64
     7
 65
   257
 75
     1
175
     1
 42
1.0
 92
        8
 66
     7
 43
1.0
 76
     1
 77
     6
 78
     2
 67
     7
 79
     5
170
     0
171
     0
290
     0
174
     0
 93
       13
 44
0.0
173
     0
291
     1
 45
0.0
1001
ACAD
1000
AcDbSavedByObjectVersion
1070
     0
  0
VISUALSTYLE
  5
F1
102
{ACAD_XDICTIONARY
360
721
102
}
102
{ACAD_REACTORS
330
EF
102
}
330
EF
100
AcDbVisualStyle
  2
FlatWithEdges
 70
     1
 71
     2
 72
     1
 73
     1
 90
        2
 40
-0.6
 41
30.0
 62
     5
 63
     7
 74
     1
 91
        0
 64
     7
 65
   257
 75
     1
175
     1
 42
1.0
 92
        0
 66
   257
 43
1.0
 76
     1
 77
     6
 78
     2
 67
     7
 79
     5
170
     0
171
     0
290
     0
174
     0
 93
       13
 44
0.0
173
     0
291
     1
 45
0.0
1001
ACAD
1000
AcDbSavedByObjectVersion
1070
     0
  0
VISUALSTYLE
  5
F2
102
{ACAD_XDICTIONARY
360
723
102
}
102
{ACAD_REACTORS
330
EF
102
}
330
EF
100
AcDbVisualStyle
  2
Gouraud
 70
     2
 71
     2
 72
     2
 73
     1
 90
        2
 40
-0.6
 41
30.0
 62
     5
 63
     7
 74
     0
 91
        0
 64
     7
 65
   257
 75
     1
175
     1
 42
1.0
 92
        0
 66
     7
 43
1.0
 76
     1
 77
     6
 78
     2
 67
     7
 79
     5
170
     0
171
     0
290
     0
174
     0
 93
       13
 44
0.0
173
     0
291
     1
 45
0.0
1001
ACAD
1000
AcDbSavedByObjectVersion
1070
     0
  0
VISUALSTYLE
  5
F3
102
{ACAD_XDICTIONARY
360
725
102
}
102
{ACAD_REACTORS
330
EF
102
}
330
EF
100
AcDbVisualStyle
  2
GouraudWithEdges
 70
     3
 71
     2
 72
     2
 73
     1
 90
        2
 40
-0.6
 41
30.0
 62
     5
 63
     7
 74
     1
 91
        0
 64
     7
 65
   257
 75
     1
175
     1
 42
1.0
 92
        0
 66
   257
 43
1.0
 76
     1
 77
     6
 78
     2
 67
     7
 79
     5
170
     0
171
     0
290
     0
174
     0
 93
       13
 44
0.0
173
     0
291
     1
 45
0.0
1001
ACAD
1000
AcDbSavedByObjectVersion
1070
     0
  0
VISUALSTYLE
  5
F7
102
{ACAD_XDICTIONARY
360
72D
102
}
102
{ACAD_REACTORS
330
EF
102
}
330
EF
100
AcDbVisualStyle
  2
Hidden
 70
     6
 71
     1
 72
     2
 73
     2
 90
        0
 40
-0.6
 41
-30.0
 62
     5
 63
     7
 74
     2
 91
        2
 64
     7
 65
   257
 75
     2
175
     1
 42
40.0
 92
        0
 66
   257
 43
1.0
 76
     1
 77
     6
 78
     2
 67
     7
 79
     3
170
     0
171
     0
290
     0
174
     0
 93
        1
 44
0.0
173
     0
291
     0
 45
0.0
1001
ACAD
1000
AcDbSavedByObjectVersion
1070
     0
  0
VISUALSTYLE
  5
1E4
102
{ACAD_XDICTIONARY
360
73F
102
}
102
{ACAD_REACTORS
330
EF
102
}
330
EF
100
AcDbVisualStyle
  2
JitterOff
 70
    20
 71
     2
 72
     2
 73
     0
 90
        0
 40
-0.6
 41
-30.0
 62
     5
 63
     7
 74
     1
 91
        4
 64
     7
 65
   257
 75
     1
175
     1
 42
1.0
 92
       10
 66
     7
 43
1.0
 76
     1
 77
     6
 78
     2
 67
     7
 79
     5
170
     0
171
     0
290
     0
174
     0
 93
        1
 44
0.0
173
     0
291
     1
 45
0.0
1001
ACAD
1000
AcDbSavedByObjectVersion
1070
     0
  0
VISUALSTYLE
  5
FD
102
{ACAD_XDICTIONARY
360
739
102
}
102
{ACAD_REACTORS
330
EF
102
}
330
EF
100
AcDbVisualStyle
  2
Linepattern
 70
    14
 71
     2
 72
     2
 73
     1
 90
        0
 40
-0.6
 41
-30.0
 62
     5
 63
     7
 74
     1
 91
        4
 64
     7
 65
   257
 75
     7
175
     7
 42
1.0
 92
        8
 66
     7
 43
1.0
 76
     1
 77
     6
 78
     2
 67
     7
 79
     5
170
     0
171
     0
290
     0
174
     0
 93
        1
 44
0.0
173
     0
291
     1
 45
0.0
1001
ACAD
1000
AcDbSavedByObjectVersion
1070
     0
  0
VISUALSTYLE
  5
1E5
102
{ACAD_XDICTIONARY
360
741
102
}
102
{ACAD_REACTORS
330
EF
102
}
330
EF
100
AcDbVisualStyle
  2
OverhangOff
 70
    21
 71
     2
 72
     2
 73
     0
 90
        0
 40
-0.6
 41
-30.0
 62
     5
 63
     7
 74
     1
 91
        4
 64
     7
 65
   257
 75
     1
175
     1
 42
1.0
 92
        9
 66
     7
 43
1.0
 76
     1
 77
     6
 78
     2
 67
     7
 79
     5
170
     0
171
     0
290
     0
174
     0
 93
        1
 44
0.0
173
     0
291
     1
 45
0.0
1001
ACAD
1000
AcDbSavedByObjectVersion
1070
     0
  0
VISUALSTYLE
  5
F9
102
{ACAD_XDICTIONARY
360
731
102
}
102
{ACAD_REACTORS
330
EF
102
}
330
EF
100
AcDbVisualStyle
  2
Realistic
 70
     8
 71
     2
 72
     3
 73
     0
 90
        2
 40
-0.6
 41
30.0
 62
     5
 63
     7
 74
     0
 91
        0
 64
     7
 65
   257
 75
     1
175
     1
 42
1.0
 92
        8
 66
   257
 43
1.0
 76
     1
 77
     6
 78
     2
 67
     7
 79
     3
170
     0
171
     0
290
     0
174
     0
 93
       13
 44
0.0
173
     0
291
     0
 45
0.0
1001
ACAD
1000
AcDbSavedByObjectVersion
1070
     0
  0
VISUALSTYLE
  5
1F3
102
{ACAD_XDICTIONARY
360
74D
102
}
102
{ACAD_REACTORS
330
EF
102
}
330
EF
100
AcDbVisualStyle
  2
Shaded
 70
    27
 71
     2
 72
     2
 73
     1
 90
        2
 40
-0.6
 41
30.0
 62
     5
 63
     7
 74
     0
 91
        4
 64
     7
 65
   257
 75
     1
175
     1
 42
1.0
 92
        8
 66
   257
 43
1.0
 76
     1
 77
     6
 78
     2
 67
     8
 79
     3
170
     0
171
     0
290
     0
174
     0
 93
        5
 44
0.0
173
     0
291
     0
 45
0.0
1001
ACAD
1000
AcDbSavedByObjectVersion
1070
     0
  0
VISUALSTYLE
  5
1F2
102
{ACAD_XDICTIONARY
360
74B
102
}
102
{ACAD_REACTORS
330
EF
102
}
330
EF
100
AcDbVisualStyle
  2
Shaded with edges
 70
    26
 71
     2
 72
     2
 73
     1
 90
        2
 40
-0.6
 41
30.0
 62
     5
 63
     7
 74
     1
 91
       10
 64
     7
 65
   257
 75
     2
175
     1
 42
1.0
 92
        8
 66
   257
 43
1.0
 76
     1
 77
     6
 78
     2
 67
     7
 79
     3
170
     0
171
     0
290
     0
174
     0
 93
        5
 44
0.0
173
     0
291
     0
 45
0.0
1001
ACAD
1000
AcDbSavedByObjectVersion
1070
     0
  0
VISUALSTYLE
  5
1EF
102
{ACAD_XDICTIONARY
360
745
102
}
102
{ACAD_REACTORS
330
EF
102
}
330
EF
100
AcDbVisualStyle
  2
Shades of Gray
 70
    23
 71
     2
 72
     2
 73
     3
 90
        0
 40
-0.6
 41
-30.0
 62
     5
 63
     7
 74
     2
 91
        2
 64
     7
 65
     7
 75
     1
175
     1
 42
40.0
 92
        8
 66
     7
 43
1.0
 76
     1
 77
     6
 78
     2
 67
     7
 79
     3
170
     0
171
     0
290
     0
174
     0
 93
        1
 44
0.0
173
     0
291
     0
 45
0.0
1001
ACAD
1000
AcDbSavedByObjectVersion
1070
     0
  0
VISUALSTYLE
  5
1F0
102
{ACAD_XDICTIONARY
360
747
102
}
102
{ACAD_REACTORS
330
EF
102
}
330
EF
100
AcDbVisualStyle
  2
Sketchy
 70
    24
 71
     1
 72
     2
 73
     2
 90
        0
 40
-0.6
 41
-30.0
 62
     5
 63
     7
 74
     2
 91
        2
 64
     7
 65
     7
 75
     1
175
     1
 42
40.0
 92
       11
 66
     7
 43
1.0
 76
     1
 77
     6
 78
     2
 67
     7
 79
     6
170
     0
171
     0
290
     0
174
     0
 93
        1
 44
0.0
173
     0
291
     0
 45
0.0
1001
ACAD
1000
AcDbSavedByObjectVersion
1070
     0
  0
VISUALSTYLE
  5
FC
102
{ACAD_XDICTIONARY
360
737
102
}
102
{ACAD_REACTORS
330
EF
102
}
330
EF
100
AcDbVisualStyle
  2
Thicken
 70
    13
 71
     2
 72
     2
 73
     1
 90
        0
 40
-0.6
 41
-30.0
 62
     5
 63
     7
 74
     1
 91
        4
 64
     7
 65
   257
 75
     1
175
     1
 42
1.0
 92
       12
 66
     7
 43
1.0
 76
     1
 77
     6
 78
     2
 67
     7
 79
     5
170
     0
171
     0
290
     0
174
     0
 93
        1
 44
0.0
173
     0
291
     1
 45
0.0
1001
ACAD
1000
AcDbSavedByObjectVersion
1070
     0
  0
VISUALSTYLE
  5
F6
102
{ACAD_XDICTIONARY
360
72B
102
}
102
{ACAD_REACTORS
330
EF
102
}
330
EF
100
AcDbVisualStyle
  2
Wireframe
 70
     5
 71
     0
 72
     2
 73
     0
 90
        0
 40
-0.6
 41
-30.0
 62
     5
 63
     7
 74
     1
 91
        4
 64
     7
 65
   257
 75
     1
175
     1
 42
1.0
 92
        0
 66
   257
 43
1.0
 76
     1
 77
     6
 78
     2
 67
     7
 79
     3
170
     0
171
     0
290
     0
174
     0
 93
        1
 44
0.0
173
     0
291
     0
 45
0.0
1001
ACAD
1000
AcDbSavedByObjectVersion
1070
     0
  0
VISUALSTYLE
  5
1F1
102
{ACAD_XDICTIONARY
360
749
102
}
102
{ACAD_REACTORS
330
EF
102
}
330
EF
100
AcDbVisualStyle
  2
X-Ray
 70
    25
 71
     2
 72
     2
 73
     1
 90
        1
 40
0.5
 41
-30.0
 62
     5
 63
     7
 74
     1
 91
        0
 64
     7
 65
   257
 75
     1
175
     1
 42
1.0
 92
        8
 66
     7
 43
1.0
 76
     1
 77
     6
 78
     2
 67
     7
 79
     3
170
     0
171
     0
290
     0
174
     0
 93
       13
 44
0.0
173
     0
291
     0
 45
0.0
1001
ACAD
1000
AcDbSavedByObjectVersion
1070
     0
  0
DICTIONARYVAR
  5
146
102
{ACAD_REACTORS
330
5E
102
}
330
5E
100
DictionaryVariables
280
     0
  1
1:2
  0
DICTIONARYVAR
  5
145
102
{ACAD_REACTORS
330
5E
102
}
330
5E
100
DictionaryVariables
280
     0
  1
SPECIALIZED
  0
DICTIONARYVAR
  5
84
102
{ACAD_REACTORS
330
5E
102
}
330
5E
100
DictionaryVariables
280
     0
  1
STANDARD
  0
DICTIONARYVAR
  5
227
102
{ACAD_REACTORS
330
5E
102
}
330
5E
100
DictionaryVariables
280
     0
  1
Metric50
  0
DICTIONARYVAR
  5
228
102
{ACAD_REACTORS
330
5E
102
}
330
5E
100
DictionaryVariables
280
     0
  1
Metric50
  0
DICTIONARYVAR
  5
5F
102
{ACAD_REACTORS
330
5E
102
}
330
5E
100
DictionaryVariables
280
     0
  1
2
  0
DICTIONARYVAR
  5
63
102
{ACAD_REACTORS
330
5E
102
}
330
5E
100
DictionaryVariables
280
     0
  1
1
  0
DICTIONARYVAR
  5
707
102
{ACAD_REACTORS
330
5E
102
}
330
5E
100
DictionaryVariables
280
     0
  1
0
  0
DICTIONARYVAR
  5
1AE
102
{ACAD_REACTORS
330
5E
102
}
330
5E
100
DictionaryVariables
280
     0
  1
0
  0
DICTIONARYVAR
  5
1AF
102
{ACAD_REACTORS
330
5E
102
}
330
5E
100
DictionaryVariables
280
     0
  1
0
  0
DICTIONARYVAR
  5
705
102
{ACAD_REACTORS
330
5E
102
}
330
5E
100
DictionaryVariables
280
     0
  1
2
  0
DICTIONARYVAR
  5
704
102
{ACAD_REACTORS
330
5E
102
}
330
5E
100
DictionaryVariables
280
     0
  1
1
  0
DICTIONARYVAR
  5
709
102
{ACAD_REACTORS
330
5E
102
}
330
5E
100
DictionaryVariables
280
     0
  1
80.000000
  0
DICTIONARYVAR
  5
708
102
{ACAD_REACTORS
330
5E
102
}
330
5E
100
DictionaryVariables
280
     0
  1
5.000000
  0
DICTIONARYVAR
  5
706
102
{ACAD_REACTORS
330
5E
102
}
330
5E
100
DictionaryVariables
280
     0
  1
127
  0
DICTIONARYVAR
  5
70A
102
{ACAD_REACTORS
330
5E
102
}
330
5E
100
DictionaryVariables
280
     0
  1
2
  0
DICTIONARY
  5
715
102
{ACAD_REACTORS
330
713
102
}
330
713
100
AcDbDictionary
281
     1
  0
DICTIONARY
  5
714
102
{ACAD_REACTORS
330
713
102
}
330
713
100
AcDbDictionary
281
     1
  3
8796087826656
350
70E
  3
8796087826672
350
70F
  3
8796087826688
350
710
  3
8796087826704
350
711
  3
8796087826720
350
712
  0
ACDBASSOCNETWORK
  5
44C
102
{ACAD_REACTORS
330
44B
102
}
330
44B
100
AcDbAssocAction
 90
        1
 90
        0
330
353
360
0
 90
        2
 90
        0
 90
        0
100
AcDbAssocNetwork
 90
        0
 90
        1
 90
        1
360
448
 90
        0
  0
DICTIONARY
  5
4DB
330
4A1
100
AcDbDictionary
280
     1
281
     1
  3
ACAD_XREC_ROUNDTRIP
360
754
  0
DICTIONARY
  5
236
330
21C
100
AcDbDictionary
280
     1
281
     1
  3
ACAD_XREC_ROUNDTRIP
360
750
  0
DICTIONARY
  5
718
330
D3
100
AcDbDictionary
280
     1
281
     1
  3
ACAD_XREC_ROUNDTRIP
360
719
  0
DICTIONARY
  5
71A
330
D7
100
AcDbDictionary
280
     1
281
     1
  3
ACAD_XREC_ROUNDTRIP
360
71B
  0
DICTIONARY
  5
205
330
22
100
AcDbDictionary
280
     1
281
     1
  3
ACAD_XREC_ROUNDTRIP
360
716
  0
DICTIONARY
  5
1F9
330
ED
100
AcDbDictionary
280
     1
281
     1
  3
ACAD_XREC_ROUNDTRIP
360
71D
  3
FBXASSET
360
1FA
  0
DICTIONARY
  5
1F7
330
EC
100
AcDbDictionary
280
     1
281
     1
  3
ACAD_XREC_ROUNDTRIP
360
71C
  3
FBXASSET
360
1F8
  0
DICTIONARY
  5
173
330
EE
100
AcDbDictionary
280
     1
281
     1
  3
ACAD_XREC_ROUNDTRIP
360
71E
  3
BUMPTILE
360
175
  3
DIFFUSETILE
360
174
  3
FBXASSET
360
1FB
  3
OPACITYTILE
360
176
  3
REFLECTIONTILE
360
177
  0
DICTIONARY
  5
4D9
330
4A0
100
AcDbDictionary
280
     1
281
     1
  3
ACAD_XREC_ROUNDTRIP
360
753
  0
DICTIONARY
  5
234
330
21A
100
AcDbDictionary
280
     1
281
     1
  3
ACAD_XREC_ROUNDTRIP
360
74F
  0
DICTIONARY
  5
162
330
7F
100
AcDbDictionary
280
     1
281
     1
  3
ACAD_ROUNDTRIP_2008_TABLESTYLE_CELLSTYLEMAP
360
70B
  3
ACAD_XREC_ROUNDTRIP
360
717
  0
DICTIONARY
  5
729
330
F5
100
AcDbDictionary
280
     1
281
     1
  3
ACAD_XREC_ROUNDTRIP
360
72A
  0
DICTIONARY
  5
727
330
F4
100
AcDbDictionary
280
     1
281
     1
  3
ACAD_XREC_ROUNDTRIP
360
728
  0
DICTIONARY
  5
735
330
FB
100
AcDbDictionary
280
     1
281
     1
  3
ACAD_XREC_ROUNDTRIP
360
736
  0
DICTIONARY
  5
73D
330
FF
100
AcDbDictionary
280
     1
281
     1
  3
ACAD_XREC_ROUNDTRIP
360
73E
  0
DICTIONARY
  5
72F
330
F8
100
AcDbDictionary
280
     1
281
     1
  3
ACAD_XREC_ROUNDTRIP
360
730
  0
DICTIONARY
  5
733
330
FA
100
AcDbDictionary
280
     1
281
     1
  3
ACAD_XREC_ROUNDTRIP
360
734
  0
DICTIONARY
  5
743
330
1E6
100
AcDbDictionary
280
     1
281
     1
  3
ACAD_XREC_ROUNDTRIP
360
744
  0
DICTIONARY
  5
73B
330
FE
100
AcDbDictionary
280
     1
281
     1
  3
ACAD_XREC_ROUNDTRIP
360
73C
  0
DICTIONARY
  5
71F
330
F0
100
AcDbDictionary
280
     1
281
     1
  3
ACAD_XREC_ROUNDTRIP
360
720
  0
DICTIONARY
  5
721
330
F1
100
AcDbDictionary
280
     1
281
     1
  3
ACAD_XREC_ROUNDTRIP
360
722
  0
DICTIONARY
  5
723
330
F2
100
AcDbDictionary
280
     1
281
     1
  3
ACAD_XREC_ROUNDTRIP
360
724
  0
DICTIONARY
  5
725
330
F3
100
AcDbDictionary
280
     1
281
     1
  3
ACAD_XREC_ROUNDTRIP
360
726
  0
DICTIONARY
  5
72D
330
F7
100
AcDbDictionary
280
     1
281
     1
  3
ACAD_XREC_ROUNDTRIP
360
72E
  0
DICTIONARY
  5
73F
330
1E4
100
AcDbDictionary
280
     1
281
     1
  3
ACAD_XREC_ROUNDTRIP
360
740
  0
DICTIONARY
  5
739
330
FD
100
AcDbDictionary
280
     1
281
     1
  3
ACAD_XREC_ROUNDTRIP
360
73A
  0
DICTIONARY
  5
741
330
1E5
100
AcDbDictionary
280
     1
281
     1
  3
ACAD_XREC_ROUNDTRIP
360
742
  0
DICTIONARY
  5
731
330
F9
100
AcDbDictionary
280
     1
281
     1
  3
ACAD_XREC_ROUNDTRIP
360
732
  0
DICTIONARY
  5
74D
330
1F3
100
AcDbDictionary
280
     1
281
     1
  3
ACAD_XREC_ROUNDTRIP
360
74E
  0
DICTIONARY
  5
74B
330
1F2
100
AcDbDictionary
280
     1
281
     1
  3
ACAD_XREC_ROUNDTRIP
360
74C
  0
DICTIONARY
  5
745
330
1EF
100
AcDbDictionary
280
     1
281
     1
  3
ACAD_XREC_ROUNDTRIP
360
746
  0
DICTIONARY
  5
747
330
1F0
100
AcDbDictionary
280
     1
281
     1
  3
ACAD_XREC_ROUNDTRIP
360
748
  0
DICTIONARY
  5
737
330
FC
100
AcDbDictionary
280
     1
281
     1
  3
ACAD_XREC_ROUNDTRIP
360
738
  0
DICTIONARY
  5
72B
330
F6
100
AcDbDictionary
280
     1
281
     1
  3
ACAD_XREC_ROUNDTRIP
360
72C
  0
DICTIONARY
  5
749
330
1F1
100
AcDbDictionary
280
     1
281
     1
  3
ACAD_XREC_ROUNDTRIP
360
74A
  0
XRECORD
  5
70E
102
{ACAD_REACTORS
330
714
102
}
330
714
100
AcDbXrecord
280
     1
  1
AcDb_Thumbnail_Schema
102
{ATTRRECORD
341
70F
  2
AcDbDs::TreatedAsObjectData
280
     1
291
     1
102
ATTRRECORD}
102
{ATTRRECORD
341
710
  2
AcDbDs::Legacy
280
     1
291
     1
102
ATTRRECORD}
  2
AcDbDs::ID
280
    10
 91
        8
102
{ATTRRECORD
341
711
  2
AcDs:Indexable
280
     1
291
     1
102
ATTRRECORD}
102
{ATTRRECORD
341
712
  2
AcDbDs::HandleAttribute
280
     7
282
     1
102
ATTRRECORD}
  2
Thumbnail_Data
280
    15
 91
        0
  0
XRECORD
  5
70F
102
{ACAD_REACTORS
330
714
102
}
330
714
100
AcDbXrecord
280
     1
  1
AcDbDs::TreatedAsObjectDataSchema
  2
AcDbDs::TreatedAsObjectData
280
     1
 91
        0
  0
XRECORD
  5
710
102
{ACAD_REACTORS
330
714
102
}
330
714
100
AcDbXrecord
280
     1
  1
AcDbDs::LegacySchema
  2
AcDbDs::Legacy
280
     1
 91
        0
  0
XRECORD
  5
711
102
{ACAD_REACTORS
330
714
102
}
330
714
100
AcDbXrecord
280
     1
  1
AcDbDs::IndexedPropertySchema
  2
AcDs:Indexable
280
     1
 91
        0
  0
XRECORD
  5
712
102
{ACAD_REACTORS
330
714
102
}
330
714
100
AcDbXrecord
280
     1
  1
AcDbDs::HandleAttributeSchema
  2
AcDbDs::HandleAttribute
280
     7
 91
        1
284
     1
  0
ACDBASSOC2DCONSTRAINTGROUP
  5
448
330
44C
100
AcDbAssocAction
 90
        1
 90
        0
330
44C
360
0
 90
        1
 90
      110
 90
        0
 90
        2
 70
     0
 10
116.8321077211294
 20
176.4763126651669
 30
0.0
 10
1.0
 20
0.0
 30
0.0
 10
0.0
 20
1.0
 30
0.0
360
0
 90
        2
360
449
360
44A
 90
      723
 90
       11
  1
AcConstrainedBoundedLine
330
448
 90
        1
 70
     1
 90
        2
 90
        3
 90
        5
330
449
 90
        0
 10
256.309579030526
 20
363.5733081934889
 30
0.0
 10
-1.0
 20
0.0
 30
0.0
290
     0
 10
256.309579030526
 20
363.5733081934889
 30
0.0
 11
-116.8321480554577
 21
363.5733081934889
 31
0.0
  1
AcConstrainedImplicitPoint
330
448
 90
        2
 70
     1
 90
        1
 90
        3
330
0
 90
        0
280
     0
 90
       -1
 90
        1
  1
AcPointCurveConstraint
330
448
 90
        3
 70
     0
 90
        2
 90
        2
 90
        1
 90
        0
290
     1
290
     1
  1
AcConstrainedImplicitPoint
330
448
 90
        4
 70
     1
 90
        2
 90
        5
 90
       11
330
0
 90
        0
280
     1
 90
       -1
 90
        1
  1
AcPointCurveConstraint
330
448
 90
        5
 70
     0
 90
        2
 90
        4
 90
        1
 90
        0
290
     1
290
     1
  1
AcConstrainedBoundedLine
330
448
 90
        6
 70
     1
 90
        2
 90
        8
 90
       10
330
44A
 90
        0
 10
-116.8321480554577
 20
-176.4763074453074
 30
0.0
 10
0.0
 20
1.0
 30
0.0
290
     0
 10
-116.8321480554577
 20
-176.4763074453074
 30
0.0
 11
-116.8321480554577
 21
363.5733081934889
 31
0.0
  1
AcConstrainedImplicitPoint
330
448
 90
        7
 70
     1
 90
        1
 90
        8
330
0
 90
        0
280
     0
 90
       -1
 90
        6
  1
AcPointCurveConstraint
330
448
 90
        8
 70
     0
 90
        2
 90
        7
 90
        6
 90
        0
290
     1
290
     1
  1
AcConstrainedImplicitPoint
330
448
 90
        9
 70
     1
 90
        2
 90
       10
 90
       11
330
0
 90
        0
280
     1
 90
       -1
 90
        6
  1
AcPointCurveConstraint
330
448
 90
       10
 70
     0
 90
        2
 90
        9
 90
        6
 90
        0
290
     1
290
     1
  1
AcPointCoincidenceConstraint
330
448
 90
       11
 70
     0
 90
        2
 90
        4
 90
        9
 90
        0
290
     0
290
     1
  0
XRECORD
  5
754
102
{ACAD_REACTORS
330
4DB
102
}
330
4DB
100
AcDbXrecord
280
     1
102
DISPLAYNAME
  1
Imperial24
102
FLAGS
 90
        0
  0
XRECORD
  5
750
102
{ACAD_REACTORS
330
236
102
}
330
236
100
AcDbXrecord
280
     1
102
DISPLAYNAME
  1
Metric50
102
FLAGS
 90
        0
  0
XRECORD
  5
719
102
{ACAD_REACTORS
330
718
102
}
330
718
100
AcDbXrecord
280
     1
102
SHADEPLOT
 70
     0
102
SHADEPLOTRESLEVEL
 70
     2
102
SHADEPLOTCUSTOMDPI
 70
   300
  0
XRECORD
  5
71B
102
{ACAD_REACTORS
330
71A
102
}
330
71A
100
AcDbXrecord
280
     1
102
SHADEPLOT
 70
     0
102
SHADEPLOTRESLEVEL
 70
     2
102
SHADEPLOTCUSTOMDPI
 70
   300
  0
XRECORD
  5
716
102
{ACAD_REACTORS
330
205
102
}
330
205
100
AcDbXrecord
280
     1
102
SHADEPLOT
 70
     0
102
SHADEPLOTRESLEVEL
 70
     2
102
SHADEPLOTCUSTOMDPI
 70
   300
  0
XRECORD
  5
71D
102
{ACAD_REACTORS
330
1F9
102
}
330
1F9
100
AcDbXrecord
280
     1
102
MATERIAL
148
0.0
149
0.0
149
0.0
 93
        0
 94
       63
282
     0
 72
     1
 77
     1
171
     1
175
     1
179
     1
273
     0
  0
XRECORD
  5
1FA
102
{ACAD_REACTORS
330
1F9
102
}
330
1F9
100
AcDbXrecord
280
     1
 70
     1
 90
429727718
  1
D62C5603-E3A1-4AEA-B7FB-FE5D8D0755AF
310
504B03040A0000080000CC70623B3DEE336E79000000790000001B0000006175746F6465736B2D64657369676E2D7061636B6167652E786D6C3C3F786D6C2076657273696F6E3D22312E302220656E636F64696E673D227574662D3822203F3E3C666F726D6174733E3C666F726D61743E687474703A2F2F736368656D612E
310
6175746F6465736B2E636F6D2F64657369676E2D7061636B6167652F323030393C2F666F726D61743E3C2F666F726D6174733E504B0304140006080800CC70623BD486FD9CA0000000F4000000130000005B436F6E74656E745F54797065735D2E786D6C7D8EC10E82300C865F65E91D8A1E8C310C0EEA1BF002731658846E
310
D98AC1B77784ABF1D8FE5FBFBF75BBCE937A534CCEB38643598122B6FEE978D0B0485F9C41B54DDD7D022595594E1A469170414C76A4D9A4D207E29CF43ECE46F218070CC6BECC4078ACAA135ACF422C856C0E68EA1BF5669944DDD7BCDE7B1F8E415D77AECB980613C2E4AC91FC167A2B244592486606FC29C8FD7F045B9A
310
EF7053A7E60B504B0304140006080800CC70623B853B8169EB0000007C01000008000000636F72652E786D6C8D90416EC3201045AF62CDB6C206821CC7C244919D9CA01740401C94182C03558F5F9C3852BBEB6A467FFE9B197D7EFC9E1EC5975982F5AE035262288C535E5B377690E21535501C055FBC8FBF6C503839990E
310
5619041F179FE64D52DE45E362569DD7661365082642A11EB9E920A89B99642953CC8E702F67A9EE7234257977194EC9EAE275C4EABCCF5EAD5940D4AC6F0E35A568B8F43562CD7046CD199FD07E60174276A7BE677B5EADB0E0D14EEFFB6A31321A0D82627C4084204C3F096B71DD52F6819B16635EADF63F509AF53FA164
310
5DDCD1EDDD17164090FCC8732078B56691CB33A85CD7DCC40F504B0304140006080800CC70623B55019EA25F0000007C00000007000000636E782E786D6C4DCB3B0E80201045D1AD90E915ED2CF8AC45050C11660C8261F98AB1B07AC9C97D42D718D865D3E909258CFD00CCE24AC6E326A164D74DC0B4128928FF32603847
310
2BA13128B1252AC747C6BAB984FC68F0B87FE8960A5C09FE86CFB69FBA01504B0304140006080800CC70623BDBABAAF470010000D40300000C0000006662782F636F72652E786D6CC553D16E823014FD95A6AF4B694182CC941A83FA05FB810A9511A125A5257EFE2E82712ECEB8A7F100CD39F7F69E734AF9FADC366850B6
310
AF8DCE7018308C942E4C59EB2AC3DE1D498AD15A706B8CFB56869196ADCAF00863C12B6B7C374385D14E6907A836A59A41D9F7CA615434B0C8705F7CAA5606D23BA8E84F41278B93AC54100640439DE0BDB320004D43C63716C7C399D30917DCFBBA9CD9BA8469F5B156168B24CED3F7248AC8769F27244EB73B92EED8862C
310
B7F13E0C179B3C8F979C8ECD82BBBABDAA2BAC924E9558448CBD9330242CFA08E3154B5651FCC6D215639C8EE5774DBE2B5F6CF2B5768B68963BB5F5588420E442FC700B1139D4CB01F450C1E918227C2E09DF070D8140C84E1E9AAB8F1340832A9CB13130A5F1376A908D57309505ECF2A0DF179C4E9D30F5B239B87E3823
310
7A79C6F31DE1A8A5AEC08474B03C7837EAE4938639B44E5932B833D2C6B6B279CDC613877FA26EE21F4A2A4C63EC7F29A2F301D1F9F7A0E37D145F504B0304140006080800CC70623B9C113CC27E0000009D0000000B0000006662782F636E782E786D6C4DCCDF0A83201C86E15B91DFB94BFB330DD428C8FB886521330DA7
310
6397BF1A1DECE883878F57749FCDA1B7892F1BBC047A23808C7F84D9FA55424E0BE6803A256208E9EF06C84F9B91703228B1C690F78B66B34CD9A5439DF5CF0BFBF65E35BCA1B8D6A5C6F540381E886698B5741C695F9503EBA150A2F8958E3DC3EA0B504B0304140006080800CC70623B7DF2F77C2A010000120200003100
310
00006662782F41393633353835312D344632462D344230382D423046372D3739314545314133324237412F636F72652E786D6C8D51DB8EC22014FC15C2939B0D2DB4B45643319AE817EC0F6041255A68B86CFCFC856D4D76DF7CE190393373060EDB3DC707F856CE6B6B7A480A0C81328395DA5C7B18C3057510EC3873D686
310
3F34088C18550F330C39BB3A1BA7051AAC09CA84841A2BD5020AEF55806078A44B0FFD7053A328440C89E1EFC52486BBB8AA8214A99D789CF9E05200300FC927E4FB4D5B375D43103D5527440FB843077C5AA3F5861C8F645F5787F59E95B390B318B55CE45AA638FAA2957BD7248B390B7A7CC51F9C124149C82B8C378810
310
84AB2F42B7B8DD56F413775B8C5999E9FF4471926F8AA236A1AE96B8B3CC434E5839373893369E1FAF30EA395917409EB7F26AF8801C171837A4A6AC9C89E9F9C9B1A58BA30FD6A5EF5DDDCF894B9AD9B6A59C957943A9FCAE2FD5BC4DFE03504B0304140006080800CC70623BAD7543B64E01000033030000300000006662
310
782F41393633353835312D344632462D344230382D423046372D3739314545314133324237412F636E782E786D6CD593CD6EC32010845F0571AD6CE3D48AD20813A9873E410FBD12D82434182C7EAAE6EDBB2424CD25871E7B41D6EC30B3FA84F9E67BB2E40B4234DE8DB46F1925E094D7C6ED479AD3AE5951B2113C789FEE
310
6C943839C1488B4C05DF079FE72A69D8C96C13AAD6B8631503449F83828872B949AC57D26200B826A308D316B4064D6E46FCDA41C05550DC9E483A00797BFD207EFB092A45DE9514C1BBD22178396BD39D891265658C238DEA00936C654E5E433CB65A26D9F6EDB5EBC14EBF49A45CB856E66048291F6939A9A81BB5C89177
310
38143CA680F4AA299D66A042CEB3354A2684DC9D8D178FE0D9B8B41CAAD720F880EE7EF93C0C18769E099ECC04D5A102C8049A8A05632F4DDF376CF1DE0F6BB65C2F8627B65A33C6BB62177CEBBDAD973006829F89F22E814B54F4BC2BE347F8AA8F681390B50FA73F804400B5F542E796F19FF974E7F78DB802FE05E20750
310
4B0304140006080800CC70623BE75B7789680500003C100000340000006662782F41393633353835312D344632462D344230382D423046372D3739314545314133324237412F6F626A656374732E786D6CAD575B8F9B3818FD2B887D06C22499CB8AA1CA655245D5B455A356FB305264C061D8018C6C3393D95FBFC7600890
310
A4CD5EF210B0B1BFEBF98E3F7B1FF6596ABC522E1296DF9BAE3D320D9A872C4AF2F8DE2CE5CEBA358D0FBEC719939D65A691938CDE9B6ADAF4BD98B3B2D05311DD91329583D9D5FC0F438434A7A611A644887B5384CF34233629258BA878B12322891DEFF6B66BD70BFB62634E8AE781D082709A4B588AF91C528CDA28B73F
310
1C998EEF39EABBEFA97FBD6A7C7E9553F9D3D79FE442923C3C523610337627CB87ABE99D359D4CC6D6E4FACAB5E6ABF9D2726FC6A3C5F56271377BB88362213924694B38DD99FE47C48627A1E7D49F5A8BB5E1A74C0A599ED3B0F21F1E56366B89112D681E218F0915D0D6F17AD41FBA2A369DCF6335D62ABBD39779D5DDD1
310
11D4D8DE3CBB96B2E04FB8202E41051754A1AA8E8F76B4C6DFE810B580B1547F4B84911149794252234D024EF8BBE963A95AE27B3D310A9D5C215C7960FAEE415ED75694C6AFB17BCACA5D99A60A9AA65F217B0BFC53292ACB92BF283FAD0D3621576592CB5BED907C2FA8E9DF794E35E97BEA31BED21FEB401ABB94C44839
310
DCACBF0E1C5DA8DA5B2F4DFFD32AD86F543D9E565E7056502E157C00AD2671CD534549AB752FCA9CDA00677A313F04E51B22FF19E57B300579E3C97EB29F682D92935CEC18CF901B7B54FD8C51F362B56FC72FE0B3C1EAE335EDCCBF5AEC39ADB17DC238973F804BA5E6F6BFE7AF1FB32E523BE9F3BD571418E3631DCA4D48
310
5250CF639223210A9446CA30052EDF057BD35F8329C1ECD84552BF0DC8D18BE7BCE23BFE6BD960AB4A7DE79923A103BEBD80F911CBAA2C60DB19B01CF164A5583B772EE6D3FFA56666CBCDA74DC97724A48F9A58967497E489C4D979006FD7A05E227A1EBDD0F737C623387A9C844D3709995625106D157315F8B8392CD4E0
310
A0B9A720C4BE9829CEF37EA1E13111214D53925356365ADA634861B52519DD27A00AEB808EAF0628E6F435519D446F45CF2C9CF5214F0A15B2F6D06B79DA3EE3CBF7F56780D2F4E7EF73A0F5E5B02A38D07DC852C6B7C1FBB6664213E0C39E3EBA7FF4E1AD23EA2829407C85E586727488B751B2DB9502BC7B228A3FD68B6E
310
A65A22397E690AA8D158D7E404EC8CDA235CC3B7D1898680131CEC2CDF2638C65196279577750F15884AEE19F94199155B92B13297978469D4F8D358DF0AEF7631E28DC8F0D9F437D5D39A83B2231A1D52D543813A824EF8D44BCFF2FA6A31BD1E8DAD87F1CCB526B3879935BF59CDADD5C37479BB1CDD4CA7B3556B516589
310
EF352754B706114D9C885EC9131DE6EFEB43D99AFE2391C2F958179413D7CFEF6B1B6DB1E7600F00DE6E5C67454A339A4BA2E0FBA85ED26F045D454F463DBFCE484C2F90F2E5E3666003662ED8F755951A7D1BECD5B30B550B2785C8E7320B7292A4838DDA71BBC863ED7613CAF659337A3354231D4FF4A182A54904C2898C
310
98B28C4AD0CE056CCF332A80986E571EE9DBC305BB5FEB7E509220A58D25CF042D712A806AC0AD0C657FDEF80D2D9CEAA2EE4D1C76F60BFE74219A06527D6F82DF6412526107381E55E353090704D085B52408A8913C4ED159D79BDA71BB4BC506F4831350EB6F975CD22D69BF7AC49B91A2C0A9DDA3D5CA36AD20FC478E37
310
E61844E2352865EBCB61A275A65283CAAA9DD27703B4102F5AF51EF5F573B75CBB5AD38BC845F7A49F82A0966A49C2E3EA5EA0ECD326CD965F1DB402C6FA8B51A4658C5C5E2EC9E214602E55810345408596591009A82E7E7FFACA19EEA299B14A0081A705CB3296EBC14CDF658DCD336EA6D1136881AAEB87B81AB9EE53D5
310
F5EB8BC8362082DA24122F98680A4E7930C01A0079749CEA14382A0783E5EBA5A10F8C098456A03D6A4AEB6BB881E2513747552A5DB22C7EDAF83BD5528081A365F7FF06504B0304140006080000CC70623B000000000000000000000000350000006662782F41393633353835312D344632462D344230382D423046372D37
310
39314545314133324237412F76657274696365732E62696E504B0304140006080800CC70623BF270F1330600000004000000360000006662782F41393633353835312D344632462D344230382D423046372D3739314545314133324237412F747269616E676C65732E62696E636660600000504B0304140006080000CC7062
310
3B000000000000000000000000370000006662782F41393633353835312D344632462D344230382D423046372D3739314545314133324237412F617474726962757465732E62696E504B0304140006080800CC70623B08DA0BD19000000041010000360000006662782F41393633353835312D344632462D344230382D4230
310
46372D3739314545314133324237412F6469726563746F72792E786D6C858F410AC3201045AF22B36F53E9A60B35CBEEBAE80D244E44489C6234F4F835464A48035D0DF398FF9F8AF63D0E6CC63039F212F8F9020C7D47C6792B21C5FE7403D62A1188E2E60C98D7234A5830286103A55745067B9D86B8A3CF9C7F90C11DE6
310
07FB144396D7B6A82D282E9A152AD114D5EF2CB866EEE831B8EEA07A7BB5A8D7D61A2BAAEB7FD5F70921FF497D00504B0304140006080800CC70623BEDD1DC58FD000000A00100003B0000006662782F41393633353835312D344632462D344230382D423046372D3739314545314133324237412F7265736F75726365732F
310
636F72652E786D6C8D504B6E833010BD0A9A6D65B00922041947112427E8052C33A156828DFCA97AFC9A40A576D7CDCCE87D344F8F9FBFE667F689CE6B6B3A6039850C8DB2A336530731DC4903D95970676DF82583CCC8193B5861107C72362E3BA4AC096842428D1D7107A5F7182053CF7474E0D507CE32973124857FE48B
310
540F3961CEF244279DE03EB81420DB9EAC1384436FA353E879B1B182C7A8C75DA3C7F453DF353A1075D537A7BA6464B8F535A99AE14A9A2BBD90E350DD183B5CFABE3AF262350B1EF4FC9351399401471025A527C218A1E53BAB5A5AB765F5469B96525EACF23FA6B88CFF34456DC2A1DCE36E360F82A5202F42F062ED2BAD
310
579969AFDD8A6F504B010214000A0000080000CC70623B3DEE336E79000000790000001B00000000000000000000000000000000006175746F6465736B2D64657369676E2D7061636B6167652E786D6C504B01021400140006080800CC70623BD486FD9CA0000000F40000001300000000000000000000000000B20000005B
310
436F6E74656E745F54797065735D2E786D6C504B01021400140006080800CC70623B853B8169EB0000007C010000080000000000000000000000000083010000636F72652E786D6C504B01021400140006080800CC70623B55019EA25F0000007C000000070000000000000000000000000094020000636E782E786D6C504B
310
01021400140006080800CC70623BDBABAAF470010000D40300000C00000000000000000000000000180300006662782F636F72652E786D6C504B01021400140006080800CC70623B9C113CC27E0000009D0000000B00000000000000000000000000B20400006662782F636E782E786D6C504B01021400140006080800CC70
310
623B7DF2F77C2A010000120200003100000000000000000000000000590500006662782F41393633353835312D344632462D344230382D423046372D3739314545314133324237412F636F72652E786D6C504B01021400140006080800CC70623BAD7543B64E010000330300003000000000000000000000000000D2060000
310
6662782F41393633353835312D344632462D344230382D423046372D3739314545314133324237412F636E782E786D6C504B01021400140006080800CC70623BE75B7789680500003C10000034000000000000000000000000006E0800006662782F41393633353835312D344632462D344230382D423046372D3739314545
310
314133324237412F6F626A656374732E786D6C504B01021400140006080000CC70623B0000000000000000000000003500000000000000000000000000280E00006662782F41393633353835312D344632462D344230382D423046372D3739314545314133324237412F76657274696365732E62696E504B01021400140006
310
080800CC70623BF270F133060000000400000036000000000000000000000000007B0E00006662782F41393633353835312D344632462D344230382D423046372D3739314545314133324237412F747269616E676C65732E62696E504B01021400140006080000CC70623B0000000000000000000000003700000000000000
310
000000000000D50E00006662782F41393633353835312D344632462D344230382D423046372D3739314545314133324237412F617474726962757465732E62696E504B01021400140006080800CC70623B08DA0BD1900000004101000036000000000000000000000000002A0F00006662782F41393633353835312D344632
310
462D344230382D423046372D3739314545314133324237412F6469726563746F72792E786D6C504B01021400140006080800CC70623BEDD1DC58FD000000A00100003B000000000000000000000000000E1000006662782F41393633353835312D344632462D344230382D423046372D3739314545314133324237412F7265
310
736F75726365732F636F72652E786D6C504B0506000000000E000E0080040000641100000000
  0
XRECORD
  5
71C
102
{ACAD_REACTORS
330
1F7
102
}
330
1F7
100
AcDbXrecord
280
     1
102
MATERIAL
148
0.0
149
0.0
149
0.0
 93
        0
 94
       63
282
     0
 72
     1
 77
     1
171
     1
175
     1
179
     1
273
     0
  0
XRECORD
  5
1F8
102
{ACAD_REACTORS
330
1F7
102
}
330
1F7
100
AcDbXrecord
280
     1
 70
     1
 90
429727718
  1
30362254-06B7-45E0-A893-8CFA70E3D6BC
310
504B03040A0000080000CC70623B3DEE336E79000000790000001B0000006175746F6465736B2D64657369676E2D7061636B6167652E786D6C3C3F786D6C2076657273696F6E3D22312E302220656E636F64696E673D227574662D3822203F3E3C666F726D6174733E3C666F726D61743E687474703A2F2F736368656D612E
310
6175746F6465736B2E636F6D2F64657369676E2D7061636B6167652F323030393C2F666F726D61743E3C2F666F726D6174733E504B0304140006080800CC70623BD486FD9CA0000000F4000000130000005B436F6E74656E745F54797065735D2E786D6C7D8EC10E82300C865F65E91D8A1E8C310C0EEA1BF002731658846E
310
D98AC1B77784ABF1D8FE5FBFBF75BBCE937A534CCEB38643598122B6FEE978D0B0485F9C41B54DDD7D022595594E1A469170414C76A4D9A4D207E29CF43ECE46F218070CC6BECC4078ACAA135ACF422C856C0E68EA1BF5669944DDD7BCDE7B1F8E415D77AECB980613C2E4AC91FC167A2B244592486606FC29C8FD7F045B9A
310
EF7053A7E60B504B0304140006080800CC70623B1EC5D7A3EB0000007C01000008000000636F72652E786D6C8D90416EC3201045AF82665B6103C6756C6122AB4D4ED00B204C5C94182C03558F5F9C3852BBEB6A467FFE9B197D71FC9E6FE8CBACC17AD7032D0820E3B41FAD9B7A48F1820F808E52ACDEC75F36404ECDA687
310
4D0629A6D5A76597B477D1B89855E747B38B2A041301E95B6E7A08FAD3CCAA50296647B8168BD2573599823EBB0CA76447F43862C7BCCF5EAC59410E4DDD9C7973C2755553CCCFA4C603E3040F1565ED3B1FDE4E432BCA0D9622DAF9795FAF464533826484B498524CD807E51D79ED187F21878E10516EF63F505AC67F42C9
310
BA58B1FDDD071640D2FCC87D2045B96591CB3DA85CB7DCE40F504B0304140006080800CC70623B55019EA25F0000007C00000007000000636E782E786D6C4DCB3B0E80201045D1AD90E915ED2CF8AC45050C11660C8261F98AB1B07AC9C97D42D718D865D3E909258CFD00CCE24AC6E326A164D74DC0B4128928FF32603847
310
2BA13128B1252AC747C6BAB984FC68F0B87FE8960A5C09FE86CFB69FBA01504B0304140006080800CC70623B8C9102E971010000D40300000C0000006662782F636F72652E786D6CC5535B6E833010BC8AE5DF0A6C08340F1947A84D4ED00B38C6A128602363A31CBFCB234A53A551FA553EC09AD9F5CE8C31DB9E9B1AF5CA
310
7695D1198E428A91D2D214952E33ECDD315861B4E5CC1AE3BE9561A445A3323CC098B3D21ADFCE9034DA29ED00D5A6503328BA4E398C640D8B0C77F253352214DE4145770A5B214FA2546114020D759C75CE8200340D19DE981F0F6746269C33EFAB6266AB02A655C74A59CCF365BADC27CB5D902ED22848F6340DF238A141
310
BE88E2F57B92BFEDF23523433367AE6A2EEAA455C2A902F398D2751045018D3FA264435F3771F242571B4A1919CA6F9A7C5B3CD9E42BED16F12C776AEB308F40C848FC700B1139D4891EF410CEC810227CC6846F8386402064270EF5C5C709A05E49676C024C61FC95EA45ED154CA5211D1FF4FB8291A913A68E9B83EBBB33
310
E2A7673CDE118E5AE8124C0807CB8377834E366998436B950D7A7746DAD846D4CFD978E0F04FD455FC5D49D2D4C6FE9722321F10997F0F32DC47FE05504B0304140006080800CC70623BFFEA85907E0000009D0000000B0000006662782F636E782E786D6C4DCCD10A83201886E15B91FFDC95D95A811AB6F23E625948A6C3
310
E9D8E5AF46073BFAE0E1E365ED67B3E8ADC3CB78C7815C7240DA3DFC64DCC221C519D7805AC182F7F1EF06C88D9BE6703008B6049F9E274D7A1E938DBB5AE3D6131B2589BA0D3D965551E0B2EA732C9B9A624AAEB41E3A557677029960D9AFB4EF11165F504B0304140006080800CC70623B4FEEA4082C0100001202000031
310
0000006662782F39464131463745442D413632322D343644302D413938332D3331353338454246344243312F636F72652E786D6C8D515B6EC32010BC0AE2AB55850DD871ED0813254D72825EC00192A2C460F1A872FC42ED48ED5F7E00CDCECCCEB26C731F6FE05B39AFADE921293004CA082BB5B9F43086336A21D870E6AC
310
0D7F68109861543DCC30E4ECE26C9C164858139409093556AA051CBC570102714B8F1E7AF1A5C6A11862480C7F2DA6415C878B2A4891CA89C7990F2E050073937C42DE1DB7E4F87ED8A36D4329AA9B3D46DBAEAD504556557BD81DEBDD0761E52CE42C462D17B996298E3E6BE59E35C962CE821E1FF18553435012728A7187
310
0841987E927A8D9B35ADDF70BBC6989599FE4F1427F9A4286A132ABAC49D651EF234CD5CE04CDA78BA3DC2A8FB645D00B9DF8B57E215725C60BCA2A463E54C4CE327C7A65E1C7DB02E7DEFCBF594B864C5CA6CDBD49C957943E9FA5D5FBAF336F90F504B0304140006080800CC70623BAD7543B64E01000033030000300000
310
006662782F39464131463745442D413632322D343644302D413938332D3331353338454246344243312F636E782E786D6CD593CD6EC32010845F0571AD6CE3D48AD20813A9873E410FBD12D82434182C7EAAE6EDBB2424CD25871E7B41D6EC30B3FA84F9E67BB2E40B4234DE8DB46F1925E094D7C6ED479AD3AE5951B2113C
310
789FEE6C943839C1488B4C05DF079FE72A69D8C96C13AAD6B8631503449F83828872B949AC57D26200B826A308D316B4064D6E46FCDA41C05550DC9E483A00797BFD207EFB092A45DE9514C1BBD22178396BD39D891265658C238DEA00936C654E5E433CB65A26D9F6EDB5EBC14EBF49A45CB856E66048291F6939A9A81BB5
310
C8917738143CA680F4AA299D66A042CEB3354A2684DC9D8D178FE0D9B8B41CAAD720F880EE7EF93C0C18769E099ECC04D5A102C8049A8A05632F4DDF376CF1DE0F6BB65C2F8627B65A33C6BB62177CEBBDAD973006829F89F22E814B54F4BC2BE347F8AA8F681390B50FA73F804400B5F542E796F19FF974E7F78DB802FE05
310
E207504B0304140006080800CC70623B16AB87BA640500003C100000340000006662782F39464131463745442D413632322D343644302D413938332D3331353338454246344243312F6F626A656374732E786D6CAD575B6FA33818FD2B887DE6924B3BED8A326A92B68A663B534DD4D13E548A0C38942D60649B369D5FBFC7
310
600890A493BDE42160637FD7F31D7FF63E6FB3D478A55C242CBF3247B66B1A340F5994E4F19559CA8D75611A9F7D8F33263BCB4C232719BD32D5B4E97B316765A1A722BA21652A07B3B7B33F0D11D29C9A46981221AE4C113ED38CD8A4942CA2E2C58E882476BCD9DA23BB5ED8171B73523C0F841684D35CC252CCE79062D4
310
468DFA43D7747CCF51DF7D4FFDEB5593E3AB9CCA9FBEFE241792E4E19EB28198C968BAB8199F5D5A67D3E9C49A9E8F47D6EC76B6B0469F26EEFC7C3EBFBCBEB98462213924694B38DD98FE1D62C393D073EA4FADC5DAF04326852CCF6958F90F0F2B9BB5C48816348F90C7840A68EB78EDF68723159BCEE7891A6B95DDE9D3
310
BCEAEEE8086A6C6F9E5D4B59F0175C10A7A0820BAA5055C7473B5AE3CFDD452D602CD5DF12616444529E90D448938013FE6EFA58AA96F85E4F8C42275708571E98FE6827AF6B2B4AE3D7D83D64E5A64C53054DD3AF90BD06FEA9149565C94FCA0F6B834DC85599E4F2423B24DF0B6AFA979E534DFA9E7A4CC6FA631D486393
310
921829879BF5D781A373557BCB85E97FB90DB62B558F8795179C15944B051F40AB495CF35451D26A4727654E6D8033BD98EF82F21D91FF8AF2DD9982BCF1643BDD4EB516C9492E368C67C88DED563FC36D5EACF66DFF057C3658BDBFA69DF9578B3DA735B64F18C7F20770A9D45CFCF7FCF563D6456A277DBEF78A02637CA2
310
43B90A490AEAB94F72244481D24819A6C0E59B606BFA4B3025981DBB48EAB701D97BF19C577CC77F2D1B6C55A9EF3C732474C0B727303F625995056C3B02963D9EAC146BE78EC5FCEC7FA999EBC5EACBAAE41B12D27B4D2C0BBA49F244E2ECDC81B76B502F113D8F5EE8FB1BE3111CDD4FC2AA9B844CAB1288B68AB90A7CDC
310
1C166AB0D3DC5310625FCC14E779BFD0709F8890A629C9292B1B2DED31A4B0DA928CEE135085754027E3018A397D4D5427D15BD1330B677DC8934285AC3DF45A9EB68FF8F2B8FC0A509AFEECFD0FF2DE25CC6047F7214B195F07EFEB9A094D800F7BFAE8FED187B78EA8A3A400F115961BCAD1215E47C966530AF0EE8128FE
310
58CEBB996A8964FFA529A046635D9353B0336A8F700DDF46271A024E70B0B37C9DE01847591E54DED53D54202AB947E4076556AC49C6CA5C9E1226B7F1A7B1BE15DEED62C41B91E1B3E9AFAAA735036547343A925075041DF0A9979E893B391F8FCFA6967B3EFB644DCF6E5CEBFAE272625DCC6FAF3FB93793C5F90CE1EF57
310
407342756B10D1C489E8953CD1617E5CEECAD6F4EF8914CE5D5D504E5C3F1F9736DA62CFC11E00BCDDB8CC8A9466349744C1F75EBDA4DF09BA8A9E8C7A7E9991989E20E5DBDD6A6003664ED8F7A04A8DBE0DF6EAD9B9AA858342E47399053949D2C146EDB85DE4B176BB0965FBAC19BD19AA918E27FA50C1D22402E144464C
310
59462568E704B6E71915404CB72B8FF4EDE184DDAF753F284990D2C6926782963815403548A70C657FDEF80D2D9CEAA2AE4C1C76F60BFE74219A06527D6582DF6412526107381E55E353090704D085B52408D0933C4ED159D79BDA71BB4BC506F4831350EB6F979CD22D69BF7AC49B91A2C0A9DDA3D5CA36AD20FC478E37E6
310
1844E2352865EBCB6EA275A652E3836BE04EFB400BF1A2556F515F1FBB35B2AB35BD889C744FFA1004B5544B121E57F70215746DD2F5E2C1412B602CBF19455AC6C8E5E9922C4E01E65215385004546899059180EAFCF7A707CE7017CD8CDB0410789AB32C63B91E5CEBBBACB17AC6CD347A022D5075FD106377347AAABA7E
310
7D11590744509B44E205134DC1290F06580320F78E537D3D73540E06CB970B431F185308AD40BBD794D6D77003C5A36E8EAA54BA64597CD8F83BD552A080A365F7FF06504B0304140006080000CC70623B000000000000000000000000350000006662782F39464131463745442D413632322D343644302D413938332D3331
310
353338454246344243312F76657274696365732E62696E504B0304140006080800CC70623BF270F1330600000004000000360000006662782F39464131463745442D413632322D343644302D413938332D3331353338454246344243312F747269616E676C65732E62696E636660600000504B0304140006080000CC70623B
310
000000000000000000000000370000006662782F39464131463745442D413632322D343644302D413938332D3331353338454246344243312F617474726962757465732E62696E504B0304140006080800CC70623B08DA0BD19000000041010000360000006662782F39464131463745442D413632322D343644302D413938
310
332D3331353338454246344243312F6469726563746F72792E786D6C858F410AC3201045AF22B36F53E9A60B35CBEEBAE80D244E44489C6234F4F835464A48035D0DF398FF9F8AF63D0E6CC63039F212F8F9020C7D47C6792B21C5FE7403D62A1188E2E60C98D7234A5830286103A55745067B9D86B8A3CF9C7F90C11DE607
310
FB144396D7B6A82D282E9A152AD114D5EF2CB866EEE831B8EEA07A7BB5A8D7D61A2BAAEB7FD5F70921FF497D00504B0304140006080800CC70623B0D6EF93BFE000000A00100003B0000006662782F39464131463745442D413632322D343644302D413938332D3331353338454246344243312F7265736F75726365732F63
310
6F72652E786D6C8D50596E833010BD0A9ADFCA60B334011947A8694ED00B586642AC041B79A97AFC9A40A5F6AF3F33A3B7689E1E3F7DCD8FEC139DD7D6F4C0720A191A65476DA61E62B892236427C19DB5E1970C322367EC618541F0C9D9B8EC90B226A009093576C41D94DE63804C3DD2D18357379C652E63480A7FCF17A9
310
EE72C29CE5894E3AC17D702940B63D59270887DE46A7D0F36263058F518FBB468FE9A7BE6A7420864373B8D4873369AA8691FA421B3294352543C5CAF65C0F6FEF43CB8BD52C78D0F34F46E550061C419494B6843142CB0F5677F4B52BEB177AEC28E5C52AFF638ACBF84F53D42654E51E77B379102C05791282176B5F693D
310
CB4C7BED567C03504B010214000A0000080000CC70623B3DEE336E79000000790000001B00000000000000000000000000000000006175746F6465736B2D64657369676E2D7061636B6167652E786D6C504B01021400140006080800CC70623BD486FD9CA0000000F40000001300000000000000000000000000B20000005B
310
436F6E74656E745F54797065735D2E786D6C504B01021400140006080800CC70623B1EC5D7A3EB0000007C010000080000000000000000000000000083010000636F72652E786D6C504B01021400140006080800CC70623B55019EA25F0000007C000000070000000000000000000000000094020000636E782E786D6C504B
310
01021400140006080800CC70623B8C9102E971010000D40300000C00000000000000000000000000180300006662782F636F72652E786D6C504B01021400140006080800CC70623BFFEA85907E0000009D0000000B00000000000000000000000000B30400006662782F636E782E786D6C504B01021400140006080800CC70
310
623B4FEEA4082C0100001202000031000000000000000000000000005A0500006662782F39464131463745442D413632322D343644302D413938332D3331353338454246344243312F636F72652E786D6C504B01021400140006080800CC70623BAD7543B64E010000330300003000000000000000000000000000D5060000
310
6662782F39464131463745442D413632322D343644302D413938332D3331353338454246344243312F636E782E786D6C504B01021400140006080800CC70623B16AB87BA640500003C1000003400000000000000000000000000710800006662782F39464131463745442D413632322D343644302D413938332D3331353338
310
454246344243312F6F626A656374732E786D6C504B01021400140006080000CC70623B0000000000000000000000003500000000000000000000000000270E00006662782F39464131463745442D413632322D343644302D413938332D3331353338454246344243312F76657274696365732E62696E504B01021400140006
310
080800CC70623BF270F133060000000400000036000000000000000000000000007A0E00006662782F39464131463745442D413632322D343644302D413938332D3331353338454246344243312F747269616E676C65732E62696E504B01021400140006080000CC70623B0000000000000000000000003700000000000000
310
000000000000D40E00006662782F39464131463745442D413632322D343644302D413938332D3331353338454246344243312F617474726962757465732E62696E504B01021400140006080800CC70623B08DA0BD190000000410100003600000000000000000000000000290F00006662782F39464131463745442D413632
310
322D343644302D413938332D3331353338454246344243312F6469726563746F72792E786D6C504B01021400140006080800CC70623B0D6EF93BFE000000A00100003B000000000000000000000000000D1000006662782F39464131463745442D413632322D343644302D413938332D3331353338454246344243312F7265
310
736F75726365732F636F72652E786D6C504B0506000000000E000E0080040000641100000000
  0
XRECORD
  5
71E
102
{ACAD_REACTORS
330
173
102
}
330
173
100
AcDbXrecord
280
     1
102
MATERIAL
148
0.0
149
0.0
149
0.0
 93
        0
 94
       63
282
     0
 72
     1
 77
     1
171
     1
175
     1
179
     1
273
     0
  0
XRECORD
  5
175
102
{ACAD_REACTORS
330
173
102
}
330
173
100
AcDbXrecord
280
     1
270
     1
271
     1
  0
XRECORD
  5
174
102
{ACAD_REACTORS
330
173
102
}
330
173
100
AcDbXrecord
280
     1
270
     1
271
     1
  0
XRECORD
  5
1FB
102
{ACAD_REACTORS
330
173
102
}
330
173
100
AcDbXrecord
280
     1
 70
     0
 90
1673772943
  1
ECE7A1D2-D628-4531-984C-D00F80459256
310
504B03040A0000080000CC70623B3DEE336E79000000790000001B0000006175746F6465736B2D64657369676E2D7061636B6167652E786D6C3C3F786D6C2076657273696F6E3D22312E302220656E636F64696E673D227574662D3822203F3E3C666F726D6174733E3C666F726D61743E687474703A2F2F736368656D612E
310
6175746F6465736B2E636F6D2F64657369676E2D7061636B6167652F323030393C2F666F726D61743E3C2F666F726D6174733E504B0304140006080800CC70623BD486FD9CA0000000F4000000130000005B436F6E74656E745F54797065735D2E786D6C7D8EC10E82300C865F65E91D8A1E8C310C0EEA1BF002731658846E
310
D98AC1B77784ABF1D8FE5FBFBF75BBCE937A534CCEB38643598122B6FEE978D0B0485F9C41B54DDD7D022595594E1A469170414C76A4D9A4D207E29CF43ECE46F218070CC6BECC4078ACAA135ACF422C856C0E68EA1BF5669944DDD7BCDE7B1F8E415D77AECB980613C2E4AC91FC167A2B244592486606FC29C8FD7F045B9A
310
EF7053A7E60B504B0304140006080800CC70623BD9DDAED0EC0000007C01000008000000636F72652E786D6C8D90416EC3201045AF82665B61836D9CD8C2444DD39CA01740405C94182C03558F5F9C3852BBEB6A467FFE9B197D7EF89E6EE8CB2CC17A37002D0820E394D7D68D03A478C17B4007C117EFE32F1B20272733C0
310
2A83E0E3E2D3BC49CABB685CCCAAF3DA6CA20CC14440EA969B0182FA34932C648AD911AEC52CD5558EA6A0CF2EC329598D1E47ACCEFBECC59A050463A7EA5833865FEBDD0E37353BE3EE8DBDE3F6786A48D375FBF6CC78B9C282473B3DEFABC5C86834888A900E538A49F5419B9EB47DD5BC907D4F082F57FB1F28CDFA9F50
310
B22ED6D5F6EE030B20687EE43E10BC5CB3C8E51E54AE6B6EE207504B0304140006080800CC70623B55019EA25F0000007C00000007000000636E782E786D6C4DCB3B0E80201045D1AD90E915ED2CF8AC45050C11660C8261F98AB1B07AC9C97D42D718D865D3E909258CFD00CCE24AC6E326A164D74DC0B4128928FF326038
310
472BA13128B1252AC747C6BAB984FC68F0B87FE8960A5C09FE86CFB69FBA01504B0304140006080800CC70623BA24EB22D72010000D40300000C0000006662782F636F72652E786D6CC5535B6E833010BC8AE5DF0A6C5E49888CA3A6694ED00B38E05014B091B1518EDFE511A5A9D228FD2A1F60CDEC7A67C6986DCE4D8D7A
310
69BA4AAB0C073EC548AA5C17952A33ECECD15B61B4E1CC686DBF9561A44423333CC098B3D268D7CE50AE9595CA02AA74216750749DB418E5352C32DCE59FB211BE70162ABA93DF8AFC244AE9073ED050C759670D0840D390E18DF9F1706664C23973AE2A66B62A605A75ACA4C13C4976E1364A12EF355A2EBD384AF65EFA96
310
BC7B8BED2EA6719AAE16FB8491A199335B351775B991C2CA02F390D2D40B028F861F41BCA68B7518BFD0D59A524686F29B26D7164F36B94AD9289CE54E6D1DE6010819891F6E21228B3AD1831EC219194284CF98F06DD01008846CC5A1BEF83801D4CBDC6A1303536877A57A513B0953A94FC707FDBE6064EA84A9E3E6E0FA
310
EE8CF0E9198F7784A316AA0413C2C2F2E0ECA0934D1AE6D05A69BCDE9E91D2A611F573361E38FC1375157F5752AE6B6DFE4B11990F88CCBF0719EE23FF02504B0304140006080800CC70623B408A7D3B7C0000009D0000000B0000006662782F636E782E786D6C4DCCD10A83201886E15B91FFDC552A92A0064DBC8F581632
310
D3703A76F9ABD1C18E3E78F878E5F0D9027ABBFCF2292AE86E2D20171F69F6715550CB827B40839639A5F2770314A7CD293819B45C73AAFB45B35BA61ACAA1C1C7E7855C58C15BC331339661262CC762340413D68D77DA5B42298546CBE6573AF60CEB2F504B0304140006080800CC70623B449FB9BD290100001202000031
310
0000006662782F36394639363044362D344446342D343946362D394244322D3234314243333846323333332F636F72652E786D6C8D515B6EC32010BC0AE22B55850D98B871848994463E412FE002495162B07854397EA176A4F62F3F2C9A9D991D587EB84F37F0AD7D30CEF6905418026DA553C65E7A98E219ED203808EE9D
310
8B7F6810D871D23D2C3014FCE25D9A57483A1BB58D19B54EE9151C43D0110279CB971E06F9A5A7B11A53CC8C70ADE6515EC78BAE4895DB992778883E0700CB907242D17643D7E2538BD869608875438BBAE38922CAC8F1BDD90DB4691A5E2F42C153326A951B95E398B3D1FE599322163C9AE9115F7A3D46ADA0A018778810
310
84E907617BDCEE297BC5BB3DC6BC2EF47FA234AB2745C9D8D8D035EE220B50105E2F0DC1954B9FB747187D9F9D8FA0CCDB042D5FA0C015C65B42DF78BD10F3F3B363CB56C7109DCFDFBBB97E662ED92EB62D13BC2E1BCAE5777DB9966D8A1F504B0304140006080800CC70623BAD7543B64E01000033030000300000006662
310
782F36394639363044362D344446342D343946362D394244322D3234314243333846323333332F636E782E786D6CD593CD6EC32010845F0571AD6CE3D48AD20813A9873E410FBD12D82434182C7EAAE6EDBB2424CD25871E7B41D6EC30B3FA84F9E67BB2E40B4234DE8DB46F1925E094D7C6ED479AD3AE5951B2113C789FEE
310
6C943839C1488B4C05DF079FE72A69D8C96C13AAD6B8631503449F83828872B949AC57D26200B826A308D316B4064D6E46FCDA41C05550DC9E483A00797BFD207EFB092A45DE9514C1BBD22178396BD39D891265658C238DEA00936C654E5E433CB65A26D9F6EDB5EBC14EBF49A45CB856E66048291F6939A9A81BB5C89177
310
38143CA680F4AA299D66A042CEB3354A2684DC9D8D178FE0D9B8B41CAAD720F880EE7EF93C0C18769E099ECC04D5A102C8049A8A05632F4DDF376CF1DE0F6BB65C2F8627B65A33C6BB62177CEBBDAD973006829F89F22E814B54F4BC2BE347F8AA8F681390B50FA73F804400B5F542E796F19FF974E7F78DB802FE05E20750
310
4B0304140006080800CC70623B8D05915C650500003B100000340000006662782F36394639363044362D344446342D343946362D394244322D3234314243333846323333332F6F626A656374732E786D6CAD575B6FA33814FE2B887D06429276DA1565D4266D158D3A339A6846FB502932E050B66023DB74D2FDF5FB190C01
310
9276B2973C046C8ECFF53B17071F77456EBD502133CEAE6CDF9DD81665314F32965ED995DA3A17B6F5310C04E7AA47665B8C14F4CAD6DB7618A48257A5D94AE89654B91AEDDEDDFC61C998326A5B714EA4BCB265FC440BE2924AF184CA6737218AB8E976E7FA6E4338649B0A523E8D98964450A6A029F619B8588D52FE7039
310
B1BD30F0F4F730D0FF866AF6369557DB33949F31A9088B0F848DD8CCFCF9F2767A76E99CCDE733677E3EF59D9BBB9BA5E37F984D16E78BC5E5F5ED25044B25C0C96822E8D60EEFE11B91C581D77CEA34368A1F5329E68CD1B8B61F16D63A1B8E092D294B10C78C4A48EB593D192E7DED9BDEE7995E1B91FDEDD3ACEA9FE831
310
6A756F9F7D4D79F4274C90A7A04248AA51D5F8C718DAE06FB2F75AC4796EBE65D22A88A22223B995679120E2D50E41AA49C260C046A35368846B0BECD0DFF3EBEB8AD4F835768F69B9ADF25C43D30E6B646F807FAA64AD59F61715C7A54127C4AACA98BA3006A9D792DAE165E0D59B61A01FB3A9F9D838D2DAE62445C86166
310
F37564E842E7DE6A69879FEEA2DD5AE7E371E1A5E025154AC307D06A03D73EB5978C58FFA4C8E9033066E0F3BD53BEC1F39F91BE7B55103791EDE6BBB991A2046172CB4581D8B893FA674DDA17A77B3B7C413D1B511FD2743BFF8A38F03A658705E3ADF8015C3A3417FF3D7E439FF591DA0B5F18BC20C1B8981957AE6392A3
310
F43C640C01D1A0B4728E2DD4F26DB4B3C3152A252A3B4E913CEC1C72F012782FF88EFF8637AA552DBEF76408E8A8DE9E50F9E1CB3A2DA0DB1B6039A893B56063DC5B3E3FFB5F72E67AB9FEB4AEC496C4F4C1149625DD662C53E89D7BF0F6151A046260D1337DFDC94502430F83B0EE07A130A224BCAD7DAE1D9FB6CD422FF6
310
920702629C4BB9AE79C12F243C6432A6794E18E5552BA56B431AAB5D91317302B2B071E86C3A42B1A02F999E24061403B5D0EB639195DA655DD3EBEAB4FB862DDF579F014AD0E73C22F99E28DA57FB98E75C6CA2D74D53086D600F4786E0FE3144B771A8A7B900F03594DB8A633CBC49B2EDB69228BB479CF863B5E807AAAB
310
23872F6DFEB4129B949CA33823F58830E86D65621E10047D9DB34D862E8EAC3C2ABC2F7B2C40D67CDFE01F5545B92105AF983AC54D93D69E56FB8E797F88913F898A9FEC705D3F9D1B54EC8426FB500D40A03BD0119B06E1B95DDC7EB8F6975367793EBD70E66733DFB9BC982F9CE564727731999F5D4ECFCE3B8D6A4DC2A0
310
6D50FD148437D110834A64C6CDDF57FBACB5C307A2A477DFE4939736CFEF2B175371E0E10CF0DD1D5C15654E0BCA14D1E87DD02FF93782A162C0A3D95F1524A52770F972BF1EE9809D13CE7DD599467F8ECE9ADD85CE85A34CD45355448C64F9E8A031DC2D596ACC6E5DD93D9B82DE2EF5CAF81363A8E47996A0DE24564A79
310
4115AACE09C55E14540231FDA13C319787134EBF34E3A022514E5B4D9E0826E25C02D5805B15ABE1BEF51B26383D445DD9E875EE33FE4C22DA16427D65A3BCA92CA6D28DD01DF5DC53330704308475351050232CCD31583787BA75774AFB06E5070DD0C8EF484E19968C5D83BA5B90B244D31E54D55A372320FE4786B7EA58
310
44E135AA5467CB7EA333A61683CC6A8C3257034C10CF46F40EF9F5BE59BE5BD30C3C72D235E95D10345C1D45445A5F0BB47E46A5EBE5570F9380B5FA629579952296A773720405982B9DE04011506178964401AA8BDF1FBF0A8EAB6861DD6580C0E38217056766716DAEB2D6FA0917D3E4116581EADB879C4E7CFFB11EFACD
310
3D641311495D92C8676CB409A72D18610D803CE8A626049E8EC1887CB5B44CC39883690DDA8399B4B9855B481E7D71D4A9D22F96E5BB73BF5793020C02137BF837504B0304140006080000CC70623B000000000000000000000000350000006662782F36394639363044362D344446342D343946362D394244322D32343142
310
43333846323333332F76657274696365732E62696E504B0304140006080800CC70623BF270F1330600000004000000360000006662782F36394639363044362D344446342D343946362D394244322D3234314243333846323333332F747269616E676C65732E62696E636660600000504B0304140006080000CC70623B0000
310
00000000000000000000370000006662782F36394639363044362D344446342D343946362D394244322D3234314243333846323333332F617474726962757465732E62696E504B0304140006080800CC70623B08DA0BD19000000041010000360000006662782F36394639363044362D344446342D343946362D394244322D
310
3234314243333846323333332F6469726563746F72792E786D6C858F410AC3201045AF22B36F53E9A60B35CBEEBAE80D244E44489C6234F4F835464A48035D0DF398FF9F8AF63D0E6CC63039F212F8F9020C7D47C6792B21C5FE7403D62A1188E2E60C98D7234A5830286103A55745067B9D86B8A3CF9C7F90C11DE607FB14
310
4396D7B6A82D282E9A152AD114D5EF2CB866EEE831B8EEA07A7BB5A8D7D61A2BAAEB7FD5F70921FF497D00504B0304140006080800CC70623BCA768048FE000000A00100003B0000006662782F36394639363044362D344446342D343946362D394244322D3234314243333846323333332F7265736F75726365732F636F72
310
652E786D6C8D50596E833010BD0A9ADFCA60D600328E9AA639412F609909B1126CE4A5EAF16B0295DABFFECC8CDEA2797AECF8353F924FB44E193D409E5248504B332A3D0D10FC95B4901C39B3C6F85F3248B49871801506CE266BC2B243D2688FDA47549B11775038871E12F988C7004EDE7016A9083E2ADC3D5D84BC8B09
310
D33C8D74D471E6BC8D0192EDC93A815B742658898E651BCB59086ADC356A8C3FD555A1055ED7E7E254D615792D0F075295F585746FF53B694EE78A565DD736979A65AB9933AFE69F8CD2A2F038022F28ED489E135A7CE4554F9BBEA85E68DB53CAB255FEC71496F19FA6A0B42F8B3DEE6673C0F318E4497096AD7DC5F52C33
310
EEB55BFE0D504B010214000A0000080000CC70623B3DEE336E79000000790000001B00000000000000000000000000000000006175746F6465736B2D64657369676E2D7061636B6167652E786D6C504B01021400140006080800CC70623BD486FD9CA0000000F40000001300000000000000000000000000B20000005B436F
310
6E74656E745F54797065735D2E786D6C504B01021400140006080800CC70623BD9DDAED0EC0000007C010000080000000000000000000000000083010000636F72652E786D6C504B01021400140006080800CC70623B55019EA25F0000007C000000070000000000000000000000000095020000636E782E786D6C504B0102
310
1400140006080800CC70623BA24EB22D72010000D40300000C00000000000000000000000000190300006662782F636F72652E786D6C504B01021400140006080800CC70623B408A7D3B7C0000009D0000000B00000000000000000000000000B50400006662782F636E782E786D6C504B01021400140006080800CC70623B
310
449FB9BD290100001202000031000000000000000000000000005A0500006662782F36394639363044362D344446342D343946362D394244322D3234314243333846323333332F636F72652E786D6C504B01021400140006080800CC70623BAD7543B64E010000330300003000000000000000000000000000D20600006662
310
782F36394639363044362D344446342D343946362D394244322D3234314243333846323333332F636E782E786D6C504B01021400140006080800CC70623B8D05915C650500003B10000034000000000000000000000000006E0800006662782F36394639363044362D344446342D343946362D394244322D32343142433338
310
46323333332F6F626A656374732E786D6C504B01021400140006080000CC70623B0000000000000000000000003500000000000000000000000000250E00006662782F36394639363044362D344446342D343946362D394244322D3234314243333846323333332F76657274696365732E62696E504B010214001400060808
310
00CC70623BF270F13306000000040000003600000000000000000000000000780E00006662782F36394639363044362D344446342D343946362D394244322D3234314243333846323333332F747269616E676C65732E62696E504B01021400140006080000CC70623B00000000000000000000000037000000000000000000
310
00000000D20E00006662782F36394639363044362D344446342D343946362D394244322D3234314243333846323333332F617474726962757465732E62696E504B01021400140006080800CC70623B08DA0BD190000000410100003600000000000000000000000000270F00006662782F36394639363044362D344446342D
310
343946362D394244322D3234314243333846323333332F6469726563746F72792E786D6C504B01021400140006080800CC70623BCA768048FE000000A00100003B000000000000000000000000000B1000006662782F36394639363044362D344446342D343946362D394244322D3234314243333846323333332F7265736F
310
75726365732F636F72652E786D6C504B0506000000000E000E0080040000621100000000
  0
XRECORD
  5
176
102
{ACAD_REACTORS
330
173
102
}
330
173
100
AcDbXrecord
280
     1
270
     1
271
     1
  0
XRECORD
  5
177
102
{ACAD_REACTORS
330
173
102
}
330
173
100
AcDbXrecord
280
     1
270
     1
271
     1
  0
XRECORD
  5
753
102
{ACAD_REACTORS
330
4D9
102
}
330
4D9
100
AcDbXrecord
280
     1
102
DISPLAYNAME
  1
Imperial24
102
FLAGS
 90
        0
  0
XRECORD
  5
74F
102
{ACAD_REACTORS
330
234
102
}
330
234
100
AcDbXrecord
280
     1
102
DISPLAYNAME
  1
Metric50
102
FLAGS
 90
        0
  0
CELLSTYLEMAP
  5
70B
102
{ACAD_REACTORS
330
162
102
}
330
162
100
AcDbCellStyleMap
 90
        3
300
CELLSTYLE
  1
TABLEFORMAT_BEGIN
 90
        5
170
     1
 91
        0
 92
    32768
 62
   257
 93
        1
300
CONTENTFORMAT
  1
CONTENTFORMAT_BEGIN
 90
        0
 91
        0
 92
      512
 93
        0
300

 40
0.0
140
1.0
 94
        5
 62
     0
340
11
144
6.0
309
CONTENTFORMAT_END
171
     1
301
MARGIN
  1
CELLMARGIN_BEGIN
 40
1.5
 40
1.5
 40
1.5
 40
1.5
 40
4.5
 40
4.5
309
CELLMARGIN_END
 94
        6
 95
        1
302
GRIDFORMAT
  1
GRIDFORMAT_BEGIN
 90
        0
 91
        1
 62
     0
 92
       -2
340
14
 93
        0
 40
1.125
309
GRIDFORMAT_END
 95
        2
302
GRIDFORMAT
  1
GRIDFORMAT_BEGIN
 90
        0
 91
        1
 62
     0
 92
       -2
340
14
 93
        0
 40
1.125
309
GRIDFORMAT_END
 95
        4
302
GRIDFORMAT
  1
GRIDFORMAT_BEGIN
 90
        0
 91
        1
 62
     0
 92
       -2
340
14
 93
        0
 40
1.125
309
GRIDFORMAT_END
 95
        8
302
GRIDFORMAT
  1
GRIDFORMAT_BEGIN
 90
        0
 91
        1
 62
     0
 92
       -2
340
14
 93
        0
 40
1.125
309
GRIDFORMAT_END
 95
       16
302
GRIDFORMAT
  1
GRIDFORMAT_BEGIN
 90
        0
 91
        1
 62
     0
 92
       -2
340
14
 93
        0
 40
1.125
309
GRIDFORMAT_END
 95
       32
302
GRIDFORMAT
  1
GRIDFORMAT_BEGIN
 90
        0
 91
        1
 62
     0
 92
       -2
340
14
 93
        0
 40
1.125
309
GRIDFORMAT_END
309
TABLEFORMAT_END
  1
CELLSTYLE_BEGIN
 90
        1
 91
        1
300
_TITLE
309
CELLSTYLE_END
300
CELLSTYLE
  1
TABLEFORMAT_BEGIN
 90
        5
170
     1
 91
        0
 92
        0
 62
   257
 93
        1
300
CONTENTFORMAT
  1
CONTENTFORMAT_BEGIN
 90
        0
 91
        0
 92
      512
 93
        0
300

 40
0.0
140
1.0
 94
        5
 62
     0
340
11
144
4.5
309
CONTENTFORMAT_END
171
     1
301
MARGIN
  1
CELLMARGIN_BEGIN
 40
1.5
 40
1.5
 40
1.5
 40
1.5
 40
4.5
 40
4.5
309
CELLMARGIN_END
 94
        6
 95
        1
302
GRIDFORMAT
  1
GRIDFORMAT_BEGIN
 90
        0
 91
        1
 62
     0
 92
       -2
340
14
 93
        0
 40
1.125
309
GRIDFORMAT_END
 95
        2
302
GRIDFORMAT
  1
GRIDFORMAT_BEGIN
 90
        0
 91
        1
 62
     0
 92
       -2
340
14
 93
        0
 40
1.125
309
GRIDFORMAT_END
 95
        4
302
GRIDFORMAT
  1
GRIDFORMAT_BEGIN
 90
        0
 91
        1
 62
     0
 92
       -2
340
14
 93
        0
 40
1.125
309
GRIDFORMAT_END
 95
        8
302
GRIDFORMAT
  1
GRIDFORMAT_BEGIN
 90
        0
 91
        1
 62
     0
 92
       -2
340
14
 93
        0
 40
1.125
309
GRIDFORMAT_END
 95
       16
302
GRIDFORMAT
  1
GRIDFORMAT_BEGIN
 90
        0
 91
        1
 62
     0
 92
       -2
340
14
 93
        0
 40
1.125
309
GRIDFORMAT_END
 95
       32
302
GRIDFORMAT
  1
GRIDFORMAT_BEGIN
 90
        0
 91
        1
 62
     0
 92
       -2
340
14
 93
        0
 40
1.125
309
GRIDFORMAT_END
309
TABLEFORMAT_END
  1
CELLSTYLE_BEGIN
 90
        2
 91
        1
300
_HEADER
309
CELLSTYLE_END
300
CELLSTYLE
  1
TABLEFORMAT_BEGIN
 90
        5
170
     1
 91
        0
 92
        0
 62
   257
 93
        1
300
CONTENTFORMAT
  1
CONTENTFORMAT_BEGIN
 90
        0
 91
        0
 92
      512
 93
        0
300

 40
0.0
140
1.0
 94
        2
 62
     0
340
11
144
4.5
309
CONTENTFORMAT_END
171
     1
301
MARGIN
  1
CELLMARGIN_BEGIN
 40
1.5
 40
1.5
 40
1.5
 40
1.5
 40
4.5
 40
4.5
309
CELLMARGIN_END
 94
        6
 95
        1
302
GRIDFORMAT
  1
GRIDFORMAT_BEGIN
 90
        0
 91
        1
 62
     0
 92
       -2
340
14
 93
        0
 40
1.125
309
GRIDFORMAT_END
 95
        2
302
GRIDFORMAT
  1
GRIDFORMAT_BEGIN
 90
        0
 91
        1
 62
     0
 92
       -2
340
14
 93
        0
 40
1.125
309
GRIDFORMAT_END
 95
        4
302
GRIDFORMAT
  1
GRIDFORMAT_BEGIN
 90
        0
 91
        1
 62
     0
 92
       -2
340
14
 93
        0
 40
1.125
309
GRIDFORMAT_END
 95
        8
302
GRIDFORMAT
  1
GRIDFORMAT_BEGIN
 90
        0
 91
        1
 62
     0
 92
       -2
340
14
 93
        0
 40
1.125
309
GRIDFORMAT_END
 95
       16
302
GRIDFORMAT
  1
GRIDFORMAT_BEGIN
 90
        0
 91
        1
 62
     0
 92
       -2
340
14
 93
        0
 40
1.125
309
GRIDFORMAT_END
 95
       32
302
GRIDFORMAT
  1
GRIDFORMAT_BEGIN
 90
        0
 91
        1
 62
     0
 92
       -2
340
14
 93
        0
 40
1.125
309
GRIDFORMAT_END
309
TABLEFORMAT_END
  1
CELLSTYLE_BEGIN
 90
        3
 91
        2
300
_DATA
309
CELLSTYLE_END
  0
XRECORD
  5
717
102
{ACAD_REACTORS
330
162
102
}
330
162
100
AcDbXrecord
280
     1
102
ACAD_ROUNDTRIP_PRE2007_TABLESTYLE
 90
      512
 91
        0
  1

 92
      512
 93
        0
  2

 94
      512
 95
        0
  3

  0
XRECORD
  5
72A
102
{ACAD_REACTORS
330
729
102
}
330
729
100
AcDbXrecord
280
     1
102
RTVSPost2010Prop28
280
     1
102
RTVSPost2010PropOp28
 70
     1
102
RTVSPost2010Prop29
280
     1
102
RTVSPost2010PropOp29
 70
     1
102
RTVSPost2010Prop30
280
     0
102
RTVSPost2010PropOp30
 70
     1
102
RTVSPost2010Prop31
280
     0
102
RTVSPost2010PropOp31
 70
     1
102
RTVSPost2010Prop32
280
     0
102
RTVSPost2010PropOp32
 70
     1
102
RTVSPost2010Prop33
280
     0
102
RTVSPost2010PropOp33
 70
     1
102
RTVSPost2010Prop34
280
     0
102
RTVSPost2010PropOp34
 70
     1
102
RTVSPost2010Prop35
280
     0
102
RTVSPost2010PropOp35
 70
     1
102
RTVSPost2010Prop36
280
     0
102
RTVSPost2010PropOp36
 70
     1
102
RTVSPost2010Prop37
 90
       50
102
RTVSPost2010PropOp37
 70
     1
102
RTVSPost2010Prop38
140
0.0
102
RTVSPost2010PropOp38
 70
     1
102
RTVSPost2010Prop39
140
1.0
102
RTVSPost2010PropOp39
 70
     1
102
RTVSPost2010Prop40
 90
        0
102
RTVSPost2010PropOp40
 70
     1
102
RTVSPost2010Prop41ColorIndex
 90
       18
102
RTVSPost2010Prop41ColorRGB
 90
        0
102
RTVSPost2010PropOp41
 70
     1
102
RTVSPost2010Prop42
 90
       50
102
RTVSPost2010PropOp42
 70
     1
102
RTVSPost2010Prop43
 90
        3
102
RTVSPost2010PropOp43
 70
     1
102
RTVSPost2010Prop44ColorIndex
 90
        5
102
RTVSPost2010Prop44ColorRGB
 90
      255
102
RTVSPost2010PropOp44
 70
     1
102
RTVSPost2010Prop45
280
     0
102
RTVSPost2010PropOp45
 70
     1
102
RTVSPost2010Prop46
 90
       50
102
RTVSPost2010PropOp46
 70
     1
102
RTVSPost2010Prop47
 90
       50
102
RTVSPost2010PropOp47
 70
     1
102
RTVSPost2010Prop48
 90
       50
102
RTVSPost2010PropOp48
 70
     1
102
RTVSPost2010Prop49
280
     0
102
RTVSPost2010PropOp49
 70
     1
102
RTVSPost2010Prop50
 90
       50
102
RTVSPost2010PropOp50
 70
     1
102
RTVSPost2010Prop51ColorIndex
 90
      256
102
RTVSPost2010Prop51ColorRGB
 90
-16777216
102
RTVSPost2010PropOp51
 70
     0
102
RTVSPost2010Prop52
140
1.0
102
RTVSPost2010PropOp52
 70
     0
102
RTVSPost2010Prop53
 90
        2
102
RTVSPost2010PropOp53
 70
     1
102
RTVSPost2010Prop54
  1
strokes_ogs.tif
102
RTVSPost2010PropOp54
 70
     1
102
RTVSPost2010Prop55
280
     0
102
RTVSPost2010PropOp55
 70
     1
102
RTVSPost2010Prop56
140
1.0
102
RTVSPost2010PropOp56
 70
     1
102
RTVSPost2010Prop57
140
1.0
102
RTVSPost2010PropOp57
 70
     1
102
RTVSPropertyOp0
 70
     1
102
RTVSPropertyOp1
 70
     1
102
RTVSPropertyOp2
 70
     1
102
RTVSPropertyOp3
 70
     1
102
RTVSPropertyOp4
 70
     1
102
RTVSPropertyOp5
 70
     1
102
RTVSPropertyOp6
 70
     1
102
RTVSPropertyOp7
 70
     1
102
RTVSPropertyOp8
 70
     1
102
RTVSPropertyOp9
 70
     1
102
RTVSPropertyOp10
 70
     1
102
RTVSPropertyOp11
 70
     1
102
RTVSPropertyOp12
 70
     1
102
RTVSPropertyOp13
 70
     1
102
RTVSPropertyOp14
 70
     1
102
RTVSPropertyOp15
 70
     1
102
RTVSPropertyOp16
 70
     1
102
RTVSPropertyOp17
 70
     1
102
RTVSPropertyOp18
 70
     1
102
RTVSPropertyOp19
 70
     1
102
RTVSPropertyOp20
 70
     1
102
RTVSPropertyOp21
 70
     1
102
RTVSPropertyOp22
 70
     1
102
RTVSPropertyOp23
 70
     1
102
RTVSPropertyOp24
 70
     1
102
RTVSPropertyOp25
 70
     1
102
RTVSPropertyOp26
 70
     1
102
RTVSPropertyOp27
 70
     1
102
RTVSPropertyOp28
 70
     1
102
RTVSPropertyOp29
 70
     1
102
RTVSPropertyOp30
 70
     1
102
RTVSPropertyOp31
 70
     1
102
RTVSPropertyOp32
 70
     1
102
RTVSPropertyOp33
 70
     1
102
RTVSPropertyOp34
 70
     1
102
RTVSPropertyOp35
 70
     1
102
RTVSPropertyOp36
 70
     1
102
RTVSPropertyOp37
 70
     1
102
RTVSPropertyOp38
 70
     1
102
RTVSPropertyOp39
 70
     1
102
RTVSPropertyOp40
 70
     1
102
RTVSPropertyOp41
 70
     1
102
RTVSPropertyOp42
 70
     1
102
RTVSPropertyOp43
 70
     1
102
RTVSPropertyOp44
 70
     1
102
RTVSPropertyOp45
 70
     1
102
RTVSPropertyOp46
 70
     1
102
RTVSPropertyOp47
 70
     1
102
RTVSPropertyOp48
 70
     1
102
RTVSPropertyOp49
 70
     1
102
RTVSPropertyOp50
 70
     1
102
RTVSPropertyOp51
 70
     0
102
RTVSPropertyOp52
 70
     0
102
RTVSPropertyOp53
 70
     1
102
RTVSPropertyOp54
 70
     1
102
RTVSPropertyOp55
 70
     1
102
RTVSPropertyOp56
 70
     1
102
RTVSPropertyOp57
 70
     1
102
RTVSPropertyOp58
 70
     1
102
RTVSPropertyOp59
 70
     1
102
RTVSPropertyOp60
 70
     1
102
RTVSPropertyOp61
 70
     1
102
RTVSPropertyOp62
 70
     1
  0
XRECORD
  5
728
102
{ACAD_REACTORS
330
727
102
}
330
727
100
AcDbXrecord
280
     1
102
RTVSPost2010Prop28
280
     0
102
RTVSPost2010PropOp28
 70
     1
102
RTVSPost2010Prop29
280
     1
102
RTVSPost2010PropOp29
 70
     1
102
RTVSPost2010Prop30
280
     1
102
RTVSPost2010PropOp30
 70
     1
102
RTVSPost2010Prop31
280
     0
102
RTVSPost2010PropOp31
 70
     1
102
RTVSPost2010Prop32
280
     0
102
RTVSPost2010PropOp32
 70
     1
102
RTVSPost2010Prop33
280
     0
102
RTVSPost2010PropOp33
 70
     1
102
RTVSPost2010Prop34
280
     0
102
RTVSPost2010PropOp34
 70
     1
102
RTVSPost2010Prop35
280
     0
102
RTVSPost2010PropOp35
 70
     1
102
RTVSPost2010Prop36
280
     0
102
RTVSPost2010PropOp36
 70
     1
102
RTVSPost2010Prop37
 90
       50
102
RTVSPost2010PropOp37
 70
     1
102
RTVSPost2010Prop38
140
0.0
102
RTVSPost2010PropOp38
 70
     1
102
RTVSPost2010Prop39
140
1.0
102
RTVSPost2010PropOp39
 70
     1
102
RTVSPost2010Prop40
 90
        0
102
RTVSPost2010PropOp40
 70
     1
102
RTVSPost2010Prop41ColorIndex
 90
       18
102
RTVSPost2010Prop41ColorRGB
 90
        0
102
RTVSPost2010PropOp41
 70
     1
102
RTVSPost2010Prop42
 90
       50
102
RTVSPost2010PropOp42
 70
     1
102
RTVSPost2010Prop43
 90
        3
102
RTVSPost2010PropOp43
 70
     1
102
RTVSPost2010Prop44ColorIndex
 90
        5
102
RTVSPost2010Prop44ColorRGB
 90
      255
102
RTVSPost2010PropOp44
 70
     1
102
RTVSPost2010Prop45
280
     0
102
RTVSPost2010PropOp45
 70
     1
102
RTVSPost2010Prop46
 90
       50
102
RTVSPost2010PropOp46
 70
     1
102
RTVSPost2010Prop47
 90
       50
102
RTVSPost2010PropOp47
 70
     1
102
RTVSPost2010Prop48
 90
       50
102
RTVSPost2010PropOp48
 70
     1
102
RTVSPost2010Prop49
280
     0
102
RTVSPost2010PropOp49
 70
     1
102
RTVSPost2010Prop50
 90
       50
102
RTVSPost2010PropOp50
 70
     1
102
RTVSPost2010Prop51ColorIndex
 90
      256
102
RTVSPost2010Prop51ColorRGB
 90
-16777216
102
RTVSPost2010PropOp51
 70
     0
102
RTVSPost2010Prop52
140
1.0
102
RTVSPost2010PropOp52
 70
     0
102
RTVSPost2010Prop53
 90
        2
102
RTVSPost2010PropOp53
 70
     1
102
RTVSPost2010Prop54
  1
strokes_ogs.tif
102
RTVSPost2010PropOp54
 70
     1
102
RTVSPost2010Prop55
280
     0
102
RTVSPost2010PropOp55
 70
     1
102
RTVSPost2010Prop56
140
1.0
102
RTVSPost2010PropOp56
 70
     1
102
RTVSPost2010Prop57
140
1.0
102
RTVSPost2010PropOp57
 70
     1
102
RTVSPropertyOp0
 70
     1
102
RTVSPropertyOp1
 70
     1
102
RTVSPropertyOp2
 70
     1
102
RTVSPropertyOp3
 70
     1
102
RTVSPropertyOp4
 70
     1
102
RTVSPropertyOp5
 70
     1
102
RTVSPropertyOp6
 70
     1
102
RTVSPropertyOp7
 70
     1
102
RTVSPropertyOp8
 70
     1
102
RTVSPropertyOp9
 70
     1
102
RTVSPropertyOp10
 70
     1
102
RTVSPropertyOp11
 70
     1
102
RTVSPropertyOp12
 70
     1
102
RTVSPropertyOp13
 70
     1
102
RTVSPropertyOp14
 70
     1
102
RTVSPropertyOp15
 70
     1
102
RTVSPropertyOp16
 70
     1
102
RTVSPropertyOp17
 70
     1
102
RTVSPropertyOp18
 70
     1
102
RTVSPropertyOp19
 70
     1
102
RTVSPropertyOp20
 70
     1
102
RTVSPropertyOp21
 70
     1
102
RTVSPropertyOp22
 70
     1
102
RTVSPropertyOp23
 70
     1
102
RTVSPropertyOp24
 70
     1
102
RTVSPropertyOp25
 70
     1
102
RTVSPropertyOp26
 70
     1
102
RTVSPropertyOp27
 70
     1
102
RTVSPropertyOp28
 70
     1
102
RTVSPropertyOp29
 70
     1
102
RTVSPropertyOp30
 70
     1
102
RTVSPropertyOp31
 70
     1
102
RTVSPropertyOp32
 70
     1
102
RTVSPropertyOp33
 70
     1
102
RTVSPropertyOp34
 70
     1
102
RTVSPropertyOp35
 70
     1
102
RTVSPropertyOp36
 70
     1
102
RTVSPropertyOp37
 70
     1
102
RTVSPropertyOp38
 70
     1
102
RTVSPropertyOp39
 70
     1
102
RTVSPropertyOp40
 70
     1
102
RTVSPropertyOp41
 70
     1
102
RTVSPropertyOp42
 70
     1
102
RTVSPropertyOp43
 70
     1
102
RTVSPropertyOp44
 70
     1
102
RTVSPropertyOp45
 70
     1
102
RTVSPropertyOp46
 70
     1
102
RTVSPropertyOp47
 70
     1
102
RTVSPropertyOp48
 70
     1
102
RTVSPropertyOp49
 70
     1
102
RTVSPropertyOp50
 70
     1
102
RTVSPropertyOp51
 70
     0
102
RTVSPropertyOp52
 70
     0
102
RTVSPropertyOp53
 70
     1
102
RTVSPropertyOp54
 70
     1
102
RTVSPropertyOp55
 70
     1
102
RTVSPropertyOp56
 70
     1
102
RTVSPropertyOp57
 70
     1
102
RTVSPropertyOp58
 70
     1
102
RTVSPropertyOp59
 70
     1
102
RTVSPropertyOp60
 70
     1
102
RTVSPropertyOp61
 70
     1
102
RTVSPropertyOp62
 70
     1
  0
XRECORD
  5
736
102
{ACAD_REACTORS
330
735
102
}
330
735
100
AcDbXrecord
280
     1
102
RTVSPost2010Prop28
280
     0
102
RTVSPost2010PropOp28
 70
     1
102
RTVSPost2010Prop29
280
     1
102
RTVSPost2010PropOp29
 70
     1
102
RTVSPost2010Prop30
280
     1
102
RTVSPost2010PropOp30
 70
     1
102
RTVSPost2010Prop31
280
     0
102
RTVSPost2010PropOp31
 70
     1
102
RTVSPost2010Prop32
280
     0
102
RTVSPost2010PropOp32
 70
     1
102
RTVSPost2010Prop33
280
     0
102
RTVSPost2010PropOp33
 70
     1
102
RTVSPost2010Prop34
280
     0
102
RTVSPost2010PropOp34
 70
     1
102
RTVSPost2010Prop35
280
     0
102
RTVSPost2010PropOp35
 70
     1
102
RTVSPost2010Prop36
280
     0
102
RTVSPost2010PropOp36
 70
     1
102
RTVSPost2010Prop37
 90
       50
102
RTVSPost2010PropOp37
 70
     1
102
RTVSPost2010Prop38
140
0.0
102
RTVSPost2010PropOp38
 70
     1
102
RTVSPost2010Prop39
140
1.0
102
RTVSPost2010PropOp39
 70
     1
102
RTVSPost2010Prop40
 90
        0
102
RTVSPost2010PropOp40
 70
     1
102
RTVSPost2010Prop41ColorIndex
 90
       18
102
RTVSPost2010Prop41ColorRGB
 90
        0
102
RTVSPost2010PropOp41
 70
     1
102
RTVSPost2010Prop42
 90
       50
102
RTVSPost2010PropOp42
 70
     1
102
RTVSPost2010Prop43
 90
        3
102
RTVSPost2010PropOp43
 70
     1
102
RTVSPost2010Prop44ColorIndex
 90
        5
102
RTVSPost2010Prop44ColorRGB
 90
      255
102
RTVSPost2010PropOp44
 70
     1
102
RTVSPost2010Prop45
280
     0
102
RTVSPost2010PropOp45
 70
     1
102
RTVSPost2010Prop46
 90
       50
102
RTVSPost2010PropOp46
 70
     1
102
RTVSPost2010Prop47
 90
       50
102
RTVSPost2010PropOp47
 70
     1
102
RTVSPost2010Prop48
 90
       50
102
RTVSPost2010PropOp48
 70
     1
102
RTVSPost2010Prop49
280
     0
102
RTVSPost2010PropOp49
 70
     1
102
RTVSPost2010Prop50
 90
       50
102
RTVSPost2010PropOp50
 70
     1
102
RTVSPost2010Prop51ColorIndex
 90
      256
102
RTVSPost2010Prop51ColorRGB
 90
-16777216
102
RTVSPost2010PropOp51
 70
     0
102
RTVSPost2010Prop52
140
1.0
102
RTVSPost2010PropOp52
 70
     0
102
RTVSPost2010Prop53
 90
        2
102
RTVSPost2010PropOp53
 70
     1
102
RTVSPost2010Prop54
  1
strokes_ogs.tif
102
RTVSPost2010PropOp54
 70
     1
102
RTVSPost2010Prop55
280
     0
102
RTVSPost2010PropOp55
 70
     1
102
RTVSPost2010Prop56
140
1.0
102
RTVSPost2010PropOp56
 70
     1
102
RTVSPost2010Prop57
140
1.0
102
RTVSPost2010PropOp57
 70
     1
102
RTVSPropertyOp0
 70
     1
102
RTVSPropertyOp1
 70
     1
102
RTVSPropertyOp2
 70
     1
102
RTVSPropertyOp3
 70
     1
102
RTVSPropertyOp4
 70
     1
102
RTVSPropertyOp5
 70
     1
102
RTVSPropertyOp6
 70
     1
102
RTVSPropertyOp7
 70
     1
102
RTVSPropertyOp8
 70
     1
102
RTVSPropertyOp9
 70
     1
102
RTVSPropertyOp10
 70
     1
102
RTVSPropertyOp11
 70
     1
102
RTVSPropertyOp12
 70
     1
102
RTVSPropertyOp13
 70
     1
102
RTVSPropertyOp14
 70
     1
102
RTVSPropertyOp15
 70
     1
102
RTVSPropertyOp16
 70
     1
102
RTVSPropertyOp17
 70
     1
102
RTVSPropertyOp18
 70
     1
102
RTVSPropertyOp19
 70
     1
102
RTVSPropertyOp20
 70
     1
102
RTVSPropertyOp21
 70
     1
102
RTVSPropertyOp22
 70
     1
102
RTVSPropertyOp23
 70
     1
102
RTVSPropertyOp24
 70
     1
102
RTVSPropertyOp25
 70
     1
102
RTVSPropertyOp26
 70
     1
102
RTVSPropertyOp27
 70
     1
102
RTVSPropertyOp28
 70
     1
102
RTVSPropertyOp29
 70
     1
102
RTVSPropertyOp30
 70
     1
102
RTVSPropertyOp31
 70
     1
102
RTVSPropertyOp32
 70
     1
102
RTVSPropertyOp33
 70
     1
102
RTVSPropertyOp34
 70
     1
102
RTVSPropertyOp35
 70
     1
102
RTVSPropertyOp36
 70
     1
102
RTVSPropertyOp37
 70
     1
102
RTVSPropertyOp38
 70
     1
102
RTVSPropertyOp39
 70
     1
102
RTVSPropertyOp40
 70
     1
102
RTVSPropertyOp41
 70
     1
102
RTVSPropertyOp42
 70
     1
102
RTVSPropertyOp43
 70
     1
102
RTVSPropertyOp44
 70
     1
102
RTVSPropertyOp45
 70
     1
102
RTVSPropertyOp46
 70
     1
102
RTVSPropertyOp47
 70
     1
102
RTVSPropertyOp48
 70
     1
102
RTVSPropertyOp49
 70
     1
102
RTVSPropertyOp50
 70
     1
102
RTVSPropertyOp51
 70
     0
102
RTVSPropertyOp52
 70
     0
102
RTVSPropertyOp53
 70
     1
102
RTVSPropertyOp54
 70
     1
102
RTVSPropertyOp55
 70
     1
102
RTVSPropertyOp56
 70
     1
102
RTVSPropertyOp57
 70
     1
102
RTVSPropertyOp58
 70
     1
102
RTVSPropertyOp59
 70
     1
102
RTVSPropertyOp60
 70
     1
102
RTVSPropertyOp61
 70
     1
102
RTVSPropertyOp62
 70
     1
  0
XRECORD
  5
73E
102
{ACAD_REACTORS
330
73D
102
}
330
73D
100
AcDbXrecord
280
     1
102
RTVSPost2010Prop28
280
     0
102
RTVSPost2010PropOp28
 70
     1
102
RTVSPost2010Prop29
280
     1
102
RTVSPost2010PropOp29
 70
     1
102
RTVSPost2010Prop30
280
     1
102
RTVSPost2010PropOp30
 70
     1
102
RTVSPost2010Prop31
280
     0
102
RTVSPost2010PropOp31
 70
     1
102
RTVSPost2010Prop32
280
     0
102
RTVSPost2010PropOp32
 70
     1
102
RTVSPost2010Prop33
280
     0
102
RTVSPost2010PropOp33
 70
     1
102
RTVSPost2010Prop34
280
     0
102
RTVSPost2010PropOp34
 70
     1
102
RTVSPost2010Prop35
280
     0
102
RTVSPost2010PropOp35
 70
     1
102
RTVSPost2010Prop36
280
     0
102
RTVSPost2010PropOp36
 70
     1
102
RTVSPost2010Prop37
 90
       50
102
RTVSPost2010PropOp37
 70
     1
102
RTVSPost2010Prop38
140
0.0
102
RTVSPost2010PropOp38
 70
     1
102
RTVSPost2010Prop39
140
1.0
102
RTVSPost2010PropOp39
 70
     1
102
RTVSPost2010Prop40
 90
        0
102
RTVSPost2010PropOp40
 70
     1
102
RTVSPost2010Prop41ColorIndex
 90
       18
102
RTVSPost2010Prop41ColorRGB
 90
        0
102
RTVSPost2010PropOp41
 70
     1
102
RTVSPost2010Prop42
 90
       50
102
RTVSPost2010PropOp42
 70
     1
102
RTVSPost2010Prop43
 90
        3
102
RTVSPost2010PropOp43
 70
     1
102
RTVSPost2010Prop44ColorIndex
 90
        5
102
RTVSPost2010Prop44ColorRGB
 90
      255
102
RTVSPost2010PropOp44
 70
     1
102
RTVSPost2010Prop45
280
     0
102
RTVSPost2010PropOp45
 70
     1
102
RTVSPost2010Prop46
 90
       50
102
RTVSPost2010PropOp46
 70
     1
102
RTVSPost2010Prop47
 90
       50
102
RTVSPost2010PropOp47
 70
     1
102
RTVSPost2010Prop48
 90
       50
102
RTVSPost2010PropOp48
 70
     1
102
RTVSPost2010Prop49
280
     0
102
RTVSPost2010PropOp49
 70
     1
102
RTVSPost2010Prop50
 90
       50
102
RTVSPost2010PropOp50
 70
     1
102
RTVSPost2010Prop51ColorIndex
 90
      256
102
RTVSPost2010Prop51ColorRGB
 90
-16777216
102
RTVSPost2010PropOp51
 70
     0
102
RTVSPost2010Prop52
140
1.0
102
RTVSPost2010PropOp52
 70
     0
102
RTVSPost2010Prop53
 90
        2
102
RTVSPost2010PropOp53
 70
     1
102
RTVSPost2010Prop54
  1
strokes_ogs.tif
102
RTVSPost2010PropOp54
 70
     1
102
RTVSPost2010Prop55
280
     0
102
RTVSPost2010PropOp55
 70
     1
102
RTVSPost2010Prop56
140
1.0
102
RTVSPost2010PropOp56
 70
     1
102
RTVSPost2010Prop57
140
1.0
102
RTVSPost2010PropOp57
 70
     1
102
RTVSPropertyOp0
 70
     1
102
RTVSPropertyOp1
 70
     1
102
RTVSPropertyOp2
 70
     1
102
RTVSPropertyOp3
 70
     1
102
RTVSPropertyOp4
 70
     1
102
RTVSPropertyOp5
 70
     1
102
RTVSPropertyOp6
 70
     1
102
RTVSPropertyOp7
 70
     1
102
RTVSPropertyOp8
 70
     1
102
RTVSPropertyOp9
 70
     1
102
RTVSPropertyOp10
 70
     1
102
RTVSPropertyOp11
 70
     1
102
RTVSPropertyOp12
 70
     1
102
RTVSPropertyOp13
 70
     1
102
RTVSPropertyOp14
 70
     1
102
RTVSPropertyOp15
 70
     1
102
RTVSPropertyOp16
 70
     1
102
RTVSPropertyOp17
 70
     1
102
RTVSPropertyOp18
 70
     1
102
RTVSPropertyOp19
 70
     1
102
RTVSPropertyOp20
 70
     1
102
RTVSPropertyOp21
 70
     1
102
RTVSPropertyOp22
 70
     1
102
RTVSPropertyOp23
 70
     1
102
RTVSPropertyOp24
 70
     1
102
RTVSPropertyOp25
 70
     1
102
RTVSPropertyOp26
 70
     1
102
RTVSPropertyOp27
 70
     1
102
RTVSPropertyOp28
 70
     1
102
RTVSPropertyOp29
 70
     1
102
RTVSPropertyOp30
 70
     1
102
RTVSPropertyOp31
 70
     1
102
RTVSPropertyOp32
 70
     1
102
RTVSPropertyOp33
 70
     1
102
RTVSPropertyOp34
 70
     1
102
RTVSPropertyOp35
 70
     1
102
RTVSPropertyOp36
 70
     1
102
RTVSPropertyOp37
 70
     1
102
RTVSPropertyOp38
 70
     1
102
RTVSPropertyOp39
 70
     1
102
RTVSPropertyOp40
 70
     1
102
RTVSPropertyOp41
 70
     1
102
RTVSPropertyOp42
 70
     1
102
RTVSPropertyOp43
 70
     1
102
RTVSPropertyOp44
 70
     1
102
RTVSPropertyOp45
 70
     1
102
RTVSPropertyOp46
 70
     1
102
RTVSPropertyOp47
 70
     1
102
RTVSPropertyOp48
 70
     1
102
RTVSPropertyOp49
 70
     1
102
RTVSPropertyOp50
 70
     1
102
RTVSPropertyOp51
 70
     0
102
RTVSPropertyOp52
 70
     0
102
RTVSPropertyOp53
 70
     1
102
RTVSPropertyOp54
 70
     1
102
RTVSPropertyOp55
 70
     1
102
RTVSPropertyOp56
 70
     1
102
RTVSPropertyOp57
 70
     1
102
RTVSPropertyOp58
 70
     1
102
RTVSPropertyOp59
 70
     1
102
RTVSPropertyOp60
 70
     1
102
RTVSPropertyOp61
 70
     1
102
RTVSPropertyOp62
 70
     1
  0
XRECORD
  5
730
102
{ACAD_REACTORS
330
72F
102
}
330
72F
100
AcDbXrecord
280
     1
102
RTVSPost2010Prop28
280
     0
102
RTVSPost2010PropOp28
 70
     1
102
RTVSPost2010Prop29
280
     1
102
RTVSPost2010PropOp29
 70
     1
102
RTVSPost2010Prop30
280
     1
102
RTVSPost2010PropOp30
 70
     1
102
RTVSPost2010Prop31
280
     0
102
RTVSPost2010PropOp31
 70
     1
102
RTVSPost2010Prop32
280
     0
102
RTVSPost2010PropOp32
 70
     1
102
RTVSPost2010Prop33
280
     0
102
RTVSPost2010PropOp33
 70
     1
102
RTVSPost2010Prop34
280
     0
102
RTVSPost2010PropOp34
 70
     1
102
RTVSPost2010Prop35
280
     0
102
RTVSPost2010PropOp35
 70
     1
102
RTVSPost2010Prop36
280
     0
102
RTVSPost2010PropOp36
 70
     1
102
RTVSPost2010Prop37
 90
       50
102
RTVSPost2010PropOp37
 70
     1
102
RTVSPost2010Prop38
140
0.0
102
RTVSPost2010PropOp38
 70
     1
102
RTVSPost2010Prop39
140
1.0
102
RTVSPost2010PropOp39
 70
     1
102
RTVSPost2010Prop40
 90
        0
102
RTVSPost2010PropOp40
 70
     1
102
RTVSPost2010Prop41ColorIndex
 90
       18
102
RTVSPost2010Prop41ColorRGB
 90
        0
102
RTVSPost2010PropOp41
 70
     1
102
RTVSPost2010Prop42
 90
       50
102
RTVSPost2010PropOp42
 70
     1
102
RTVSPost2010Prop43
 90
        3
102
RTVSPost2010PropOp43
 70
     1
102
RTVSPost2010Prop44ColorIndex
 90
        5
102
RTVSPost2010Prop44ColorRGB
 90
      255
102
RTVSPost2010PropOp44
 70
     1
102
RTVSPost2010Prop45
280
     0
102
RTVSPost2010PropOp45
 70
     1
102
RTVSPost2010Prop46
 90
       50
102
RTVSPost2010PropOp46
 70
     1
102
RTVSPost2010Prop47
 90
       50
102
RTVSPost2010PropOp47
 70
     1
102
RTVSPost2010Prop48
 90
       50
102
RTVSPost2010PropOp48
 70
     1
102
RTVSPost2010Prop49
280
     0
102
RTVSPost2010PropOp49
 70
     1
102
RTVSPost2010Prop50
 90
       50
102
RTVSPost2010PropOp50
 70
     1
102
RTVSPost2010Prop51ColorIndex
 90
      256
102
RTVSPost2010Prop51ColorRGB
 90
-16777216
102
RTVSPost2010PropOp51
 70
     0
102
RTVSPost2010Prop52
140
1.0
102
RTVSPost2010PropOp52
 70
     0
102
RTVSPost2010Prop53
 90
        2
102
RTVSPost2010PropOp53
 70
     1
102
RTVSPost2010Prop54
  1
strokes_ogs.tif
102
RTVSPost2010PropOp54
 70
     1
102
RTVSPost2010Prop55
280
     0
102
RTVSPost2010PropOp55
 70
     1
102
RTVSPost2010Prop56
140
1.0
102
RTVSPost2010PropOp56
 70
     1
102
RTVSPost2010Prop57
140
1.0
102
RTVSPost2010PropOp57
 70
     1
102
RTVSPropertyOp0
 70
     1
102
RTVSPropertyOp1
 70
     1
102
RTVSPropertyOp2
 70
     1
102
RTVSPropertyOp3
 70
     1
102
RTVSPropertyOp4
 70
     1
102
RTVSPropertyOp5
 70
     1
102
RTVSPropertyOp6
 70
     1
102
RTVSPropertyOp7
 70
     1
102
RTVSPropertyOp8
 70
     1
102
RTVSPropertyOp9
 70
     1
102
RTVSPropertyOp10
 70
     1
102
RTVSPropertyOp11
 70
     1
102
RTVSPropertyOp12
 70
     1
102
RTVSPropertyOp13
 70
     1
102
RTVSPropertyOp14
 70
     1
102
RTVSPropertyOp15
 70
     1
102
RTVSPropertyOp16
 70
     1
102
RTVSPropertyOp17
 70
     1
102
RTVSPropertyOp18
 70
     1
102
RTVSPropertyOp19
 70
     1
102
RTVSPropertyOp20
 70
     1
102
RTVSPropertyOp21
 70
     1
102
RTVSPropertyOp22
 70
     1
102
RTVSPropertyOp23
 70
     1
102
RTVSPropertyOp24
 70
     1
102
RTVSPropertyOp25
 70
     1
102
RTVSPropertyOp26
 70
     1
102
RTVSPropertyOp27
 70
     1
102
RTVSPropertyOp28
 70
     1
102
RTVSPropertyOp29
 70
     1
102
RTVSPropertyOp30
 70
     1
102
RTVSPropertyOp31
 70
     1
102
RTVSPropertyOp32
 70
     1
102
RTVSPropertyOp33
 70
     1
102
RTVSPropertyOp34
 70
     1
102
RTVSPropertyOp35
 70
     1
102
RTVSPropertyOp36
 70
     1
102
RTVSPropertyOp37
 70
     1
102
RTVSPropertyOp38
 70
     1
102
RTVSPropertyOp39
 70
     1
102
RTVSPropertyOp40
 70
     1
102
RTVSPropertyOp41
 70
     1
102
RTVSPropertyOp42
 70
     1
102
RTVSPropertyOp43
 70
     1
102
RTVSPropertyOp44
 70
     1
102
RTVSPropertyOp45
 70
     1
102
RTVSPropertyOp46
 70
     1
102
RTVSPropertyOp47
 70
     1
102
RTVSPropertyOp48
 70
     1
102
RTVSPropertyOp49
 70
     1
102
RTVSPropertyOp50
 70
     1
102
RTVSPropertyOp51
 70
     0
102
RTVSPropertyOp52
 70
     0
102
RTVSPropertyOp53
 70
     1
102
RTVSPropertyOp54
 70
     1
102
RTVSPropertyOp55
 70
     1
102
RTVSPropertyOp56
 70
     1
102
RTVSPropertyOp57
 70
     1
102
RTVSPropertyOp58
 70
     1
102
RTVSPropertyOp59
 70
     1
102
RTVSPropertyOp60
 70
     1
102
RTVSPropertyOp61
 70
     1
102
RTVSPropertyOp62
 70
     1
  0
XRECORD
  5
734
102
{ACAD_REACTORS
330
733
102
}
330
733
100
AcDbXrecord
280
     1
102
RTVSPost2010Prop28
280
     0
102
RTVSPost2010PropOp28
 70
     1
102
RTVSPost2010Prop29
280
     1
102
RTVSPost2010PropOp29
 70
     1
102
RTVSPost2010Prop30
280
     1
102
RTVSPost2010PropOp30
 70
     1
102
RTVSPost2010Prop31
280
     0
102
RTVSPost2010PropOp31
 70
     1
102
RTVSPost2010Prop32
280
     0
102
RTVSPost2010PropOp32
 70
     1
102
RTVSPost2010Prop33
280
     0
102
RTVSPost2010PropOp33
 70
     1
102
RTVSPost2010Prop34
280
     0
102
RTVSPost2010PropOp34
 70
     1
102
RTVSPost2010Prop35
280
     0
102
RTVSPost2010PropOp35
 70
     1
102
RTVSPost2010Prop36
280
     0
102
RTVSPost2010PropOp36
 70
     1
102
RTVSPost2010Prop37
 90
       50
102
RTVSPost2010PropOp37
 70
     1
102
RTVSPost2010Prop38
140
0.0
102
RTVSPost2010PropOp38
 70
     1
102
RTVSPost2010Prop39
140
1.0
102
RTVSPost2010PropOp39
 70
     1
102
RTVSPost2010Prop40
 90
        0
102
RTVSPost2010PropOp40
 70
     1
102
RTVSPost2010Prop41ColorIndex
 90
       18
102
RTVSPost2010Prop41ColorRGB
 90
        0
102
RTVSPost2010PropOp41
 70
     1
102
RTVSPost2010Prop42
 90
       50
102
RTVSPost2010PropOp42
 70
     1
102
RTVSPost2010Prop43
 90
        3
102
RTVSPost2010PropOp43
 70
     1
102
RTVSPost2010Prop44ColorIndex
 90
        5
102
RTVSPost2010Prop44ColorRGB
 90
      255
102
RTVSPost2010PropOp44
 70
     1
102
RTVSPost2010Prop45
280
     0
102
RTVSPost2010PropOp45
 70
     1
102
RTVSPost2010Prop46
 90
       50
102
RTVSPost2010PropOp46
 70
     1
102
RTVSPost2010Prop47
 90
       50
102
RTVSPost2010PropOp47
 70
     1
102
RTVSPost2010Prop48
 90
       50
102
RTVSPost2010PropOp48
 70
     1
102
RTVSPost2010Prop49
280
     0
102
RTVSPost2010PropOp49
 70
     1
102
RTVSPost2010Prop50
 90
       50
102
RTVSPost2010PropOp50
 70
     1
102
RTVSPost2010Prop51ColorIndex
 90
      256
102
RTVSPost2010Prop51ColorRGB
 90
-16777216
102
RTVSPost2010PropOp51
 70
     0
102
RTVSPost2010Prop52
140
1.0
102
RTVSPost2010PropOp52
 70
     0
102
RTVSPost2010Prop53
 90
        2
102
RTVSPost2010PropOp53
 70
     1
102
RTVSPost2010Prop54
  1
strokes_ogs.tif
102
RTVSPost2010PropOp54
 70
     1
102
RTVSPost2010Prop55
280
     0
102
RTVSPost2010PropOp55
 70
     1
102
RTVSPost2010Prop56
140
1.0
102
RTVSPost2010PropOp56
 70
     1
102
RTVSPost2010Prop57
140
1.0
102
RTVSPost2010PropOp57
 70
     1
102
RTVSPropertyOp0
 70
     1
102
RTVSPropertyOp1
 70
     1
102
RTVSPropertyOp2
 70
     1
102
RTVSPropertyOp3
 70
     1
102
RTVSPropertyOp4
 70
     1
102
RTVSPropertyOp5
 70
     1
102
RTVSPropertyOp6
 70
     1
102
RTVSPropertyOp7
 70
     1
102
RTVSPropertyOp8
 70
     1
102
RTVSPropertyOp9
 70
     1
102
RTVSPropertyOp10
 70
     1
102
RTVSPropertyOp11
 70
     1
102
RTVSPropertyOp12
 70
     1
102
RTVSPropertyOp13
 70
     1
102
RTVSPropertyOp14
 70
     1
102
RTVSPropertyOp15
 70
     1
102
RTVSPropertyOp16
 70
     1
102
RTVSPropertyOp17
 70
     1
102
RTVSPropertyOp18
 70
     1
102
RTVSPropertyOp19
 70
     1
102
RTVSPropertyOp20
 70
     1
102
RTVSPropertyOp21
 70
     1
102
RTVSPropertyOp22
 70
     1
102
RTVSPropertyOp23
 70
     1
102
RTVSPropertyOp24
 70
     1
102
RTVSPropertyOp25
 70
     1
102
RTVSPropertyOp26
 70
     1
102
RTVSPropertyOp27
 70
     1
102
RTVSPropertyOp28
 70
     1
102
RTVSPropertyOp29
 70
     1
102
RTVSPropertyOp30
 70
     1
102
RTVSPropertyOp31
 70
     1
102
RTVSPropertyOp32
 70
     1
102
RTVSPropertyOp33
 70
     1
102
RTVSPropertyOp34
 70
     1
102
RTVSPropertyOp35
 70
     1
102
RTVSPropertyOp36
 70
     1
102
RTVSPropertyOp37
 70
     1
102
RTVSPropertyOp38
 70
     1
102
RTVSPropertyOp39
 70
     1
102
RTVSPropertyOp40
 70
     1
102
RTVSPropertyOp41
 70
     1
102
RTVSPropertyOp42
 70
     1
102
RTVSPropertyOp43
 70
     1
102
RTVSPropertyOp44
 70
     1
102
RTVSPropertyOp45
 70
     1
102
RTVSPropertyOp46
 70
     1
102
RTVSPropertyOp47
 70
     1
102
RTVSPropertyOp48
 70
     1
102
RTVSPropertyOp49
 70
     1
102
RTVSPropertyOp50
 70
     1
102
RTVSPropertyOp51
 70
     0
102
RTVSPropertyOp52
 70
     0
102
RTVSPropertyOp53
 70
     1
102
RTVSPropertyOp54
 70
     1
102
RTVSPropertyOp55
 70
     1
102
RTVSPropertyOp56
 70
     1
102
RTVSPropertyOp57
 70
     1
102
RTVSPropertyOp58
 70
     1
102
RTVSPropertyOp59
 70
     1
102
RTVSPropertyOp60
 70
     1
102
RTVSPropertyOp61
 70
     1
102
RTVSPropertyOp62
 70
     1
  0
XRECORD
  5
744
102
{ACAD_REACTORS
330
743
102
}
330
743
100
AcDbXrecord
280
     1
102
RTVSPost2010Prop28
280
     0
102
RTVSPost2010PropOp28
 70
     1
102
RTVSPost2010Prop29
280
     1
102
RTVSPost2010PropOp29
 70
     1
102
RTVSPost2010Prop30
280
     1
102
RTVSPost2010PropOp30
 70
     1
102
RTVSPost2010Prop31
280
     0
102
RTVSPost2010PropOp31
 70
     1
102
RTVSPost2010Prop32
280
     0
102
RTVSPost2010PropOp32
 70
     1
102
RTVSPost2010Prop33
280
     0
102
RTVSPost2010PropOp33
 70
     1
102
RTVSPost2010Prop34
280
     0
102
RTVSPost2010PropOp34
 70
     1
102
RTVSPost2010Prop35
280
     0
102
RTVSPost2010PropOp35
 70
     1
102
RTVSPost2010Prop36
280
     0
102
RTVSPost2010PropOp36
 70
     1
102
RTVSPost2010Prop37
 90
       50
102
RTVSPost2010PropOp37
 70
     1
102
RTVSPost2010Prop38
140
0.0
102
RTVSPost2010PropOp38
 70
     1
102
RTVSPost2010Prop39
140
1.0
102
RTVSPost2010PropOp39
 70
     1
102
RTVSPost2010Prop40
 90
        0
102
RTVSPost2010PropOp40
 70
     1
102
RTVSPost2010Prop41ColorIndex
 90
       18
102
RTVSPost2010Prop41ColorRGB
 90
        0
102
RTVSPost2010PropOp41
 70
     1
102
RTVSPost2010Prop42
 90
       50
102
RTVSPost2010PropOp42
 70
     1
102
RTVSPost2010Prop43
 90
        3
102
RTVSPost2010PropOp43
 70
     1
102
RTVSPost2010Prop44ColorIndex
 90
        5
102
RTVSPost2010Prop44ColorRGB
 90
      255
102
RTVSPost2010PropOp44
 70
     1
102
RTVSPost2010Prop45
280
     0
102
RTVSPost2010PropOp45
 70
     1
102
RTVSPost2010Prop46
 90
       50
102
RTVSPost2010PropOp46
 70
     1
102
RTVSPost2010Prop47
 90
       50
102
RTVSPost2010PropOp47
 70
     1
102
RTVSPost2010Prop48
 90
       50
102
RTVSPost2010PropOp48
 70
     1
102
RTVSPost2010Prop49
280
     0
102
RTVSPost2010PropOp49
 70
     1
102
RTVSPost2010Prop50
 90
       50
102
RTVSPost2010PropOp50
 70
     1
102
RTVSPost2010Prop51ColorIndex
 90
      256
102
RTVSPost2010Prop51ColorRGB
 90
-16777216
102
RTVSPost2010PropOp51
 70
     0
102
RTVSPost2010Prop52
140
1.0
102
RTVSPost2010PropOp52
 70
     0
102
RTVSPost2010Prop53
 90
        2
102
RTVSPost2010PropOp53
 70
     1
102
RTVSPost2010Prop54
  1
strokes_ogs.tif
102
RTVSPost2010PropOp54
 70
     1
102
RTVSPost2010Prop55
280
     0
102
RTVSPost2010PropOp55
 70
     1
102
RTVSPost2010Prop56
140
1.0
102
RTVSPost2010PropOp56
 70
     1
102
RTVSPost2010Prop57
140
1.0
102
RTVSPost2010PropOp57
 70
     1
102
RTVSPropertyOp0
 70
     0
102
RTVSPropertyOp1
 70
     0
102
RTVSPropertyOp2
 70
     0
102
RTVSPropertyOp3
 70
     0
102
RTVSPropertyOp4
 70
     0
102
RTVSPropertyOp5
 70
     0
102
RTVSPropertyOp6
 70
     0
102
RTVSPropertyOp7
 70
     0
102
RTVSPropertyOp8
 70
     0
102
RTVSPropertyOp9
 70
     0
102
RTVSPropertyOp10
 70
     0
102
RTVSPropertyOp11
 70
     0
102
RTVSPropertyOp12
 70
     0
102
RTVSPropertyOp13
 70
     0
102
RTVSPropertyOp14
 70
     2
102
RTVSPropertyOp15
 70
     0
102
RTVSPropertyOp16
 70
     0
102
RTVSPropertyOp17
 70
     0
102
RTVSPropertyOp18
 70
     0
102
RTVSPropertyOp19
 70
     0
102
RTVSPropertyOp20
 70
     0
102
RTVSPropertyOp21
 70
     0
102
RTVSPropertyOp22
 70
     0
102
RTVSPropertyOp23
 70
     0
102
RTVSPropertyOp24
 70
     0
102
RTVSPropertyOp25
 70
     0
102
RTVSPropertyOp26
 70
     0
102
RTVSPropertyOp27
 70
     0
102
RTVSPropertyOp28
 70
     1
102
RTVSPropertyOp29
 70
     1
102
RTVSPropertyOp30
 70
     1
102
RTVSPropertyOp31
 70
     1
102
RTVSPropertyOp32
 70
     1
102
RTVSPropertyOp33
 70
     1
102
RTVSPropertyOp34
 70
     1
102
RTVSPropertyOp35
 70
     1
102
RTVSPropertyOp36
 70
     1
102
RTVSPropertyOp37
 70
     1
102
RTVSPropertyOp38
 70
     1
102
RTVSPropertyOp39
 70
     1
102
RTVSPropertyOp40
 70
     1
102
RTVSPropertyOp41
 70
     1
102
RTVSPropertyOp42
 70
     1
102
RTVSPropertyOp43
 70
     1
102
RTVSPropertyOp44
 70
     1
102
RTVSPropertyOp45
 70
     1
102
RTVSPropertyOp46
 70
     1
102
RTVSPropertyOp47
 70
     1
102
RTVSPropertyOp48
 70
     1
102
RTVSPropertyOp49
 70
     1
102
RTVSPropertyOp50
 70
     1
102
RTVSPropertyOp51
 70
     0
102
RTVSPropertyOp52
 70
     0
102
RTVSPropertyOp53
 70
     1
102
RTVSPropertyOp54
 70
     1
102
RTVSPropertyOp55
 70
     1
102
RTVSPropertyOp56
 70
     1
102
RTVSPropertyOp57
 70
     1
102
RTVSPropertyOp58
 70
     1
102
RTVSPropertyOp59
 70
     1
102
RTVSPropertyOp60
 70
     1
102
RTVSPropertyOp61
 70
     1
102
RTVSPropertyOp62
 70
     1
  0
XRECORD
  5
73C
102
{ACAD_REACTORS
330
73B
102
}
330
73B
100
AcDbXrecord
280
     1
102
RTVSPost2010Prop28
280
     0
102
RTVSPost2010PropOp28
 70
     1
102
RTVSPost2010Prop29
280
     1
102
RTVSPost2010PropOp29
 70
     1
102
RTVSPost2010Prop30
280
     1
102
RTVSPost2010PropOp30
 70
     1
102
RTVSPost2010Prop31
280
     0
102
RTVSPost2010PropOp31
 70
     1
102
RTVSPost2010Prop32
280
     0
102
RTVSPost2010PropOp32
 70
     1
102
RTVSPost2010Prop33
280
     0
102
RTVSPost2010PropOp33
 70
     1
102
RTVSPost2010Prop34
280
     0
102
RTVSPost2010PropOp34
 70
     1
102
RTVSPost2010Prop35
280
     0
102
RTVSPost2010PropOp35
 70
     1
102
RTVSPost2010Prop36
280
     0
102
RTVSPost2010PropOp36
 70
     1
102
RTVSPost2010Prop37
 90
       50
102
RTVSPost2010PropOp37
 70
     1
102
RTVSPost2010Prop38
140
0.0
102
RTVSPost2010PropOp38
 70
     1
102
RTVSPost2010Prop39
140
1.0
102
RTVSPost2010PropOp39
 70
     1
102
RTVSPost2010Prop40
 90
        0
102
RTVSPost2010PropOp40
 70
     1
102
RTVSPost2010Prop41ColorIndex
 90
       18
102
RTVSPost2010Prop41ColorRGB
 90
        0
102
RTVSPost2010PropOp41
 70
     1
102
RTVSPost2010Prop42
 90
       50
102
RTVSPost2010PropOp42
 70
     1
102
RTVSPost2010Prop43
 90
        3
102
RTVSPost2010PropOp43
 70
     1
102
RTVSPost2010Prop44ColorIndex
 90
        5
102
RTVSPost2010Prop44ColorRGB
 90
      255
102
RTVSPost2010PropOp44
 70
     1
102
RTVSPost2010Prop45
280
     0
102
RTVSPost2010PropOp45
 70
     1
102
RTVSPost2010Prop46
 90
       50
102
RTVSPost2010PropOp46
 70
     1
102
RTVSPost2010Prop47
 90
       50
102
RTVSPost2010PropOp47
 70
     1
102
RTVSPost2010Prop48
 90
       50
102
RTVSPost2010PropOp48
 70
     1
102
RTVSPost2010Prop49
280
     0
102
RTVSPost2010PropOp49
 70
     1
102
RTVSPost2010Prop50
 90
       50
102
RTVSPost2010PropOp50
 70
     1
102
RTVSPost2010Prop51ColorIndex
 90
      256
102
RTVSPost2010Prop51ColorRGB
 90
-16777216
102
RTVSPost2010PropOp51
 70
     0
102
RTVSPost2010Prop52
140
1.0
102
RTVSPost2010PropOp52
 70
     0
102
RTVSPost2010Prop53
 90
        2
102
RTVSPost2010PropOp53
 70
     1
102
RTVSPost2010Prop54
  1
strokes_ogs.tif
102
RTVSPost2010PropOp54
 70
     1
102
RTVSPost2010Prop55
280
     0
102
RTVSPost2010PropOp55
 70
     1
102
RTVSPost2010Prop56
140
1.0
102
RTVSPost2010PropOp56
 70
     1
102
RTVSPost2010Prop57
140
1.0
102
RTVSPost2010PropOp57
 70
     1
102
RTVSPropertyOp0
 70
     1
102
RTVSPropertyOp1
 70
     1
102
RTVSPropertyOp2
 70
     1
102
RTVSPropertyOp3
 70
     1
102
RTVSPropertyOp4
 70
     1
102
RTVSPropertyOp5
 70
     1
102
RTVSPropertyOp6
 70
     1
102
RTVSPropertyOp7
 70
     1
102
RTVSPropertyOp8
 70
     1
102
RTVSPropertyOp9
 70
     1
102
RTVSPropertyOp10
 70
     1
102
RTVSPropertyOp11
 70
     1
102
RTVSPropertyOp12
 70
     1
102
RTVSPropertyOp13
 70
     1
102
RTVSPropertyOp14
 70
     1
102
RTVSPropertyOp15
 70
     1
102
RTVSPropertyOp16
 70
     1
102
RTVSPropertyOp17
 70
     1
102
RTVSPropertyOp18
 70
     1
102
RTVSPropertyOp19
 70
     1
102
RTVSPropertyOp20
 70
     1
102
RTVSPropertyOp21
 70
     1
102
RTVSPropertyOp22
 70
     1
102
RTVSPropertyOp23
 70
     1
102
RTVSPropertyOp24
 70
     1
102
RTVSPropertyOp25
 70
     1
102
RTVSPropertyOp26
 70
     1
102
RTVSPropertyOp27
 70
     1
102
RTVSPropertyOp28
 70
     1
102
RTVSPropertyOp29
 70
     1
102
RTVSPropertyOp30
 70
     1
102
RTVSPropertyOp31
 70
     1
102
RTVSPropertyOp32
 70
     1
102
RTVSPropertyOp33
 70
     1
102
RTVSPropertyOp34
 70
     1
102
RTVSPropertyOp35
 70
     1
102
RTVSPropertyOp36
 70
     1
102
RTVSPropertyOp37
 70
     1
102
RTVSPropertyOp38
 70
     1
102
RTVSPropertyOp39
 70
     1
102
RTVSPropertyOp40
 70
     1
102
RTVSPropertyOp41
 70
     1
102
RTVSPropertyOp42
 70
     1
102
RTVSPropertyOp43
 70
     1
102
RTVSPropertyOp44
 70
     1
102
RTVSPropertyOp45
 70
     1
102
RTVSPropertyOp46
 70
     1
102
RTVSPropertyOp47
 70
     1
102
RTVSPropertyOp48
 70
     1
102
RTVSPropertyOp49
 70
     1
102
RTVSPropertyOp50
 70
     1
102
RTVSPropertyOp51
 70
     0
102
RTVSPropertyOp52
 70
     0
102
RTVSPropertyOp53
 70
     1
102
RTVSPropertyOp54
 70
     1
102
RTVSPropertyOp55
 70
     1
102
RTVSPropertyOp56
 70
     1
102
RTVSPropertyOp57
 70
     1
102
RTVSPropertyOp58
 70
     1
102
RTVSPropertyOp59
 70
     1
102
RTVSPropertyOp60
 70
     1
102
RTVSPropertyOp61
 70
     1
102
RTVSPropertyOp62
 70
     1
  0
XRECORD
  5
720
102
{ACAD_REACTORS
330
71F
102
}
330
71F
100
AcDbXrecord
280
     1
102
RTVSPost2010Prop28
280
     0
102
RTVSPost2010PropOp28
 70
     1
102
RTVSPost2010Prop29
280
     1
102
RTVSPost2010PropOp29
 70
     1
102
RTVSPost2010Prop30
280
     1
102
RTVSPost2010PropOp30
 70
     1
102
RTVSPost2010Prop31
280
     0
102
RTVSPost2010PropOp31
 70
     1
102
RTVSPost2010Prop32
280
     0
102
RTVSPost2010PropOp32
 70
     1
102
RTVSPost2010Prop33
280
     0
102
RTVSPost2010PropOp33
 70
     1
102
RTVSPost2010Prop34
280
     0
102
RTVSPost2010PropOp34
 70
     1
102
RTVSPost2010Prop35
280
     0
102
RTVSPost2010PropOp35
 70
     1
102
RTVSPost2010Prop36
280
     0
102
RTVSPost2010PropOp36
 70
     1
102
RTVSPost2010Prop37
 90
       50
102
RTVSPost2010PropOp37
 70
     1
102
RTVSPost2010Prop38
140
0.0
102
RTVSPost2010PropOp38
 70
     1
102
RTVSPost2010Prop39
140
1.0
102
RTVSPost2010PropOp39
 70
     1
102
RTVSPost2010Prop40
 90
        0
102
RTVSPost2010PropOp40
 70
     1
102
RTVSPost2010Prop41ColorIndex
 90
       18
102
RTVSPost2010Prop41ColorRGB
 90
        0
102
RTVSPost2010PropOp41
 70
     1
102
RTVSPost2010Prop42
 90
       50
102
RTVSPost2010PropOp42
 70
     1
102
RTVSPost2010Prop43
 90
        3
102
RTVSPost2010PropOp43
 70
     1
102
RTVSPost2010Prop44ColorIndex
 90
        5
102
RTVSPost2010Prop44ColorRGB
 90
      255
102
RTVSPost2010PropOp44
 70
     1
102
RTVSPost2010Prop45
280
     0
102
RTVSPost2010PropOp45
 70
     1
102
RTVSPost2010Prop46
 90
       50
102
RTVSPost2010PropOp46
 70
     1
102
RTVSPost2010Prop47
 90
       50
102
RTVSPost2010PropOp47
 70
     1
102
RTVSPost2010Prop48
 90
       50
102
RTVSPost2010PropOp48
 70
     1
102
RTVSPost2010Prop49
280
     0
102
RTVSPost2010PropOp49
 70
     1
102
RTVSPost2010Prop50
 90
       50
102
RTVSPost2010PropOp50
 70
     1
102
RTVSPost2010Prop51ColorIndex
 90
      256
102
RTVSPost2010Prop51ColorRGB
 90
-16777216
102
RTVSPost2010PropOp51
 70
     0
102
RTVSPost2010Prop52
140
1.0
102
RTVSPost2010PropOp52
 70
     0
102
RTVSPost2010Prop53
 90
        2
102
RTVSPost2010PropOp53
 70
     1
102
RTVSPost2010Prop54
  1
strokes_ogs.tif
102
RTVSPost2010PropOp54
 70
     1
102
RTVSPost2010Prop55
280
     0
102
RTVSPost2010PropOp55
 70
     1
102
RTVSPost2010Prop56
140
1.0
102
RTVSPost2010PropOp56
 70
     1
102
RTVSPost2010Prop57
140
1.0
102
RTVSPost2010PropOp57
 70
     1
102
RTVSPropertyOp0
 70
     1
102
RTVSPropertyOp1
 70
     1
102
RTVSPropertyOp2
 70
     1
102
RTVSPropertyOp3
 70
     1
102
RTVSPropertyOp4
 70
     1
102
RTVSPropertyOp5
 70
     1
102
RTVSPropertyOp6
 70
     1
102
RTVSPropertyOp7
 70
     1
102
RTVSPropertyOp8
 70
     1
102
RTVSPropertyOp9
 70
     1
102
RTVSPropertyOp10
 70
     1
102
RTVSPropertyOp11
 70
     1
102
RTVSPropertyOp12
 70
     1
102
RTVSPropertyOp13
 70
     1
102
RTVSPropertyOp14
 70
     1
102
RTVSPropertyOp15
 70
     1
102
RTVSPropertyOp16
 70
     1
102
RTVSPropertyOp17
 70
     1
102
RTVSPropertyOp18
 70
     1
102
RTVSPropertyOp19
 70
     1
102
RTVSPropertyOp20
 70
     1
102
RTVSPropertyOp21
 70
     1
102
RTVSPropertyOp22
 70
     1
102
RTVSPropertyOp23
 70
     1
102
RTVSPropertyOp24
 70
     1
102
RTVSPropertyOp25
 70
     1
102
RTVSPropertyOp26
 70
     1
102
RTVSPropertyOp27
 70
     1
102
RTVSPropertyOp28
 70
     1
102
RTVSPropertyOp29
 70
     1
102
RTVSPropertyOp30
 70
     1
102
RTVSPropertyOp31
 70
     1
102
RTVSPropertyOp32
 70
     1
102
RTVSPropertyOp33
 70
     1
102
RTVSPropertyOp34
 70
     1
102
RTVSPropertyOp35
 70
     1
102
RTVSPropertyOp36
 70
     1
102
RTVSPropertyOp37
 70
     1
102
RTVSPropertyOp38
 70
     1
102
RTVSPropertyOp39
 70
     1
102
RTVSPropertyOp40
 70
     1
102
RTVSPropertyOp41
 70
     1
102
RTVSPropertyOp42
 70
     1
102
RTVSPropertyOp43
 70
     1
102
RTVSPropertyOp44
 70
     1
102
RTVSPropertyOp45
 70
     1
102
RTVSPropertyOp46
 70
     1
102
RTVSPropertyOp47
 70
     1
102
RTVSPropertyOp48
 70
     1
102
RTVSPropertyOp49
 70
     1
102
RTVSPropertyOp50
 70
     1
102
RTVSPropertyOp51
 70
     0
102
RTVSPropertyOp52
 70
     0
102
RTVSPropertyOp53
 70
     1
102
RTVSPropertyOp54
 70
     1
102
RTVSPropertyOp55
 70
     1
102
RTVSPropertyOp56
 70
     1
102
RTVSPropertyOp57
 70
     1
102
RTVSPropertyOp58
 70
     1
102
RTVSPropertyOp59
 70
     1
102
RTVSPropertyOp60
 70
     1
102
RTVSPropertyOp61
 70
     1
102
RTVSPropertyOp62
 70
     1
  0
XRECORD
  5
722
102
{ACAD_REACTORS
330
721
102
}
330
721
100
AcDbXrecord
280
     1
102
RTVSPost2010Prop28
280
     0
102
RTVSPost2010PropOp28
 70
     1
102
RTVSPost2010Prop29
280
     1
102
RTVSPost2010PropOp29
 70
     1
102
RTVSPost2010Prop30
280
     1
102
RTVSPost2010PropOp30
 70
     1
102
RTVSPost2010Prop31
280
     0
102
RTVSPost2010PropOp31
 70
     1
102
RTVSPost2010Prop32
280
     0
102
RTVSPost2010PropOp32
 70
     1
102
RTVSPost2010Prop33
280
     0
102
RTVSPost2010PropOp33
 70
     1
102
RTVSPost2010Prop34
280
     0
102
RTVSPost2010PropOp34
 70
     1
102
RTVSPost2010Prop35
280
     0
102
RTVSPost2010PropOp35
 70
     1
102
RTVSPost2010Prop36
280
     0
102
RTVSPost2010PropOp36
 70
     1
102
RTVSPost2010Prop37
 90
       50
102
RTVSPost2010PropOp37
 70
     1
102
RTVSPost2010Prop38
140
0.0
102
RTVSPost2010PropOp38
 70
     1
102
RTVSPost2010Prop39
140
1.0
102
RTVSPost2010PropOp39
 70
     1
102
RTVSPost2010Prop40
 90
        0
102
RTVSPost2010PropOp40
 70
     1
102
RTVSPost2010Prop41ColorIndex
 90
       18
102
RTVSPost2010Prop41ColorRGB
 90
        0
102
RTVSPost2010PropOp41
 70
     1
102
RTVSPost2010Prop42
 90
       50
102
RTVSPost2010PropOp42
 70
     1
102
RTVSPost2010Prop43
 90
        3
102
RTVSPost2010PropOp43
 70
     1
102
RTVSPost2010Prop44ColorIndex
 90
        5
102
RTVSPost2010Prop44ColorRGB
 90
      255
102
RTVSPost2010PropOp44
 70
     1
102
RTVSPost2010Prop45
280
     0
102
RTVSPost2010PropOp45
 70
     1
102
RTVSPost2010Prop46
 90
       50
102
RTVSPost2010PropOp46
 70
     1
102
RTVSPost2010Prop47
 90
       50
102
RTVSPost2010PropOp47
 70
     1
102
RTVSPost2010Prop48
 90
       50
102
RTVSPost2010PropOp48
 70
     1
102
RTVSPost2010Prop49
280
     0
102
RTVSPost2010PropOp49
 70
     1
102
RTVSPost2010Prop50
 90
       50
102
RTVSPost2010PropOp50
 70
     1
102
RTVSPost2010Prop51ColorIndex
 90
      256
102
RTVSPost2010Prop51ColorRGB
 90
-16777216
102
RTVSPost2010PropOp51
 70
     0
102
RTVSPost2010Prop52
140
1.0
102
RTVSPost2010PropOp52
 70
     0
102
RTVSPost2010Prop53
 90
        2
102
RTVSPost2010PropOp53
 70
     1
102
RTVSPost2010Prop54
  1
strokes_ogs.tif
102
RTVSPost2010PropOp54
 70
     1
102
RTVSPost2010Prop55
280
     0
102
RTVSPost2010PropOp55
 70
     1
102
RTVSPost2010Prop56
140
1.0
102
RTVSPost2010PropOp56
 70
     1
102
RTVSPost2010Prop57
140
1.0
102
RTVSPost2010PropOp57
 70
     1
102
RTVSPropertyOp0
 70
     1
102
RTVSPropertyOp1
 70
     1
102
RTVSPropertyOp2
 70
     1
102
RTVSPropertyOp3
 70
     1
102
RTVSPropertyOp4
 70
     1
102
RTVSPropertyOp5
 70
     1
102
RTVSPropertyOp6
 70
     1
102
RTVSPropertyOp7
 70
     1
102
RTVSPropertyOp8
 70
     1
102
RTVSPropertyOp9
 70
     1
102
RTVSPropertyOp10
 70
     1
102
RTVSPropertyOp11
 70
     1
102
RTVSPropertyOp12
 70
     1
102
RTVSPropertyOp13
 70
     1
102
RTVSPropertyOp14
 70
     1
102
RTVSPropertyOp15
 70
     1
102
RTVSPropertyOp16
 70
     1
102
RTVSPropertyOp17
 70
     1
102
RTVSPropertyOp18
 70
     1
102
RTVSPropertyOp19
 70
     1
102
RTVSPropertyOp20
 70
     1
102
RTVSPropertyOp21
 70
     1
102
RTVSPropertyOp22
 70
     1
102
RTVSPropertyOp23
 70
     1
102
RTVSPropertyOp24
 70
     1
102
RTVSPropertyOp25
 70
     1
102
RTVSPropertyOp26
 70
     1
102
RTVSPropertyOp27
 70
     1
102
RTVSPropertyOp28
 70
     1
102
RTVSPropertyOp29
 70
     1
102
RTVSPropertyOp30
 70
     1
102
RTVSPropertyOp31
 70
     1
102
RTVSPropertyOp32
 70
     1
102
RTVSPropertyOp33
 70
     1
102
RTVSPropertyOp34
 70
     1
102
RTVSPropertyOp35
 70
     1
102
RTVSPropertyOp36
 70
     1
102
RTVSPropertyOp37
 70
     1
102
RTVSPropertyOp38
 70
     1
102
RTVSPropertyOp39
 70
     1
102
RTVSPropertyOp40
 70
     1
102
RTVSPropertyOp41
 70
     1
102
RTVSPropertyOp42
 70
     1
102
RTVSPropertyOp43
 70
     1
102
RTVSPropertyOp44
 70
     1
102
RTVSPropertyOp45
 70
     1
102
RTVSPropertyOp46
 70
     1
102
RTVSPropertyOp47
 70
     1
102
RTVSPropertyOp48
 70
     1
102
RTVSPropertyOp49
 70
     1
102
RTVSPropertyOp50
 70
     1
102
RTVSPropertyOp51
 70
     0
102
RTVSPropertyOp52
 70
     0
102
RTVSPropertyOp53
 70
     1
102
RTVSPropertyOp54
 70
     1
102
RTVSPropertyOp55
 70
     1
102
RTVSPropertyOp56
 70
     1
102
RTVSPropertyOp57
 70
     1
102
RTVSPropertyOp58
 70
     1
102
RTVSPropertyOp59
 70
     1
102
RTVSPropertyOp60
 70
     1
102
RTVSPropertyOp61
 70
     1
102
RTVSPropertyOp62
 70
     1
  0
XRECORD
  5
724
102
{ACAD_REACTORS
330
723
102
}
330
723
100
AcDbXrecord
280
     1
102
RTVSPost2010Prop28
280
     0
102
RTVSPost2010PropOp28
 70
     1
102
RTVSPost2010Prop29
280
     1
102
RTVSPost2010PropOp29
 70
     1
102
RTVSPost2010Prop30
280
     1
102
RTVSPost2010PropOp30
 70
     1
102
RTVSPost2010Prop31
280
     0
102
RTVSPost2010PropOp31
 70
     1
102
RTVSPost2010Prop32
280
     0
102
RTVSPost2010PropOp32
 70
     1
102
RTVSPost2010Prop33
280
     0
102
RTVSPost2010PropOp33
 70
     1
102
RTVSPost2010Prop34
280
     0
102
RTVSPost2010PropOp34
 70
     1
102
RTVSPost2010Prop35
280
     0
102
RTVSPost2010PropOp35
 70
     1
102
RTVSPost2010Prop36
280
     0
102
RTVSPost2010PropOp36
 70
     1
102
RTVSPost2010Prop37
 90
       50
102
RTVSPost2010PropOp37
 70
     1
102
RTVSPost2010Prop38
140
0.0
102
RTVSPost2010PropOp38
 70
     1
102
RTVSPost2010Prop39
140
1.0
102
RTVSPost2010PropOp39
 70
     1
102
RTVSPost2010Prop40
 90
        0
102
RTVSPost2010PropOp40
 70
     1
102
RTVSPost2010Prop41ColorIndex
 90
       18
102
RTVSPost2010Prop41ColorRGB
 90
        0
102
RTVSPost2010PropOp41
 70
     1
102
RTVSPost2010Prop42
 90
       50
102
RTVSPost2010PropOp42
 70
     1
102
RTVSPost2010Prop43
 90
        3
102
RTVSPost2010PropOp43
 70
     1
102
RTVSPost2010Prop44ColorIndex
 90
        5
102
RTVSPost2010Prop44ColorRGB
 90
      255
102
RTVSPost2010PropOp44
 70
     1
102
RTVSPost2010Prop45
280
     0
102
RTVSPost2010PropOp45
 70
     1
102
RTVSPost2010Prop46
 90
       50
102
RTVSPost2010PropOp46
 70
     1
102
RTVSPost2010Prop47
 90
       50
102
RTVSPost2010PropOp47
 70
     1
102
RTVSPost2010Prop48
 90
       50
102
RTVSPost2010PropOp48
 70
     1
102
RTVSPost2010Prop49
280
     0
102
RTVSPost2010PropOp49
 70
     1
102
RTVSPost2010Prop50
 90
       50
102
RTVSPost2010PropOp50
 70
     1
102
RTVSPost2010Prop51ColorIndex
 90
      256
102
RTVSPost2010Prop51ColorRGB
 90
-16777216
102
RTVSPost2010PropOp51
 70
     0
102
RTVSPost2010Prop52
140
1.0
102
RTVSPost2010PropOp52
 70
     0
102
RTVSPost2010Prop53
 90
        2
102
RTVSPost2010PropOp53
 70
     1
102
RTVSPost2010Prop54
  1
strokes_ogs.tif
102
RTVSPost2010PropOp54
 70
     1
102
RTVSPost2010Prop55
280
     0
102
RTVSPost2010PropOp55
 70
     1
102
RTVSPost2010Prop56
140
1.0
102
RTVSPost2010PropOp56
 70
     1
102
RTVSPost2010Prop57
140
1.0
102
RTVSPost2010PropOp57
 70
     1
102
RTVSPropertyOp0
 70
     1
102
RTVSPropertyOp1
 70
     1
102
RTVSPropertyOp2
 70
     1
102
RTVSPropertyOp3
 70
     1
102
RTVSPropertyOp4
 70
     1
102
RTVSPropertyOp5
 70
     1
102
RTVSPropertyOp6
 70
     1
102
RTVSPropertyOp7
 70
     1
102
RTVSPropertyOp8
 70
     1
102
RTVSPropertyOp9
 70
     1
102
RTVSPropertyOp10
 70
     1
102
RTVSPropertyOp11
 70
     1
102
RTVSPropertyOp12
 70
     1
102
RTVSPropertyOp13
 70
     1
102
RTVSPropertyOp14
 70
     1
102
RTVSPropertyOp15
 70
     1
102
RTVSPropertyOp16
 70
     1
102
RTVSPropertyOp17
 70
     1
102
RTVSPropertyOp18
 70
     1
102
RTVSPropertyOp19
 70
     1
102
RTVSPropertyOp20
 70
     1
102
RTVSPropertyOp21
 70
     1
102
RTVSPropertyOp22
 70
     1
102
RTVSPropertyOp23
 70
     1
102
RTVSPropertyOp24
 70
     1
102
RTVSPropertyOp25
 70
     1
102
RTVSPropertyOp26
 70
     1
102
RTVSPropertyOp27
 70
     1
102
RTVSPropertyOp28
 70
     1
102
RTVSPropertyOp29
 70
     1
102
RTVSPropertyOp30
 70
     1
102
RTVSPropertyOp31
 70
     1
102
RTVSPropertyOp32
 70
     1
102
RTVSPropertyOp33
 70
     1
102
RTVSPropertyOp34
 70
     1
102
RTVSPropertyOp35
 70
     1
102
RTVSPropertyOp36
 70
     1
102
RTVSPropertyOp37
 70
     1
102
RTVSPropertyOp38
 70
     1
102
RTVSPropertyOp39
 70
     1
102
RTVSPropertyOp40
 70
     1
102
RTVSPropertyOp41
 70
     1
102
RTVSPropertyOp42
 70
     1
102
RTVSPropertyOp43
 70
     1
102
RTVSPropertyOp44
 70
     1
102
RTVSPropertyOp45
 70
     1
102
RTVSPropertyOp46
 70
     1
102
RTVSPropertyOp47
 70
     1
102
RTVSPropertyOp48
 70
     1
102
RTVSPropertyOp49
 70
     1
102
RTVSPropertyOp50
 70
     1
102
RTVSPropertyOp51
 70
     0
102
RTVSPropertyOp52
 70
     0
102
RTVSPropertyOp53
 70
     1
102
RTVSPropertyOp54
 70
     1
102
RTVSPropertyOp55
 70
     1
102
RTVSPropertyOp56
 70
     1
102
RTVSPropertyOp57
 70
     1
102
RTVSPropertyOp58
 70
     1
102
RTVSPropertyOp59
 70
     1
102
RTVSPropertyOp60
 70
     1
102
RTVSPropertyOp61
 70
     1
102
RTVSPropertyOp62
 70
     1
  0
XRECORD
  5
726
102
{ACAD_REACTORS
330
725
102
}
330
725
100
AcDbXrecord
280
     1
102
RTVSPost2010Prop28
280
     0
102
RTVSPost2010PropOp28
 70
     1
102
RTVSPost2010Prop29
280
     1
102
RTVSPost2010PropOp29
 70
     1
102
RTVSPost2010Prop30
280
     1
102
RTVSPost2010PropOp30
 70
     1
102
RTVSPost2010Prop31
280
     0
102
RTVSPost2010PropOp31
 70
     1
102
RTVSPost2010Prop32
280
     0
102
RTVSPost2010PropOp32
 70
     1
102
RTVSPost2010Prop33
280
     0
102
RTVSPost2010PropOp33
 70
     1
102
RTVSPost2010Prop34
280
     0
102
RTVSPost2010PropOp34
 70
     1
102
RTVSPost2010Prop35
280
     0
102
RTVSPost2010PropOp35
 70
     1
102
RTVSPost2010Prop36
280
     0
102
RTVSPost2010PropOp36
 70
     1
102
RTVSPost2010Prop37
 90
       50
102
RTVSPost2010PropOp37
 70
     1
102
RTVSPost2010Prop38
140
0.0
102
RTVSPost2010PropOp38
 70
     1
102
RTVSPost2010Prop39
140
1.0
102
RTVSPost2010PropOp39
 70
     1
102
RTVSPost2010Prop40
 90
        0
102
RTVSPost2010PropOp40
 70
     1
102
RTVSPost2010Prop41ColorIndex
 90
       18
102
RTVSPost2010Prop41ColorRGB
 90
        0
102
RTVSPost2010PropOp41
 70
     1
102
RTVSPost2010Prop42
 90
       50
102
RTVSPost2010PropOp42
 70
     1
102
RTVSPost2010Prop43
 90
        3
102
RTVSPost2010PropOp43
 70
     1
102
RTVSPost2010Prop44ColorIndex
 90
        5
102
RTVSPost2010Prop44ColorRGB
 90
      255
102
RTVSPost2010PropOp44
 70
     1
102
RTVSPost2010Prop45
280
     0
102
RTVSPost2010PropOp45
 70
     1
102
RTVSPost2010Prop46
 90
       50
102
RTVSPost2010PropOp46
 70
     1
102
RTVSPost2010Prop47
 90
       50
102
RTVSPost2010PropOp47
 70
     1
102
RTVSPost2010Prop48
 90
       50
102
RTVSPost2010PropOp48
 70
     1
102
RTVSPost2010Prop49
280
     0
102
RTVSPost2010PropOp49
 70
     1
102
RTVSPost2010Prop50
 90
       50
102
RTVSPost2010PropOp50
 70
     1
102
RTVSPost2010Prop51ColorIndex
 90
      256
102
RTVSPost2010Prop51ColorRGB
 90
-16777216
102
RTVSPost2010PropOp51
 70
     0
102
RTVSPost2010Prop52
140
1.0
102
RTVSPost2010PropOp52
 70
     0
102
RTVSPost2010Prop53
 90
        2
102
RTVSPost2010PropOp53
 70
     1
102
RTVSPost2010Prop54
  1
strokes_ogs.tif
102
RTVSPost2010PropOp54
 70
     1
102
RTVSPost2010Prop55
280
     0
102
RTVSPost2010PropOp55
 70
     1
102
RTVSPost2010Prop56
140
1.0
102
RTVSPost2010PropOp56
 70
     1
102
RTVSPost2010Prop57
140
1.0
102
RTVSPost2010PropOp57
 70
     1
102
RTVSPropertyOp0
 70
     1
102
RTVSPropertyOp1
 70
     1
102
RTVSPropertyOp2
 70
     1
102
RTVSPropertyOp3
 70
     1
102
RTVSPropertyOp4
 70
     1
102
RTVSPropertyOp5
 70
     1
102
RTVSPropertyOp6
 70
     1
102
RTVSPropertyOp7
 70
     1
102
RTVSPropertyOp8
 70
     1
102
RTVSPropertyOp9
 70
     1
102
RTVSPropertyOp10
 70
     1
102
RTVSPropertyOp11
 70
     1
102
RTVSPropertyOp12
 70
     1
102
RTVSPropertyOp13
 70
     1
102
RTVSPropertyOp14
 70
     1
102
RTVSPropertyOp15
 70
     1
102
RTVSPropertyOp16
 70
     1
102
RTVSPropertyOp17
 70
     1
102
RTVSPropertyOp18
 70
     1
102
RTVSPropertyOp19
 70
     1
102
RTVSPropertyOp20
 70
     1
102
RTVSPropertyOp21
 70
     1
102
RTVSPropertyOp22
 70
     1
102
RTVSPropertyOp23
 70
     1
102
RTVSPropertyOp24
 70
     1
102
RTVSPropertyOp25
 70
     1
102
RTVSPropertyOp26
 70
     1
102
RTVSPropertyOp27
 70
     1
102
RTVSPropertyOp28
 70
     1
102
RTVSPropertyOp29
 70
     1
102
RTVSPropertyOp30
 70
     1
102
RTVSPropertyOp31
 70
     1
102
RTVSPropertyOp32
 70
     1
102
RTVSPropertyOp33
 70
     1
102
RTVSPropertyOp34
 70
     1
102
RTVSPropertyOp35
 70
     1
102
RTVSPropertyOp36
 70
     1
102
RTVSPropertyOp37
 70
     1
102
RTVSPropertyOp38
 70
     1
102
RTVSPropertyOp39
 70
     1
102
RTVSPropertyOp40
 70
     1
102
RTVSPropertyOp41
 70
     1
102
RTVSPropertyOp42
 70
     1
102
RTVSPropertyOp43
 70
     1
102
RTVSPropertyOp44
 70
     1
102
RTVSPropertyOp45
 70
     1
102
RTVSPropertyOp46
 70
     1
102
RTVSPropertyOp47
 70
     1
102
RTVSPropertyOp48
 70
     1
102
RTVSPropertyOp49
 70
     1
102
RTVSPropertyOp50
 70
     1
102
RTVSPropertyOp51
 70
     0
102
RTVSPropertyOp52
 70
     0
102
RTVSPropertyOp53
 70
     1
102
RTVSPropertyOp54
 70
     1
102
RTVSPropertyOp55
 70
     1
102
RTVSPropertyOp56
 70
     1
102
RTVSPropertyOp57
 70
     1
102
RTVSPropertyOp58
 70
     1
102
RTVSPropertyOp59
 70
     1
102
RTVSPropertyOp60
 70
     1
102
RTVSPropertyOp61
 70
     1
102
RTVSPropertyOp62
 70
     1
  0
XRECORD
  5
72E
102
{ACAD_REACTORS
330
72D
102
}
330
72D
100
AcDbXrecord
280
     1
102
RTVSPost2010Prop28
280
     0
102
RTVSPost2010PropOp28
 70
     1
102
RTVSPost2010Prop29
280
     1
102
RTVSPost2010PropOp29
 70
     1
102
RTVSPost2010Prop30
280
     1
102
RTVSPost2010PropOp30
 70
     1
102
RTVSPost2010Prop31
280
     0
102
RTVSPost2010PropOp31
 70
     1
102
RTVSPost2010Prop32
280
     0
102
RTVSPost2010PropOp32
 70
     1
102
RTVSPost2010Prop33
280
     0
102
RTVSPost2010PropOp33
 70
     1
102
RTVSPost2010Prop34
280
     0
102
RTVSPost2010PropOp34
 70
     1
102
RTVSPost2010Prop35
280
     0
102
RTVSPost2010PropOp35
 70
     1
102
RTVSPost2010Prop36
280
     0
102
RTVSPost2010PropOp36
 70
     1
102
RTVSPost2010Prop37
 90
       50
102
RTVSPost2010PropOp37
 70
     1
102
RTVSPost2010Prop38
140
0.0
102
RTVSPost2010PropOp38
 70
     1
102
RTVSPost2010Prop39
140
1.0
102
RTVSPost2010PropOp39
 70
     1
102
RTVSPost2010Prop40
 90
        0
102
RTVSPost2010PropOp40
 70
     1
102
RTVSPost2010Prop41ColorIndex
 90
       18
102
RTVSPost2010Prop41ColorRGB
 90
        0
102
RTVSPost2010PropOp41
 70
     1
102
RTVSPost2010Prop42
 90
       50
102
RTVSPost2010PropOp42
 70
     1
102
RTVSPost2010Prop43
 90
        3
102
RTVSPost2010PropOp43
 70
     1
102
RTVSPost2010Prop44ColorIndex
 90
        5
102
RTVSPost2010Prop44ColorRGB
 90
      255
102
RTVSPost2010PropOp44
 70
     1
102
RTVSPost2010Prop45
280
     0
102
RTVSPost2010PropOp45
 70
     1
102
RTVSPost2010Prop46
 90
       50
102
RTVSPost2010PropOp46
 70
     1
102
RTVSPost2010Prop47
 90
       50
102
RTVSPost2010PropOp47
 70
     1
102
RTVSPost2010Prop48
 90
       50
102
RTVSPost2010PropOp48
 70
     1
102
RTVSPost2010Prop49
280
     0
102
RTVSPost2010PropOp49
 70
     1
102
RTVSPost2010Prop50
 90
       50
102
RTVSPost2010PropOp50
 70
     1
102
RTVSPost2010Prop51ColorIndex
 90
      256
102
RTVSPost2010Prop51ColorRGB
 90
-16777216
102
RTVSPost2010PropOp51
 70
     0
102
RTVSPost2010Prop52
140
1.0
102
RTVSPost2010PropOp52
 70
     0
102
RTVSPost2010Prop53
 90
        2
102
RTVSPost2010PropOp53
 70
     1
102
RTVSPost2010Prop54
  1
strokes_ogs.tif
102
RTVSPost2010PropOp54
 70
     1
102
RTVSPost2010Prop55
280
     0
102
RTVSPost2010PropOp55
 70
     1
102
RTVSPost2010Prop56
140
1.0
102
RTVSPost2010PropOp56
 70
     1
102
RTVSPost2010Prop57
140
1.0
102
RTVSPost2010PropOp57
 70
     1
102
RTVSPropertyOp0
 70
     1
102
RTVSPropertyOp1
 70
     1
102
RTVSPropertyOp2
 70
     1
102
RTVSPropertyOp3
 70
     1
102
RTVSPropertyOp4
 70
     1
102
RTVSPropertyOp5
 70
     1
102
RTVSPropertyOp6
 70
     1
102
RTVSPropertyOp7
 70
     1
102
RTVSPropertyOp8
 70
     1
102
RTVSPropertyOp9
 70
     1
102
RTVSPropertyOp10
 70
     1
102
RTVSPropertyOp11
 70
     1
102
RTVSPropertyOp12
 70
     1
102
RTVSPropertyOp13
 70
     1
102
RTVSPropertyOp14
 70
     1
102
RTVSPropertyOp15
 70
     1
102
RTVSPropertyOp16
 70
     1
102
RTVSPropertyOp17
 70
     1
102
RTVSPropertyOp18
 70
     1
102
RTVSPropertyOp19
 70
     1
102
RTVSPropertyOp20
 70
     1
102
RTVSPropertyOp21
 70
     1
102
RTVSPropertyOp22
 70
     1
102
RTVSPropertyOp23
 70
     1
102
RTVSPropertyOp24
 70
     1
102
RTVSPropertyOp25
 70
     1
102
RTVSPropertyOp26
 70
     1
102
RTVSPropertyOp27
 70
     1
102
RTVSPropertyOp28
 70
     1
102
RTVSPropertyOp29
 70
     1
102
RTVSPropertyOp30
 70
     1
102
RTVSPropertyOp31
 70
     1
102
RTVSPropertyOp32
 70
     1
102
RTVSPropertyOp33
 70
     1
102
RTVSPropertyOp34
 70
     1
102
RTVSPropertyOp35
 70
     1
102
RTVSPropertyOp36
 70
     1
102
RTVSPropertyOp37
 70
     1
102
RTVSPropertyOp38
 70
     1
102
RTVSPropertyOp39
 70
     1
102
RTVSPropertyOp40
 70
     1
102
RTVSPropertyOp41
 70
     1
102
RTVSPropertyOp42
 70
     1
102
RTVSPropertyOp43
 70
     1
102
RTVSPropertyOp44
 70
     1
102
RTVSPropertyOp45
 70
     1
102
RTVSPropertyOp46
 70
     1
102
RTVSPropertyOp47
 70
     1
102
RTVSPropertyOp48
 70
     1
102
RTVSPropertyOp49
 70
     1
102
RTVSPropertyOp50
 70
     1
102
RTVSPropertyOp51
 70
     0
102
RTVSPropertyOp52
 70
     0
102
RTVSPropertyOp53
 70
     1
102
RTVSPropertyOp54
 70
     1
102
RTVSPropertyOp55
 70
     1
102
RTVSPropertyOp56
 70
     1
102
RTVSPropertyOp57
 70
     1
102
RTVSPropertyOp58
 70
     1
102
RTVSPropertyOp59
 70
     1
102
RTVSPropertyOp60
 70
     1
102
RTVSPropertyOp61
 70
     1
102
RTVSPropertyOp62
 70
     1
  0
XRECORD
  5
740
102
{ACAD_REACTORS
330
73F
102
}
330
73F
100
AcDbXrecord
280
     1
102
RTVSPost2010Prop28
280
     0
102
RTVSPost2010PropOp28
 70
     1
102
RTVSPost2010Prop29
280
     1
102
RTVSPost2010PropOp29
 70
     1
102
RTVSPost2010Prop30
280
     1
102
RTVSPost2010PropOp30
 70
     1
102
RTVSPost2010Prop31
280
     0
102
RTVSPost2010PropOp31
 70
     1
102
RTVSPost2010Prop32
280
     0
102
RTVSPost2010PropOp32
 70
     1
102
RTVSPost2010Prop33
280
     0
102
RTVSPost2010PropOp33
 70
     1
102
RTVSPost2010Prop34
280
     0
102
RTVSPost2010PropOp34
 70
     1
102
RTVSPost2010Prop35
280
     0
102
RTVSPost2010PropOp35
 70
     1
102
RTVSPost2010Prop36
280
     0
102
RTVSPost2010PropOp36
 70
     1
102
RTVSPost2010Prop37
 90
       50
102
RTVSPost2010PropOp37
 70
     1
102
RTVSPost2010Prop38
140
0.0
102
RTVSPost2010PropOp38
 70
     1
102
RTVSPost2010Prop39
140
1.0
102
RTVSPost2010PropOp39
 70
     1
102
RTVSPost2010Prop40
 90
        0
102
RTVSPost2010PropOp40
 70
     1
102
RTVSPost2010Prop41ColorIndex
 90
       18
102
RTVSPost2010Prop41ColorRGB
 90
        0
102
RTVSPost2010PropOp41
 70
     1
102
RTVSPost2010Prop42
 90
       50
102
RTVSPost2010PropOp42
 70
     1
102
RTVSPost2010Prop43
 90
        3
102
RTVSPost2010PropOp43
 70
     1
102
RTVSPost2010Prop44ColorIndex
 90
        5
102
RTVSPost2010Prop44ColorRGB
 90
      255
102
RTVSPost2010PropOp44
 70
     1
102
RTVSPost2010Prop45
280
     0
102
RTVSPost2010PropOp45
 70
     1
102
RTVSPost2010Prop46
 90
       50
102
RTVSPost2010PropOp46
 70
     1
102
RTVSPost2010Prop47
 90
       50
102
RTVSPost2010PropOp47
 70
     1
102
RTVSPost2010Prop48
 90
       50
102
RTVSPost2010PropOp48
 70
     1
102
RTVSPost2010Prop49
280
     0
102
RTVSPost2010PropOp49
 70
     1
102
RTVSPost2010Prop50
 90
       50
102
RTVSPost2010PropOp50
 70
     1
102
RTVSPost2010Prop51ColorIndex
 90
      256
102
RTVSPost2010Prop51ColorRGB
 90
-16777216
102
RTVSPost2010PropOp51
 70
     0
102
RTVSPost2010Prop52
140
1.0
102
RTVSPost2010PropOp52
 70
     0
102
RTVSPost2010Prop53
 90
        2
102
RTVSPost2010PropOp53
 70
     1
102
RTVSPost2010Prop54
  1
strokes_ogs.tif
102
RTVSPost2010PropOp54
 70
     1
102
RTVSPost2010Prop55
280
     0
102
RTVSPost2010PropOp55
 70
     1
102
RTVSPost2010Prop56
140
1.0
102
RTVSPost2010PropOp56
 70
     1
102
RTVSPost2010Prop57
140
1.0
102
RTVSPost2010PropOp57
 70
     1
102
RTVSPropertyOp0
 70
     0
102
RTVSPropertyOp1
 70
     0
102
RTVSPropertyOp2
 70
     0
102
RTVSPropertyOp3
 70
     0
102
RTVSPropertyOp4
 70
     0
102
RTVSPropertyOp5
 70
     0
102
RTVSPropertyOp6
 70
     0
102
RTVSPropertyOp7
 70
     0
102
RTVSPropertyOp8
 70
     0
102
RTVSPropertyOp9
 70
     0
102
RTVSPropertyOp10
 70
     0
102
RTVSPropertyOp11
 70
     0
102
RTVSPropertyOp12
 70
     0
102
RTVSPropertyOp13
 70
     0
102
RTVSPropertyOp14
 70
     2
102
RTVSPropertyOp15
 70
     0
102
RTVSPropertyOp16
 70
     0
102
RTVSPropertyOp17
 70
     0
102
RTVSPropertyOp18
 70
     0
102
RTVSPropertyOp19
 70
     0
102
RTVSPropertyOp20
 70
     0
102
RTVSPropertyOp21
 70
     0
102
RTVSPropertyOp22
 70
     0
102
RTVSPropertyOp23
 70
     0
102
RTVSPropertyOp24
 70
     0
102
RTVSPropertyOp25
 70
     0
102
RTVSPropertyOp26
 70
     0
102
RTVSPropertyOp27
 70
     0
102
RTVSPropertyOp28
 70
     1
102
RTVSPropertyOp29
 70
     1
102
RTVSPropertyOp30
 70
     1
102
RTVSPropertyOp31
 70
     1
102
RTVSPropertyOp32
 70
     1
102
RTVSPropertyOp33
 70
     1
102
RTVSPropertyOp34
 70
     1
102
RTVSPropertyOp35
 70
     1
102
RTVSPropertyOp36
 70
     1
102
RTVSPropertyOp37
 70
     1
102
RTVSPropertyOp38
 70
     1
102
RTVSPropertyOp39
 70
     1
102
RTVSPropertyOp40
 70
     1
102
RTVSPropertyOp41
 70
     1
102
RTVSPropertyOp42
 70
     1
102
RTVSPropertyOp43
 70
     1
102
RTVSPropertyOp44
 70
     1
102
RTVSPropertyOp45
 70
     1
102
RTVSPropertyOp46
 70
     1
102
RTVSPropertyOp47
 70
     1
102
RTVSPropertyOp48
 70
     1
102
RTVSPropertyOp49
 70
     1
102
RTVSPropertyOp50
 70
     1
102
RTVSPropertyOp51
 70
     0
102
RTVSPropertyOp52
 70
     0
102
RTVSPropertyOp53
 70
     1
102
RTVSPropertyOp54
 70
     1
102
RTVSPropertyOp55
 70
     1
102
RTVSPropertyOp56
 70
     1
102
RTVSPropertyOp57
 70
     1
102
RTVSPropertyOp58
 70
     1
102
RTVSPropertyOp59
 70
     1
102
RTVSPropertyOp60
 70
     1
102
RTVSPropertyOp61
 70
     1
102
RTVSPropertyOp62
 70
     1
  0
XRECORD
  5
73A
102
{ACAD_REACTORS
330
739
102
}
330
739
100
AcDbXrecord
280
     1
102
RTVSPost2010Prop28
280
     0
102
RTVSPost2010PropOp28
 70
     1
102
RTVSPost2010Prop29
280
     1
102
RTVSPost2010PropOp29
 70
     1
102
RTVSPost2010Prop30
280
     1
102
RTVSPost2010PropOp30
 70
     1
102
RTVSPost2010Prop31
280
     0
102
RTVSPost2010PropOp31
 70
     1
102
RTVSPost2010Prop32
280
     0
102
RTVSPost2010PropOp32
 70
     1
102
RTVSPost2010Prop33
280
     0
102
RTVSPost2010PropOp33
 70
     1
102
RTVSPost2010Prop34
280
     0
102
RTVSPost2010PropOp34
 70
     1
102
RTVSPost2010Prop35
280
     0
102
RTVSPost2010PropOp35
 70
     1
102
RTVSPost2010Prop36
280
     0
102
RTVSPost2010PropOp36
 70
     1
102
RTVSPost2010Prop37
 90
       50
102
RTVSPost2010PropOp37
 70
     1
102
RTVSPost2010Prop38
140
0.0
102
RTVSPost2010PropOp38
 70
     1
102
RTVSPost2010Prop39
140
1.0
102
RTVSPost2010PropOp39
 70
     1
102
RTVSPost2010Prop40
 90
        0
102
RTVSPost2010PropOp40
 70
     1
102
RTVSPost2010Prop41ColorIndex
 90
       18
102
RTVSPost2010Prop41ColorRGB
 90
        0
102
RTVSPost2010PropOp41
 70
     1
102
RTVSPost2010Prop42
 90
       50
102
RTVSPost2010PropOp42
 70
     1
102
RTVSPost2010Prop43
 90
        3
102
RTVSPost2010PropOp43
 70
     1
102
RTVSPost2010Prop44ColorIndex
 90
        5
102
RTVSPost2010Prop44ColorRGB
 90
      255
102
RTVSPost2010PropOp44
 70
     1
102
RTVSPost2010Prop45
280
     0
102
RTVSPost2010PropOp45
 70
     1
102
RTVSPost2010Prop46
 90
       50
102
RTVSPost2010PropOp46
 70
     1
102
RTVSPost2010Prop47
 90
       50
102
RTVSPost2010PropOp47
 70
     1
102
RTVSPost2010Prop48
 90
       50
102
RTVSPost2010PropOp48
 70
     1
102
RTVSPost2010Prop49
280
     0
102
RTVSPost2010PropOp49
 70
     1
102
RTVSPost2010Prop50
 90
       50
102
RTVSPost2010PropOp50
 70
     1
102
RTVSPost2010Prop51ColorIndex
 90
      256
102
RTVSPost2010Prop51ColorRGB
 90
-16777216
102
RTVSPost2010PropOp51
 70
     0
102
RTVSPost2010Prop52
140
1.0
102
RTVSPost2010PropOp52
 70
     0
102
RTVSPost2010Prop53
 90
        2
102
RTVSPost2010PropOp53
 70
     1
102
RTVSPost2010Prop54
  1
strokes_ogs.tif
102
RTVSPost2010PropOp54
 70
     1
102
RTVSPost2010Prop55
280
     0
102
RTVSPost2010PropOp55
 70
     1
102
RTVSPost2010Prop56
140
1.0
102
RTVSPost2010PropOp56
 70
     1
102
RTVSPost2010Prop57
140
1.0
102
RTVSPost2010PropOp57
 70
     1
102
RTVSPropertyOp0
 70
     1
102
RTVSPropertyOp1
 70
     1
102
RTVSPropertyOp2
 70
     1
102
RTVSPropertyOp3
 70
     1
102
RTVSPropertyOp4
 70
     1
102
RTVSPropertyOp5
 70
     1
102
RTVSPropertyOp6
 70
     1
102
RTVSPropertyOp7
 70
     1
102
RTVSPropertyOp8
 70
     1
102
RTVSPropertyOp9
 70
     1
102
RTVSPropertyOp10
 70
     1
102
RTVSPropertyOp11
 70
     1
102
RTVSPropertyOp12
 70
     1
102
RTVSPropertyOp13
 70
     1
102
RTVSPropertyOp14
 70
     1
102
RTVSPropertyOp15
 70
     1
102
RTVSPropertyOp16
 70
     1
102
RTVSPropertyOp17
 70
     1
102
RTVSPropertyOp18
 70
     1
102
RTVSPropertyOp19
 70
     1
102
RTVSPropertyOp20
 70
     1
102
RTVSPropertyOp21
 70
     1
102
RTVSPropertyOp22
 70
     1
102
RTVSPropertyOp23
 70
     1
102
RTVSPropertyOp24
 70
     1
102
RTVSPropertyOp25
 70
     1
102
RTVSPropertyOp26
 70
     1
102
RTVSPropertyOp27
 70
     1
102
RTVSPropertyOp28
 70
     1
102
RTVSPropertyOp29
 70
     1
102
RTVSPropertyOp30
 70
     1
102
RTVSPropertyOp31
 70
     1
102
RTVSPropertyOp32
 70
     1
102
RTVSPropertyOp33
 70
     1
102
RTVSPropertyOp34
 70
     1
102
RTVSPropertyOp35
 70
     1
102
RTVSPropertyOp36
 70
     1
102
RTVSPropertyOp37
 70
     1
102
RTVSPropertyOp38
 70
     1
102
RTVSPropertyOp39
 70
     1
102
RTVSPropertyOp40
 70
     1
102
RTVSPropertyOp41
 70
     1
102
RTVSPropertyOp42
 70
     1
102
RTVSPropertyOp43
 70
     1
102
RTVSPropertyOp44
 70
     1
102
RTVSPropertyOp45
 70
     1
102
RTVSPropertyOp46
 70
     1
102
RTVSPropertyOp47
 70
     1
102
RTVSPropertyOp48
 70
     1
102
RTVSPropertyOp49
 70
     1
102
RTVSPropertyOp50
 70
     1
102
RTVSPropertyOp51
 70
     0
102
RTVSPropertyOp52
 70
     0
102
RTVSPropertyOp53
 70
     1
102
RTVSPropertyOp54
 70
     1
102
RTVSPropertyOp55
 70
     1
102
RTVSPropertyOp56
 70
     1
102
RTVSPropertyOp57
 70
     1
102
RTVSPropertyOp58
 70
     1
102
RTVSPropertyOp59
 70
     1
102
RTVSPropertyOp60
 70
     1
102
RTVSPropertyOp61
 70
     1
102
RTVSPropertyOp62
 70
     1
  0
XRECORD
  5
742
102
{ACAD_REACTORS
330
741
102
}
330
741
100
AcDbXrecord
280
     1
102
RTVSPost2010Prop28
280
     0
102
RTVSPost2010PropOp28
 70
     1
102
RTVSPost2010Prop29
280
     1
102
RTVSPost2010PropOp29
 70
     1
102
RTVSPost2010Prop30
280
     1
102
RTVSPost2010PropOp30
 70
     1
102
RTVSPost2010Prop31
280
     0
102
RTVSPost2010PropOp31
 70
     1
102
RTVSPost2010Prop32
280
     0
102
RTVSPost2010PropOp32
 70
     1
102
RTVSPost2010Prop33
280
     0
102
RTVSPost2010PropOp33
 70
     1
102
RTVSPost2010Prop34
280
     0
102
RTVSPost2010PropOp34
 70
     1
102
RTVSPost2010Prop35
280
     0
102
RTVSPost2010PropOp35
 70
     1
102
RTVSPost2010Prop36
280
     0
102
RTVSPost2010PropOp36
 70
     1
102
RTVSPost2010Prop37
 90
       50
102
RTVSPost2010PropOp37
 70
     1
102
RTVSPost2010Prop38
140
0.0
102
RTVSPost2010PropOp38
 70
     1
102
RTVSPost2010Prop39
140
1.0
102
RTVSPost2010PropOp39
 70
     1
102
RTVSPost2010Prop40
 90
        0
102
RTVSPost2010PropOp40
 70
     1
102
RTVSPost2010Prop41ColorIndex
 90
       18
102
RTVSPost2010Prop41ColorRGB
 90
        0
102
RTVSPost2010PropOp41
 70
     1
102
RTVSPost2010Prop42
 90
       50
102
RTVSPost2010PropOp42
 70
     1
102
RTVSPost2010Prop43
 90
        3
102
RTVSPost2010PropOp43
 70
     1
102
RTVSPost2010Prop44ColorIndex
 90
        5
102
RTVSPost2010Prop44ColorRGB
 90
      255
102
RTVSPost2010PropOp44
 70
     1
102
RTVSPost2010Prop45
280
     0
102
RTVSPost2010PropOp45
 70
     1
102
RTVSPost2010Prop46
 90
       50
102
RTVSPost2010PropOp46
 70
     1
102
RTVSPost2010Prop47
 90
       50
102
RTVSPost2010PropOp47
 70
     1
102
RTVSPost2010Prop48
 90
       50
102
RTVSPost2010PropOp48
 70
     1
102
RTVSPost2010Prop49
280
     0
102
RTVSPost2010PropOp49
 70
     1
102
RTVSPost2010Prop50
 90
       50
102
RTVSPost2010PropOp50
 70
     1
102
RTVSPost2010Prop51ColorIndex
 90
      256
102
RTVSPost2010Prop51ColorRGB
 90
-16777216
102
RTVSPost2010PropOp51
 70
     0
102
RTVSPost2010Prop52
140
1.0
102
RTVSPost2010PropOp52
 70
     0
102
RTVSPost2010Prop53
 90
        2
102
RTVSPost2010PropOp53
 70
     1
102
RTVSPost2010Prop54
  1
strokes_ogs.tif
102
RTVSPost2010PropOp54
 70
     1
102
RTVSPost2010Prop55
280
     0
102
RTVSPost2010PropOp55
 70
     1
102
RTVSPost2010Prop56
140
1.0
102
RTVSPost2010PropOp56
 70
     1
102
RTVSPost2010Prop57
140
1.0
102
RTVSPost2010PropOp57
 70
     1
102
RTVSPropertyOp0
 70
     0
102
RTVSPropertyOp1
 70
     0
102
RTVSPropertyOp2
 70
     0
102
RTVSPropertyOp3
 70
     0
102
RTVSPropertyOp4
 70
     0
102
RTVSPropertyOp5
 70
     0
102
RTVSPropertyOp6
 70
     0
102
RTVSPropertyOp7
 70
     0
102
RTVSPropertyOp8
 70
     0
102
RTVSPropertyOp9
 70
     0
102
RTVSPropertyOp10
 70
     0
102
RTVSPropertyOp11
 70
     0
102
RTVSPropertyOp12
 70
     0
102
RTVSPropertyOp13
 70
     0
102
RTVSPropertyOp14
 70
     2
102
RTVSPropertyOp15
 70
     0
102
RTVSPropertyOp16
 70
     0
102
RTVSPropertyOp17
 70
     0
102
RTVSPropertyOp18
 70
     0
102
RTVSPropertyOp19
 70
     0
102
RTVSPropertyOp20
 70
     0
102
RTVSPropertyOp21
 70
     0
102
RTVSPropertyOp22
 70
     0
102
RTVSPropertyOp23
 70
     0
102
RTVSPropertyOp24
 70
     0
102
RTVSPropertyOp25
 70
     0
102
RTVSPropertyOp26
 70
     0
102
RTVSPropertyOp27
 70
     0
102
RTVSPropertyOp28
 70
     1
102
RTVSPropertyOp29
 70
     1
102
RTVSPropertyOp30
 70
     1
102
RTVSPropertyOp31
 70
     1
102
RTVSPropertyOp32
 70
     1
102
RTVSPropertyOp33
 70
     1
102
RTVSPropertyOp34
 70
     1
102
RTVSPropertyOp35
 70
     1
102
RTVSPropertyOp36
 70
     1
102
RTVSPropertyOp37
 70
     1
102
RTVSPropertyOp38
 70
     1
102
RTVSPropertyOp39
 70
     1
102
RTVSPropertyOp40
 70
     1
102
RTVSPropertyOp41
 70
     1
102
RTVSPropertyOp42
 70
     1
102
RTVSPropertyOp43
 70
     1
102
RTVSPropertyOp44
 70
     1
102
RTVSPropertyOp45
 70
     1
102
RTVSPropertyOp46
 70
     1
102
RTVSPropertyOp47
 70
     1
102
RTVSPropertyOp48
 70
     1
102
RTVSPropertyOp49
 70
     1
102
RTVSPropertyOp50
 70
     1
102
RTVSPropertyOp51
 70
     0
102
RTVSPropertyOp52
 70
     0
102
RTVSPropertyOp53
 70
     1
102
RTVSPropertyOp54
 70
     1
102
RTVSPropertyOp55
 70
     1
102
RTVSPropertyOp56
 70
     1
102
RTVSPropertyOp57
 70
     1
102
RTVSPropertyOp58
 70
     1
102
RTVSPropertyOp59
 70
     1
102
RTVSPropertyOp60
 70
     1
102
RTVSPropertyOp61
 70
     1
102
RTVSPropertyOp62
 70
     1
  0
XRECORD
  5
732
102
{ACAD_REACTORS
330
731
102
}
330
731
100
AcDbXrecord
280
     1
102
RTVSPost2010Prop28
280
     0
102
RTVSPost2010PropOp28
 70
     1
102
RTVSPost2010Prop29
280
     1
102
RTVSPost2010PropOp29
 70
     1
102
RTVSPost2010Prop30
280
     1
102
RTVSPost2010PropOp30
 70
     1
102
RTVSPost2010Prop31
280
     0
102
RTVSPost2010PropOp31
 70
     1
102
RTVSPost2010Prop32
280
     0
102
RTVSPost2010PropOp32
 70
     1
102
RTVSPost2010Prop33
280
     0
102
RTVSPost2010PropOp33
 70
     1
102
RTVSPost2010Prop34
280
     0
102
RTVSPost2010PropOp34
 70
     1
102
RTVSPost2010Prop35
280
     0
102
RTVSPost2010PropOp35
 70
     1
102
RTVSPost2010Prop36
280
     0
102
RTVSPost2010PropOp36
 70
     1
102
RTVSPost2010Prop37
 90
       50
102
RTVSPost2010PropOp37
 70
     1
102
RTVSPost2010Prop38
140
0.0
102
RTVSPost2010PropOp38
 70
     1
102
RTVSPost2010Prop39
140
1.0
102
RTVSPost2010PropOp39
 70
     1
102
RTVSPost2010Prop40
 90
        0
102
RTVSPost2010PropOp40
 70
     1
102
RTVSPost2010Prop41ColorIndex
 90
       18
102
RTVSPost2010Prop41ColorRGB
 90
        0
102
RTVSPost2010PropOp41
 70
     1
102
RTVSPost2010Prop42
 90
       50
102
RTVSPost2010PropOp42
 70
     1
102
RTVSPost2010Prop43
 90
        3
102
RTVSPost2010PropOp43
 70
     1
102
RTVSPost2010Prop44ColorIndex
 90
        5
102
RTVSPost2010Prop44ColorRGB
 90
      255
102
RTVSPost2010PropOp44
 70
     1
102
RTVSPost2010Prop45
280
     0
102
RTVSPost2010PropOp45
 70
     1
102
RTVSPost2010Prop46
 90
       50
102
RTVSPost2010PropOp46
 70
     1
102
RTVSPost2010Prop47
 90
       50
102
RTVSPost2010PropOp47
 70
     1
102
RTVSPost2010Prop48
 90
       50
102
RTVSPost2010PropOp48
 70
     1
102
RTVSPost2010Prop49
280
     0
102
RTVSPost2010PropOp49
 70
     1
102
RTVSPost2010Prop50
 90
       50
102
RTVSPost2010PropOp50
 70
     1
102
RTVSPost2010Prop51ColorIndex
 90
      256
102
RTVSPost2010Prop51ColorRGB
 90
-16777216
102
RTVSPost2010PropOp51
 70
     0
102
RTVSPost2010Prop52
140
1.0
102
RTVSPost2010PropOp52
 70
     0
102
RTVSPost2010Prop53
 90
        2
102
RTVSPost2010PropOp53
 70
     1
102
RTVSPost2010Prop54
  1
strokes_ogs.tif
102
RTVSPost2010PropOp54
 70
     1
102
RTVSPost2010Prop55
280
     0
102
RTVSPost2010PropOp55
 70
     1
102
RTVSPost2010Prop56
140
1.0
102
RTVSPost2010PropOp56
 70
     1
102
RTVSPost2010Prop57
140
1.0
102
RTVSPost2010PropOp57
 70
     1
102
RTVSPropertyOp0
 70
     1
102
RTVSPropertyOp1
 70
     1
102
RTVSPropertyOp2
 70
     1
102
RTVSPropertyOp3
 70
     1
102
RTVSPropertyOp4
 70
     1
102
RTVSPropertyOp5
 70
     1
102
RTVSPropertyOp6
 70
     1
102
RTVSPropertyOp7
 70
     1
102
RTVSPropertyOp8
 70
     1
102
RTVSPropertyOp9
 70
     1
102
RTVSPropertyOp10
 70
     1
102
RTVSPropertyOp11
 70
     1
102
RTVSPropertyOp12
 70
     1
102
RTVSPropertyOp13
 70
     1
102
RTVSPropertyOp14
 70
     1
102
RTVSPropertyOp15
 70
     1
102
RTVSPropertyOp16
 70
     1
102
RTVSPropertyOp17
 70
     1
102
RTVSPropertyOp18
 70
     1
102
RTVSPropertyOp19
 70
     1
102
RTVSPropertyOp20
 70
     1
102
RTVSPropertyOp21
 70
     1
102
RTVSPropertyOp22
 70
     1
102
RTVSPropertyOp23
 70
     1
102
RTVSPropertyOp24
 70
     1
102
RTVSPropertyOp25
 70
     1
102
RTVSPropertyOp26
 70
     1
102
RTVSPropertyOp27
 70
     1
102
RTVSPropertyOp28
 70
     1
102
RTVSPropertyOp29
 70
     1
102
RTVSPropertyOp30
 70
     1
102
RTVSPropertyOp31
 70
     1
102
RTVSPropertyOp32
 70
     1
102
RTVSPropertyOp33
 70
     1
102
RTVSPropertyOp34
 70
     1
102
RTVSPropertyOp35
 70
     1
102
RTVSPropertyOp36
 70
     1
102
RTVSPropertyOp37
 70
     1
102
RTVSPropertyOp38
 70
     1
102
RTVSPropertyOp39
 70
     1
102
RTVSPropertyOp40
 70
     1
102
RTVSPropertyOp41
 70
     1
102
RTVSPropertyOp42
 70
     1
102
RTVSPropertyOp43
 70
     1
102
RTVSPropertyOp44
 70
     1
102
RTVSPropertyOp45
 70
     1
102
RTVSPropertyOp46
 70
     1
102
RTVSPropertyOp47
 70
     1
102
RTVSPropertyOp48
 70
     1
102
RTVSPropertyOp49
 70
     1
102
RTVSPropertyOp50
 70
     1
102
RTVSPropertyOp51
 70
     0
102
RTVSPropertyOp52
 70
     0
102
RTVSPropertyOp53
 70
     1
102
RTVSPropertyOp54
 70
     1
102
RTVSPropertyOp55
 70
     1
102
RTVSPropertyOp56
 70
     1
102
RTVSPropertyOp57
 70
     1
102
RTVSPropertyOp58
 70
     1
102
RTVSPropertyOp59
 70
     1
102
RTVSPropertyOp60
 70
     1
102
RTVSPropertyOp61
 70
     1
102
RTVSPropertyOp62
 70
     1
  0
XRECORD
  5
74E
102
{ACAD_REACTORS
330
74D
102
}
330
74D
100
AcDbXrecord
280
     1
102
RTVSPost2010Prop28
280
     0
102
RTVSPost2010PropOp28
 70
     1
102
RTVSPost2010Prop29
280
     1
102
RTVSPost2010PropOp29
 70
     1
102
RTVSPost2010Prop30
280
     1
102
RTVSPost2010PropOp30
 70
     1
102
RTVSPost2010Prop31
280
     0
102
RTVSPost2010PropOp31
 70
     1
102
RTVSPost2010Prop32
280
     0
102
RTVSPost2010PropOp32
 70
     1
102
RTVSPost2010Prop33
280
     0
102
RTVSPost2010PropOp33
 70
     1
102
RTVSPost2010Prop34
280
     0
102
RTVSPost2010PropOp34
 70
     1
102
RTVSPost2010Prop35
280
     0
102
RTVSPost2010PropOp35
 70
     1
102
RTVSPost2010Prop36
280
     0
102
RTVSPost2010PropOp36
 70
     1
102
RTVSPost2010Prop37
 90
       50
102
RTVSPost2010PropOp37
 70
     1
102
RTVSPost2010Prop38
140
0.0
102
RTVSPost2010PropOp38
 70
     1
102
RTVSPost2010Prop39
140
1.0
102
RTVSPost2010PropOp39
 70
     1
102
RTVSPost2010Prop40
 90
        0
102
RTVSPost2010PropOp40
 70
     1
102
RTVSPost2010Prop41ColorIndex
 90
       18
102
RTVSPost2010Prop41ColorRGB
 90
        0
102
RTVSPost2010PropOp41
 70
     1
102
RTVSPost2010Prop42
 90
       50
102
RTVSPost2010PropOp42
 70
     1
102
RTVSPost2010Prop43
 90
        3
102
RTVSPost2010PropOp43
 70
     1
102
RTVSPost2010Prop44ColorIndex
 90
        5
102
RTVSPost2010Prop44ColorRGB
 90
      255
102
RTVSPost2010PropOp44
 70
     1
102
RTVSPost2010Prop45
280
     0
102
RTVSPost2010PropOp45
 70
     1
102
RTVSPost2010Prop46
 90
       50
102
RTVSPost2010PropOp46
 70
     1
102
RTVSPost2010Prop47
 90
       50
102
RTVSPost2010PropOp47
 70
     1
102
RTVSPost2010Prop48
 90
       50
102
RTVSPost2010PropOp48
 70
     1
102
RTVSPost2010Prop49
280
     0
102
RTVSPost2010PropOp49
 70
     1
102
RTVSPost2010Prop50
 90
       50
102
RTVSPost2010PropOp50
 70
     1
102
RTVSPost2010Prop51ColorIndex
 90
      256
102
RTVSPost2010Prop51ColorRGB
 90
-16777216
102
RTVSPost2010PropOp51
 70
     0
102
RTVSPost2010Prop52
140
1.0
102
RTVSPost2010PropOp52
 70
     0
102
RTVSPost2010Prop53
 90
        2
102
RTVSPost2010PropOp53
 70
     1
102
RTVSPost2010Prop54
  1
strokes_ogs.tif
102
RTVSPost2010PropOp54
 70
     1
102
RTVSPost2010Prop55
280
     0
102
RTVSPost2010PropOp55
 70
     1
102
RTVSPost2010Prop56
140
1.0
102
RTVSPost2010PropOp56
 70
     1
102
RTVSPost2010Prop57
140
1.0
102
RTVSPost2010PropOp57
 70
     1
102
RTVSPropertyOp0
 70
     1
102
RTVSPropertyOp1
 70
     1
102
RTVSPropertyOp2
 70
     1
102
RTVSPropertyOp3
 70
     1
102
RTVSPropertyOp4
 70
     1
102
RTVSPropertyOp5
 70
     1
102
RTVSPropertyOp6
 70
     1
102
RTVSPropertyOp7
 70
     1
102
RTVSPropertyOp8
 70
     1
102
RTVSPropertyOp9
 70
     1
102
RTVSPropertyOp10
 70
     1
102
RTVSPropertyOp11
 70
     1
102
RTVSPropertyOp12
 70
     1
102
RTVSPropertyOp13
 70
     1
102
RTVSPropertyOp14
 70
     1
102
RTVSPropertyOp15
 70
     1
102
RTVSPropertyOp16
 70
     1
102
RTVSPropertyOp17
 70
     1
102
RTVSPropertyOp18
 70
     1
102
RTVSPropertyOp19
 70
     1
102
RTVSPropertyOp20
 70
     1
102
RTVSPropertyOp21
 70
     1
102
RTVSPropertyOp22
 70
     1
102
RTVSPropertyOp23
 70
     1
102
RTVSPropertyOp24
 70
     1
102
RTVSPropertyOp25
 70
     1
102
RTVSPropertyOp26
 70
     1
102
RTVSPropertyOp27
 70
     1
102
RTVSPropertyOp28
 70
     1
102
RTVSPropertyOp29
 70
     1
102
RTVSPropertyOp30
 70
     1
102
RTVSPropertyOp31
 70
     1
102
RTVSPropertyOp32
 70
     1
102
RTVSPropertyOp33
 70
     1
102
RTVSPropertyOp34
 70
     1
102
RTVSPropertyOp35
 70
     1
102
RTVSPropertyOp36
 70
     1
102
RTVSPropertyOp37
 70
     1
102
RTVSPropertyOp38
 70
     1
102
RTVSPropertyOp39
 70
     1
102
RTVSPropertyOp40
 70
     1
102
RTVSPropertyOp41
 70
     1
102
RTVSPropertyOp42
 70
     1
102
RTVSPropertyOp43
 70
     1
102
RTVSPropertyOp44
 70
     1
102
RTVSPropertyOp45
 70
     1
102
RTVSPropertyOp46
 70
     1
102
RTVSPropertyOp47
 70
     1
102
RTVSPropertyOp48
 70
     1
102
RTVSPropertyOp49
 70
     1
102
RTVSPropertyOp50
 70
     1
102
RTVSPropertyOp51
 70
     0
102
RTVSPropertyOp52
 70
     0
102
RTVSPropertyOp53
 70
     1
102
RTVSPropertyOp54
 70
     1
102
RTVSPropertyOp55
 70
     1
102
RTVSPropertyOp56
 70
     1
102
RTVSPropertyOp57
 70
     1
102
RTVSPropertyOp58
 70
     1
102
RTVSPropertyOp59
 70
     1
102
RTVSPropertyOp60
 70
     1
102
RTVSPropertyOp61
 70
     1
102
RTVSPropertyOp62
 70
     1
  0
XRECORD
  5
74C
102
{ACAD_REACTORS
330
74B
102
}
330
74B
100
AcDbXrecord
280
     1
102
RTVSPost2010Prop28
280
     0
102
RTVSPost2010PropOp28
 70
     1
102
RTVSPost2010Prop29
280
     1
102
RTVSPost2010PropOp29
 70
     1
102
RTVSPost2010Prop30
280
     1
102
RTVSPost2010PropOp30
 70
     1
102
RTVSPost2010Prop31
280
     0
102
RTVSPost2010PropOp31
 70
     1
102
RTVSPost2010Prop32
280
     0
102
RTVSPost2010PropOp32
 70
     1
102
RTVSPost2010Prop33
280
     0
102
RTVSPost2010PropOp33
 70
     1
102
RTVSPost2010Prop34
280
     0
102
RTVSPost2010PropOp34
 70
     1
102
RTVSPost2010Prop35
280
     0
102
RTVSPost2010PropOp35
 70
     1
102
RTVSPost2010Prop36
280
     0
102
RTVSPost2010PropOp36
 70
     1
102
RTVSPost2010Prop37
 90
       50
102
RTVSPost2010PropOp37
 70
     1
102
RTVSPost2010Prop38
140
0.0
102
RTVSPost2010PropOp38
 70
     1
102
RTVSPost2010Prop39
140
1.0
102
RTVSPost2010PropOp39
 70
     1
102
RTVSPost2010Prop40
 90
        0
102
RTVSPost2010PropOp40
 70
     1
102
RTVSPost2010Prop41ColorIndex
 90
       18
102
RTVSPost2010Prop41ColorRGB
 90
        0
102
RTVSPost2010PropOp41
 70
     1
102
RTVSPost2010Prop42
 90
       50
102
RTVSPost2010PropOp42
 70
     1
102
RTVSPost2010Prop43
 90
        3
102
RTVSPost2010PropOp43
 70
     1
102
RTVSPost2010Prop44ColorIndex
 90
        5
102
RTVSPost2010Prop44ColorRGB
 90
      255
102
RTVSPost2010PropOp44
 70
     1
102
RTVSPost2010Prop45
280
     0
102
RTVSPost2010PropOp45
 70
     1
102
RTVSPost2010Prop46
 90
       50
102
RTVSPost2010PropOp46
 70
     1
102
RTVSPost2010Prop47
 90
       50
102
RTVSPost2010PropOp47
 70
     1
102
RTVSPost2010Prop48
 90
       50
102
RTVSPost2010PropOp48
 70
     1
102
RTVSPost2010Prop49
280
     0
102
RTVSPost2010PropOp49
 70
     1
102
RTVSPost2010Prop50
 90
       50
102
RTVSPost2010PropOp50
 70
     1
102
RTVSPost2010Prop51ColorIndex
 90
      256
102
RTVSPost2010Prop51ColorRGB
 90
-16777216
102
RTVSPost2010PropOp51
 70
     0
102
RTVSPost2010Prop52
140
1.0
102
RTVSPost2010PropOp52
 70
     0
102
RTVSPost2010Prop53
 90
        2
102
RTVSPost2010PropOp53
 70
     1
102
RTVSPost2010Prop54
  1
strokes_ogs.tif
102
RTVSPost2010PropOp54
 70
     1
102
RTVSPost2010Prop55
280
     0
102
RTVSPost2010PropOp55
 70
     1
102
RTVSPost2010Prop56
140
1.0
102
RTVSPost2010PropOp56
 70
     1
102
RTVSPost2010Prop57
140
1.0
102
RTVSPost2010PropOp57
 70
     1
102
RTVSPropertyOp0
 70
     1
102
RTVSPropertyOp1
 70
     1
102
RTVSPropertyOp2
 70
     1
102
RTVSPropertyOp3
 70
     1
102
RTVSPropertyOp4
 70
     1
102
RTVSPropertyOp5
 70
     1
102
RTVSPropertyOp6
 70
     1
102
RTVSPropertyOp7
 70
     1
102
RTVSPropertyOp8
 70
     1
102
RTVSPropertyOp9
 70
     1
102
RTVSPropertyOp10
 70
     1
102
RTVSPropertyOp11
 70
     1
102
RTVSPropertyOp12
 70
     1
102
RTVSPropertyOp13
 70
     1
102
RTVSPropertyOp14
 70
     1
102
RTVSPropertyOp15
 70
     1
102
RTVSPropertyOp16
 70
     1
102
RTVSPropertyOp17
 70
     1
102
RTVSPropertyOp18
 70
     1
102
RTVSPropertyOp19
 70
     1
102
RTVSPropertyOp20
 70
     1
102
RTVSPropertyOp21
 70
     1
102
RTVSPropertyOp22
 70
     1
102
RTVSPropertyOp23
 70
     1
102
RTVSPropertyOp24
 70
     1
102
RTVSPropertyOp25
 70
     1
102
RTVSPropertyOp26
 70
     1
102
RTVSPropertyOp27
 70
     1
102
RTVSPropertyOp28
 70
     1
102
RTVSPropertyOp29
 70
     1
102
RTVSPropertyOp30
 70
     1
102
RTVSPropertyOp31
 70
     1
102
RTVSPropertyOp32
 70
     1
102
RTVSPropertyOp33
 70
     1
102
RTVSPropertyOp34
 70
     1
102
RTVSPropertyOp35
 70
     1
102
RTVSPropertyOp36
 70
     1
102
RTVSPropertyOp37
 70
     1
102
RTVSPropertyOp38
 70
     1
102
RTVSPropertyOp39
 70
     1
102
RTVSPropertyOp40
 70
     1
102
RTVSPropertyOp41
 70
     1
102
RTVSPropertyOp42
 70
     1
102
RTVSPropertyOp43
 70
     1
102
RTVSPropertyOp44
 70
     1
102
RTVSPropertyOp45
 70
     1
102
RTVSPropertyOp46
 70
     1
102
RTVSPropertyOp47
 70
     1
102
RTVSPropertyOp48
 70
     1
102
RTVSPropertyOp49
 70
     1
102
RTVSPropertyOp50
 70
     1
102
RTVSPropertyOp51
 70
     0
102
RTVSPropertyOp52
 70
     0
102
RTVSPropertyOp53
 70
     1
102
RTVSPropertyOp54
 70
     1
102
RTVSPropertyOp55
 70
     1
102
RTVSPropertyOp56
 70
     1
102
RTVSPropertyOp57
 70
     1
102
RTVSPropertyOp58
 70
     1
102
RTVSPropertyOp59
 70
     1
102
RTVSPropertyOp60
 70
     1
102
RTVSPropertyOp61
 70
     1
102
RTVSPropertyOp62
 70
     1
  0
XRECORD
  5
746
102
{ACAD_REACTORS
330
745
102
}
330
745
100
AcDbXrecord
280
     1
102
RTVSPost2010Prop28
280
     0
102
RTVSPost2010PropOp28
 70
     1
102
RTVSPost2010Prop29
280
     1
102
RTVSPost2010PropOp29
 70
     1
102
RTVSPost2010Prop30
280
     1
102
RTVSPost2010PropOp30
 70
     1
102
RTVSPost2010Prop31
280
     0
102
RTVSPost2010PropOp31
 70
     1
102
RTVSPost2010Prop32
280
     0
102
RTVSPost2010PropOp32
 70
     1
102
RTVSPost2010Prop33
280
     0
102
RTVSPost2010PropOp33
 70
     1
102
RTVSPost2010Prop34
280
     0
102
RTVSPost2010PropOp34
 70
     1
102
RTVSPost2010Prop35
280
     0
102
RTVSPost2010PropOp35
 70
     1
102
RTVSPost2010Prop36
280
     0
102
RTVSPost2010PropOp36
 70
     1
102
RTVSPost2010Prop37
 90
       50
102
RTVSPost2010PropOp37
 70
     1
102
RTVSPost2010Prop38
140
0.0
102
RTVSPost2010PropOp38
 70
     1
102
RTVSPost2010Prop39
140
1.0
102
RTVSPost2010PropOp39
 70
     1
102
RTVSPost2010Prop40
 90
        0
102
RTVSPost2010PropOp40
 70
     1
102
RTVSPost2010Prop41ColorIndex
 90
       18
102
RTVSPost2010Prop41ColorRGB
 90
        0
102
RTVSPost2010PropOp41
 70
     1
102
RTVSPost2010Prop42
 90
       50
102
RTVSPost2010PropOp42
 70
     1
102
RTVSPost2010Prop43
 90
        3
102
RTVSPost2010PropOp43
 70
     1
102
RTVSPost2010Prop44ColorIndex
 90
        5
102
RTVSPost2010Prop44ColorRGB
 90
      255
102
RTVSPost2010PropOp44
 70
     1
102
RTVSPost2010Prop45
280
     0
102
RTVSPost2010PropOp45
 70
     1
102
RTVSPost2010Prop46
 90
       50
102
RTVSPost2010PropOp46
 70
     1
102
RTVSPost2010Prop47
 90
       50
102
RTVSPost2010PropOp47
 70
     1
102
RTVSPost2010Prop48
 90
       50
102
RTVSPost2010PropOp48
 70
     1
102
RTVSPost2010Prop49
280
     0
102
RTVSPost2010PropOp49
 70
     1
102
RTVSPost2010Prop50
 90
       50
102
RTVSPost2010PropOp50
 70
     1
102
RTVSPost2010Prop51ColorIndex
 90
      256
102
RTVSPost2010Prop51ColorRGB
 90
-16777216
102
RTVSPost2010PropOp51
 70
     0
102
RTVSPost2010Prop52
140
1.0
102
RTVSPost2010PropOp52
 70
     0
102
RTVSPost2010Prop53
 90
        2
102
RTVSPost2010PropOp53
 70
     1
102
RTVSPost2010Prop54
  1
strokes_ogs.tif
102
RTVSPost2010PropOp54
 70
     1
102
RTVSPost2010Prop55
280
     0
102
RTVSPost2010PropOp55
 70
     1
102
RTVSPost2010Prop56
140
1.0
102
RTVSPost2010PropOp56
 70
     1
102
RTVSPost2010Prop57
140
1.0
102
RTVSPost2010PropOp57
 70
     1
102
RTVSPropertyOp0
 70
     1
102
RTVSPropertyOp1
 70
     1
102
RTVSPropertyOp2
 70
     1
102
RTVSPropertyOp3
 70
     1
102
RTVSPropertyOp4
 70
     1
102
RTVSPropertyOp5
 70
     1
102
RTVSPropertyOp6
 70
     1
102
RTVSPropertyOp7
 70
     1
102
RTVSPropertyOp8
 70
     1
102
RTVSPropertyOp9
 70
     1
102
RTVSPropertyOp10
 70
     1
102
RTVSPropertyOp11
 70
     1
102
RTVSPropertyOp12
 70
     1
102
RTVSPropertyOp13
 70
     1
102
RTVSPropertyOp14
 70
     1
102
RTVSPropertyOp15
 70
     1
102
RTVSPropertyOp16
 70
     1
102
RTVSPropertyOp17
 70
     1
102
RTVSPropertyOp18
 70
     1
102
RTVSPropertyOp19
 70
     1
102
RTVSPropertyOp20
 70
     1
102
RTVSPropertyOp21
 70
     1
102
RTVSPropertyOp22
 70
     1
102
RTVSPropertyOp23
 70
     1
102
RTVSPropertyOp24
 70
     1
102
RTVSPropertyOp25
 70
     1
102
RTVSPropertyOp26
 70
     1
102
RTVSPropertyOp27
 70
     1
102
RTVSPropertyOp28
 70
     1
102
RTVSPropertyOp29
 70
     1
102
RTVSPropertyOp30
 70
     1
102
RTVSPropertyOp31
 70
     1
102
RTVSPropertyOp32
 70
     1
102
RTVSPropertyOp33
 70
     1
102
RTVSPropertyOp34
 70
     1
102
RTVSPropertyOp35
 70
     1
102
RTVSPropertyOp36
 70
     1
102
RTVSPropertyOp37
 70
     1
102
RTVSPropertyOp38
 70
     1
102
RTVSPropertyOp39
 70
     1
102
RTVSPropertyOp40
 70
     1
102
RTVSPropertyOp41
 70
     1
102
RTVSPropertyOp42
 70
     1
102
RTVSPropertyOp43
 70
     1
102
RTVSPropertyOp44
 70
     1
102
RTVSPropertyOp45
 70
     1
102
RTVSPropertyOp46
 70
     1
102
RTVSPropertyOp47
 70
     1
102
RTVSPropertyOp48
 70
     1
102
RTVSPropertyOp49
 70
     1
102
RTVSPropertyOp50
 70
     1
102
RTVSPropertyOp51
 70
     0
102
RTVSPropertyOp52
 70
     0
102
RTVSPropertyOp53
 70
     1
102
RTVSPropertyOp54
 70
     1
102
RTVSPropertyOp55
 70
     1
102
RTVSPropertyOp56
 70
     1
102
RTVSPropertyOp57
 70
     1
102
RTVSPropertyOp58
 70
     1
102
RTVSPropertyOp59
 70
     1
102
RTVSPropertyOp60
 70
     1
102
RTVSPropertyOp61
 70
     1
102
RTVSPropertyOp62
 70
     1
  0
XRECORD
  5
748
102
{ACAD_REACTORS
330
747
102
}
330
747
100
AcDbXrecord
280
     1
102
RTVSPost2010Prop28
280
     0
102
RTVSPost2010PropOp28
 70
     1
102
RTVSPost2010Prop29
280
     1
102
RTVSPost2010PropOp29
 70
     1
102
RTVSPost2010Prop30
280
     1
102
RTVSPost2010PropOp30
 70
     1
102
RTVSPost2010Prop31
280
     0
102
RTVSPost2010PropOp31
 70
     1
102
RTVSPost2010Prop32
280
     0
102
RTVSPost2010PropOp32
 70
     1
102
RTVSPost2010Prop33
280
     0
102
RTVSPost2010PropOp33
 70
     1
102
RTVSPost2010Prop34
280
     0
102
RTVSPost2010PropOp34
 70
     1
102
RTVSPost2010Prop35
280
     0
102
RTVSPost2010PropOp35
 70
     1
102
RTVSPost2010Prop36
280
     0
102
RTVSPost2010PropOp36
 70
     1
102
RTVSPost2010Prop37
 90
       50
102
RTVSPost2010PropOp37
 70
     1
102
RTVSPost2010Prop38
140
0.0
102
RTVSPost2010PropOp38
 70
     1
102
RTVSPost2010Prop39
140
1.0
102
RTVSPost2010PropOp39
 70
     1
102
RTVSPost2010Prop40
 90
        0
102
RTVSPost2010PropOp40
 70
     1
102
RTVSPost2010Prop41ColorIndex
 90
       18
102
RTVSPost2010Prop41ColorRGB
 90
        0
102
RTVSPost2010PropOp41
 70
     1
102
RTVSPost2010Prop42
 90
       50
102
RTVSPost2010PropOp42
 70
     1
102
RTVSPost2010Prop43
 90
        3
102
RTVSPost2010PropOp43
 70
     1
102
RTVSPost2010Prop44ColorIndex
 90
        5
102
RTVSPost2010Prop44ColorRGB
 90
      255
102
RTVSPost2010PropOp44
 70
     1
102
RTVSPost2010Prop45
280
     0
102
RTVSPost2010PropOp45
 70
     1
102
RTVSPost2010Prop46
 90
       50
102
RTVSPost2010PropOp46
 70
     1
102
RTVSPost2010Prop47
 90
       50
102
RTVSPost2010PropOp47
 70
     1
102
RTVSPost2010Prop48
 90
       50
102
RTVSPost2010PropOp48
 70
     1
102
RTVSPost2010Prop49
280
     0
102
RTVSPost2010PropOp49
 70
     1
102
RTVSPost2010Prop50
 90
       50
102
RTVSPost2010PropOp50
 70
     1
102
RTVSPost2010Prop51ColorIndex
 90
      256
102
RTVSPost2010Prop51ColorRGB
 90
-16777216
102
RTVSPost2010PropOp51
 70
     0
102
RTVSPost2010Prop52
140
1.0
102
RTVSPost2010PropOp52
 70
     0
102
RTVSPost2010Prop53
 90
        2
102
RTVSPost2010PropOp53
 70
     1
102
RTVSPost2010Prop54
  1
strokes_ogs.tif
102
RTVSPost2010PropOp54
 70
     1
102
RTVSPost2010Prop55
280
     0
102
RTVSPost2010PropOp55
 70
     1
102
RTVSPost2010Prop56
140
1.0
102
RTVSPost2010PropOp56
 70
     1
102
RTVSPost2010Prop57
140
1.0
102
RTVSPost2010PropOp57
 70
     1
102
RTVSPropertyOp0
 70
     1
102
RTVSPropertyOp1
 70
     1
102
RTVSPropertyOp2
 70
     1
102
RTVSPropertyOp3
 70
     1
102
RTVSPropertyOp4
 70
     1
102
RTVSPropertyOp5
 70
     1
102
RTVSPropertyOp6
 70
     1
102
RTVSPropertyOp7
 70
     1
102
RTVSPropertyOp8
 70
     1
102
RTVSPropertyOp9
 70
     1
102
RTVSPropertyOp10
 70
     1
102
RTVSPropertyOp11
 70
     1
102
RTVSPropertyOp12
 70
     1
102
RTVSPropertyOp13
 70
     1
102
RTVSPropertyOp14
 70
     1
102
RTVSPropertyOp15
 70
     1
102
RTVSPropertyOp16
 70
     1
102
RTVSPropertyOp17
 70
     1
102
RTVSPropertyOp18
 70
     1
102
RTVSPropertyOp19
 70
     1
102
RTVSPropertyOp20
 70
     1
102
RTVSPropertyOp21
 70
     1
102
RTVSPropertyOp22
 70
     1
102
RTVSPropertyOp23
 70
     1
102
RTVSPropertyOp24
 70
     1
102
RTVSPropertyOp25
 70
     1
102
RTVSPropertyOp26
 70
     1
102
RTVSPropertyOp27
 70
     1
102
RTVSPropertyOp28
 70
     1
102
RTVSPropertyOp29
 70
     1
102
RTVSPropertyOp30
 70
     1
102
RTVSPropertyOp31
 70
     1
102
RTVSPropertyOp32
 70
     1
102
RTVSPropertyOp33
 70
     1
102
RTVSPropertyOp34
 70
     1
102
RTVSPropertyOp35
 70
     1
102
RTVSPropertyOp36
 70
     1
102
RTVSPropertyOp37
 70
     1
102
RTVSPropertyOp38
 70
     1
102
RTVSPropertyOp39
 70
     1
102
RTVSPropertyOp40
 70
     1
102
RTVSPropertyOp41
 70
     1
102
RTVSPropertyOp42
 70
     1
102
RTVSPropertyOp43
 70
     1
102
RTVSPropertyOp44
 70
     1
102
RTVSPropertyOp45
 70
     1
102
RTVSPropertyOp46
 70
     1
102
RTVSPropertyOp47
 70
     1
102
RTVSPropertyOp48
 70
     1
102
RTVSPropertyOp49
 70
     1
102
RTVSPropertyOp50
 70
     1
102
RTVSPropertyOp51
 70
     0
102
RTVSPropertyOp52
 70
     0
102
RTVSPropertyOp53
 70
     1
102
RTVSPropertyOp54
 70
     1
102
RTVSPropertyOp55
 70
     1
102
RTVSPropertyOp56
 70
     1
102
RTVSPropertyOp57
 70
     1
102
RTVSPropertyOp58
 70
     1
102
RTVSPropertyOp59
 70
     1
102
RTVSPropertyOp60
 70
     1
102
RTVSPropertyOp61
 70
     1
102
RTVSPropertyOp62
 70
     1
  0
XRECORD
  5
738
102
{ACAD_REACTORS
330
737
102
}
330
737
100
AcDbXrecord
280
     1
102
RTVSPost2010Prop28
280
     0
102
RTVSPost2010PropOp28
 70
     1
102
RTVSPost2010Prop29
280
     1
102
RTVSPost2010PropOp29
 70
     1
102
RTVSPost2010Prop30
280
     1
102
RTVSPost2010PropOp30
 70
     1
102
RTVSPost2010Prop31
280
     0
102
RTVSPost2010PropOp31
 70
     1
102
RTVSPost2010Prop32
280
     0
102
RTVSPost2010PropOp32
 70
     1
102
RTVSPost2010Prop33
280
     0
102
RTVSPost2010PropOp33
 70
     1
102
RTVSPost2010Prop34
280
     0
102
RTVSPost2010PropOp34
 70
     1
102
RTVSPost2010Prop35
280
     0
102
RTVSPost2010PropOp35
 70
     1
102
RTVSPost2010Prop36
280
     0
102
RTVSPost2010PropOp36
 70
     1
102
RTVSPost2010Prop37
 90
       50
102
RTVSPost2010PropOp37
 70
     1
102
RTVSPost2010Prop38
140
0.0
102
RTVSPost2010PropOp38
 70
     1
102
RTVSPost2010Prop39
140
1.0
102
RTVSPost2010PropOp39
 70
     1
102
RTVSPost2010Prop40
 90
        0
102
RTVSPost2010PropOp40
 70
     1
102
RTVSPost2010Prop41ColorIndex
 90
       18
102
RTVSPost2010Prop41ColorRGB
 90
        0
102
RTVSPost2010PropOp41
 70
     1
102
RTVSPost2010Prop42
 90
       50
102
RTVSPost2010PropOp42
 70
     1
102
RTVSPost2010Prop43
 90
        3
102
RTVSPost2010PropOp43
 70
     1
102
RTVSPost2010Prop44ColorIndex
 90
        5
102
RTVSPost2010Prop44ColorRGB
 90
      255
102
RTVSPost2010PropOp44
 70
     1
102
RTVSPost2010Prop45
280
     0
102
RTVSPost2010PropOp45
 70
     1
102
RTVSPost2010Prop46
 90
       50
102
RTVSPost2010PropOp46
 70
     1
102
RTVSPost2010Prop47
 90
       50
102
RTVSPost2010PropOp47
 70
     1
102
RTVSPost2010Prop48
 90
       50
102
RTVSPost2010PropOp48
 70
     1
102
RTVSPost2010Prop49
280
     0
102
RTVSPost2010PropOp49
 70
     1
102
RTVSPost2010Prop50
 90
       50
102
RTVSPost2010PropOp50
 70
     1
102
RTVSPost2010Prop51ColorIndex
 90
      256
102
RTVSPost2010Prop51ColorRGB
 90
-16777216
102
RTVSPost2010PropOp51
 70
     0
102
RTVSPost2010Prop52
140
1.0
102
RTVSPost2010PropOp52
 70
     0
102
RTVSPost2010Prop53
 90
        2
102
RTVSPost2010PropOp53
 70
     1
102
RTVSPost2010Prop54
  1
strokes_ogs.tif
102
RTVSPost2010PropOp54
 70
     1
102
RTVSPost2010Prop55
280
     0
102
RTVSPost2010PropOp55
 70
     1
102
RTVSPost2010Prop56
140
1.0
102
RTVSPost2010PropOp56
 70
     1
102
RTVSPost2010Prop57
140
1.0
102
RTVSPost2010PropOp57
 70
     1
102
RTVSPropertyOp0
 70
     1
102
RTVSPropertyOp1
 70
     1
102
RTVSPropertyOp2
 70
     1
102
RTVSPropertyOp3
 70
     1
102
RTVSPropertyOp4
 70
     1
102
RTVSPropertyOp5
 70
     1
102
RTVSPropertyOp6
 70
     1
102
RTVSPropertyOp7
 70
     1
102
RTVSPropertyOp8
 70
     1
102
RTVSPropertyOp9
 70
     1
102
RTVSPropertyOp10
 70
     1
102
RTVSPropertyOp11
 70
     1
102
RTVSPropertyOp12
 70
     1
102
RTVSPropertyOp13
 70
     1
102
RTVSPropertyOp14
 70
     1
102
RTVSPropertyOp15
 70
     1
102
RTVSPropertyOp16
 70
     1
102
RTVSPropertyOp17
 70
     1
102
RTVSPropertyOp18
 70
     1
102
RTVSPropertyOp19
 70
     1
102
RTVSPropertyOp20
 70
     1
102
RTVSPropertyOp21
 70
     1
102
RTVSPropertyOp22
 70
     1
102
RTVSPropertyOp23
 70
     1
102
RTVSPropertyOp24
 70
     1
102
RTVSPropertyOp25
 70
     1
102
RTVSPropertyOp26
 70
     1
102
RTVSPropertyOp27
 70
     1
102
RTVSPropertyOp28
 70
     1
102
RTVSPropertyOp29
 70
     1
102
RTVSPropertyOp30
 70
     1
102
RTVSPropertyOp31
 70
     1
102
RTVSPropertyOp32
 70
     1
102
RTVSPropertyOp33
 70
     1
102
RTVSPropertyOp34
 70
     1
102
RTVSPropertyOp35
 70
     1
102
RTVSPropertyOp36
 70
     1
102
RTVSPropertyOp37
 70
     1
102
RTVSPropertyOp38
 70
     1
102
RTVSPropertyOp39
 70
     1
102
RTVSPropertyOp40
 70
     1
102
RTVSPropertyOp41
 70
     1
102
RTVSPropertyOp42
 70
     1
102
RTVSPropertyOp43
 70
     1
102
RTVSPropertyOp44
 70
     1
102
RTVSPropertyOp45
 70
     1
102
RTVSPropertyOp46
 70
     1
102
RTVSPropertyOp47
 70
     1
102
RTVSPropertyOp48
 70
     1
102
RTVSPropertyOp49
 70
     1
102
RTVSPropertyOp50
 70
     1
102
RTVSPropertyOp51
 70
     0
102
RTVSPropertyOp52
 70
     0
102
RTVSPropertyOp53
 70
     1
102
RTVSPropertyOp54
 70
     1
102
RTVSPropertyOp55
 70
     1
102
RTVSPropertyOp56
 70
     1
102
RTVSPropertyOp57
 70
     1
102
RTVSPropertyOp58
 70
     1
102
RTVSPropertyOp59
 70
     1
102
RTVSPropertyOp60
 70
     1
102
RTVSPropertyOp61
 70
     1
102
RTVSPropertyOp62
 70
     1
  0
XRECORD
  5
72C
102
{ACAD_REACTORS
330
72B
102
}
330
72B
100
AcDbXrecord
280
     1
102
RTVSPost2010Prop28
280
     0
102
RTVSPost2010PropOp28
 70
     1
102
RTVSPost2010Prop29
280
     1
102
RTVSPost2010PropOp29
 70
     1
102
RTVSPost2010Prop30
280
     1
102
RTVSPost2010PropOp30
 70
     1
102
RTVSPost2010Prop31
280
     0
102
RTVSPost2010PropOp31
 70
     1
102
RTVSPost2010Prop32
280
     0
102
RTVSPost2010PropOp32
 70
     1
102
RTVSPost2010Prop33
280
     0
102
RTVSPost2010PropOp33
 70
     1
102
RTVSPost2010Prop34
280
     0
102
RTVSPost2010PropOp34
 70
     1
102
RTVSPost2010Prop35
280
     0
102
RTVSPost2010PropOp35
 70
     1
102
RTVSPost2010Prop36
280
     0
102
RTVSPost2010PropOp36
 70
     1
102
RTVSPost2010Prop37
 90
       50
102
RTVSPost2010PropOp37
 70
     1
102
RTVSPost2010Prop38
140
0.0
102
RTVSPost2010PropOp38
 70
     1
102
RTVSPost2010Prop39
140
1.0
102
RTVSPost2010PropOp39
 70
     1
102
RTVSPost2010Prop40
 90
        0
102
RTVSPost2010PropOp40
 70
     1
102
RTVSPost2010Prop41ColorIndex
 90
       18
102
RTVSPost2010Prop41ColorRGB
 90
        0
102
RTVSPost2010PropOp41
 70
     1
102
RTVSPost2010Prop42
 90
       50
102
RTVSPost2010PropOp42
 70
     1
102
RTVSPost2010Prop43
 90
        3
102
RTVSPost2010PropOp43
 70
     1
102
RTVSPost2010Prop44ColorIndex
 90
        5
102
RTVSPost2010Prop44ColorRGB
 90
      255
102
RTVSPost2010PropOp44
 70
     1
102
RTVSPost2010Prop45
280
     0
102
RTVSPost2010PropOp45
 70
     1
102
RTVSPost2010Prop46
 90
       50
102
RTVSPost2010PropOp46
 70
     1
102
RTVSPost2010Prop47
 90
       50
102
RTVSPost2010PropOp47
 70
     1
102
RTVSPost2010Prop48
 90
       50
102
RTVSPost2010PropOp48
 70
     1
102
RTVSPost2010Prop49
280
     0
102
RTVSPost2010PropOp49
 70
     1
102
RTVSPost2010Prop50
 90
       50
102
RTVSPost2010PropOp50
 70
     1
102
RTVSPost2010Prop51ColorIndex
 90
      256
102
RTVSPost2010Prop51ColorRGB
 90
-16777216
102
RTVSPost2010PropOp51
 70
     0
102
RTVSPost2010Prop52
140
1.0
102
RTVSPost2010PropOp52
 70
     0
102
RTVSPost2010Prop53
 90
        2
102
RTVSPost2010PropOp53
 70
     1
102
RTVSPost2010Prop54
  1
strokes_ogs.tif
102
RTVSPost2010PropOp54
 70
     1
102
RTVSPost2010Prop55
280
     0
102
RTVSPost2010PropOp55
 70
     1
102
RTVSPost2010Prop56
140
1.0
102
RTVSPost2010PropOp56
 70
     1
102
RTVSPost2010Prop57
140
1.0
102
RTVSPost2010PropOp57
 70
     1
102
RTVSPropertyOp0
 70
     1
102
RTVSPropertyOp1
 70
     1
102
RTVSPropertyOp2
 70
     1
102
RTVSPropertyOp3
 70
     1
102
RTVSPropertyOp4
 70
     1
102
RTVSPropertyOp5
 70
     1
102
RTVSPropertyOp6
 70
     1
102
RTVSPropertyOp7
 70
     1
102
RTVSPropertyOp8
 70
     1
102
RTVSPropertyOp9
 70
     1
102
RTVSPropertyOp10
 70
     1
102
RTVSPropertyOp11
 70
     1
102
RTVSPropertyOp12
 70
     1
102
RTVSPropertyOp13
 70
     1
102
RTVSPropertyOp14
 70
     1
102
RTVSPropertyOp15
 70
     1
102
RTVSPropertyOp16
 70
     1
102
RTVSPropertyOp17
 70
     1
102
RTVSPropertyOp18
 70
     1
102
RTVSPropertyOp19
 70
     1
102
RTVSPropertyOp20
 70
     1
102
RTVSPropertyOp21
 70
     1
102
RTVSPropertyOp22
 70
     1
102
RTVSPropertyOp23
 70
     1
102
RTVSPropertyOp24
 70
     1
102
RTVSPropertyOp25
 70
     1
102
RTVSPropertyOp26
 70
     1
102
RTVSPropertyOp27
 70
     1
102
RTVSPropertyOp28
 70
     1
102
RTVSPropertyOp29
 70
     1
102
RTVSPropertyOp30
 70
     1
102
RTVSPropertyOp31
 70
     1
102
RTVSPropertyOp32
 70
     1
102
RTVSPropertyOp33
 70
     1
102
RTVSPropertyOp34
 70
     1
102
RTVSPropertyOp35
 70
     1
102
RTVSPropertyOp36
 70
     1
102
RTVSPropertyOp37
 70
     1
102
RTVSPropertyOp38
 70
     1
102
RTVSPropertyOp39
 70
     1
102
RTVSPropertyOp40
 70
     1
102
RTVSPropertyOp41
 70
     1
102
RTVSPropertyOp42
 70
     1
102
RTVSPropertyOp43
 70
     1
102
RTVSPropertyOp44
 70
     1
102
RTVSPropertyOp45
 70
     1
102
RTVSPropertyOp46
 70
     1
102
RTVSPropertyOp47
 70
     1
102
RTVSPropertyOp48
 70
     1
102
RTVSPropertyOp49
 70
     1
102
RTVSPropertyOp50
 70
     1
102
RTVSPropertyOp51
 70
     0
102
RTVSPropertyOp52
 70
     0
102
RTVSPropertyOp53
 70
     1
102
RTVSPropertyOp54
 70
     1
102
RTVSPropertyOp55
 70
     1
102
RTVSPropertyOp56
 70
     1
102
RTVSPropertyOp57
 70
     1
102
RTVSPropertyOp58
 70
     1
102
RTVSPropertyOp59
 70
     1
102
RTVSPropertyOp60
 70
     1
102
RTVSPropertyOp61
 70
     1
102
RTVSPropertyOp62
 70
     1
  0
XRECORD
  5
74A
102
{ACAD_REACTORS
330
749
102
}
330
749
100
AcDbXrecord
280
     1
102
RTVSPost2010Prop28
280
     0
102
RTVSPost2010PropOp28
 70
     1
102
RTVSPost2010Prop29
280
     1
102
RTVSPost2010PropOp29
 70
     1
102
RTVSPost2010Prop30
280
     1
102
RTVSPost2010PropOp30
 70
     1
102
RTVSPost2010Prop31
280
     0
102
RTVSPost2010PropOp31
 70
     1
102
RTVSPost2010Prop32
280
     0
102
RTVSPost2010PropOp32
 70
     1
102
RTVSPost2010Prop33
280
     0
102
RTVSPost2010PropOp33
 70
     1
102
RTVSPost2010Prop34
280
     0
102
RTVSPost2010PropOp34
 70
     1
102
RTVSPost2010Prop35
280
     0
102
RTVSPost2010PropOp35
 70
     1
102
RTVSPost2010Prop36
280
     0
102
RTVSPost2010PropOp36
 70
     1
102
RTVSPost2010Prop37
 90
       50
102
RTVSPost2010PropOp37
 70
     1
102
RTVSPost2010Prop38
140
0.0
102
RTVSPost2010PropOp38
 70
     1
102
RTVSPost2010Prop39
140
1.0
102
RTVSPost2010PropOp39
 70
     1
102
RTVSPost2010Prop40
 90
        0
102
RTVSPost2010PropOp40
 70
     1
102
RTVSPost2010Prop41ColorIndex
 90
       18
102
RTVSPost2010Prop41ColorRGB
 90
        0
102
RTVSPost2010PropOp41
 70
     1
102
RTVSPost2010Prop42
 90
       50
102
RTVSPost2010PropOp42
 70
     1
102
RTVSPost2010Prop43
 90
        3
102
RTVSPost2010PropOp43
 70
     1
102
RTVSPost2010Prop44ColorIndex
 90
        5
102
RTVSPost2010Prop44ColorRGB
 90
      255
102
RTVSPost2010PropOp44
 70
     1
102
RTVSPost2010Prop45
280
     0
102
RTVSPost2010PropOp45
 70
     1
102
RTVSPost2010Prop46
 90
       50
102
RTVSPost2010PropOp46
 70
     1
102
RTVSPost2010Prop47
 90
       50
102
RTVSPost2010PropOp47
 70
     1
102
RTVSPost2010Prop48
 90
       50
102
RTVSPost2010PropOp48
 70
     1
102
RTVSPost2010Prop49
280
     0
102
RTVSPost2010PropOp49
 70
     1
102
RTVSPost2010Prop50
 90
       50
102
RTVSPost2010PropOp50
 70
     1
102
RTVSPost2010Prop51ColorIndex
 90
      256
102
RTVSPost2010Prop51ColorRGB
 90
-16777216
102
RTVSPost2010PropOp51
 70
     0
102
RTVSPost2010Prop52
140
1.0
102
RTVSPost2010PropOp52
 70
     0
102
RTVSPost2010Prop53
 90
        2
102
RTVSPost2010PropOp53
 70
     1
102
RTVSPost2010Prop54
  1
strokes_ogs.tif
102
RTVSPost2010PropOp54
 70
     1
102
RTVSPost2010Prop55
280
     0
102
RTVSPost2010PropOp55
 70
     1
102
RTVSPost2010Prop56
140
1.0
102
RTVSPost2010PropOp56
 70
     1
102
RTVSPost2010Prop57
140
1.0
102
RTVSPost2010PropOp57
 70
     1
102
RTVSPropertyOp0
 70
     1
102
RTVSPropertyOp1
 70
     1
102
RTVSPropertyOp2
 70
     1
102
RTVSPropertyOp3
 70
     1
102
RTVSPropertyOp4
 70
     1
102
RTVSPropertyOp5
 70
     1
102
RTVSPropertyOp6
 70
     1
102
RTVSPropertyOp7
 70
     1
102
RTVSPropertyOp8
 70
     1
102
RTVSPropertyOp9
 70
     1
102
RTVSPropertyOp10
 70
     1
102
RTVSPropertyOp11
 70
     1
102
RTVSPropertyOp12
 70
     1
102
RTVSPropertyOp13
 70
     1
102
RTVSPropertyOp14
 70
     1
102
RTVSPropertyOp15
 70
     1
102
RTVSPropertyOp16
 70
     1
102
RTVSPropertyOp17
 70
     1
102
RTVSPropertyOp18
 70
     1
102
RTVSPropertyOp19
 70
     1
102
RTVSPropertyOp20
 70
     1
102
RTVSPropertyOp21
 70
     1
102
RTVSPropertyOp22
 70
     1
102
RTVSPropertyOp23
 70
     1
102
RTVSPropertyOp24
 70
     1
102
RTVSPropertyOp25
 70
     1
102
RTVSPropertyOp26
 70
     1
102
RTVSPropertyOp27
 70
     1
102
RTVSPropertyOp28
 70
     1
102
RTVSPropertyOp29
 70
     1
102
RTVSPropertyOp30
 70
     1
102
RTVSPropertyOp31
 70
     1
102
RTVSPropertyOp32
 70
     1
102
RTVSPropertyOp33
 70
     1
102
RTVSPropertyOp34
 70
     1
102
RTVSPropertyOp35
 70
     1
102
RTVSPropertyOp36
 70
     1
102
RTVSPropertyOp37
 70
     1
102
RTVSPropertyOp38
 70
     1
102
RTVSPropertyOp39
 70
     1
102
RTVSPropertyOp40
 70
     1
102
RTVSPropertyOp41
 70
     1
102
RTVSPropertyOp42
 70
     1
102
RTVSPropertyOp43
 70
     1
102
RTVSPropertyOp44
 70
     1
102
RTVSPropertyOp45
 70
     1
102
RTVSPropertyOp46
 70
     1
102
RTVSPropertyOp47
 70
     1
102
RTVSPropertyOp48
 70
     1
102
RTVSPropertyOp49
 70
     1
102
RTVSPropertyOp50
 70
     1
102
RTVSPropertyOp51
 70
     0
102
RTVSPropertyOp52
 70
     0
102
RTVSPropertyOp53
 70
     1
102
RTVSPropertyOp54
 70
     1
102
RTVSPropertyOp55
 70
     1
102
RTVSPropertyOp56
 70
     1
102
RTVSPropertyOp57
 70
     1
102
RTVSPropertyOp58
 70
     1
102
RTVSPropertyOp59
 70
     1
102
RTVSPropertyOp60
 70
     1
102
RTVSPropertyOp61
 70
     1
102
RTVSPropertyOp62
 70
     1
  0
ACDBASSOCGEOMDEPENDENCY
  5
449
330
448
100
AcDbAssocDependency
 90
        2
 90
        0
290
     1
290
     1
290
     1
290
     1
 90
   -10000
330
365
290
     0
330
0
330
0
360
0
 90
        1
100
AcDbAssocGeomDependency
 90
        0
290
     1
  1
AcDbAssocSingleEdgePersSubentId
290
     0
  0
ACDBASSOCGEOMDEPENDENCY
  5
44A
330
448
100
AcDbAssocDependency
 90
        2
 90
        0
290
     1
290
     1
290
     1
290
     1
 90
   -10000
330
360
290
     0
330
0
330
0
360
0
 90
        2
100
AcDbAssocGeomDependency
 90
        0
290
     1
  1
AcDbAssocSingleEdgePersSubentId
290
     0
  0
ENDSEC
  0
EOF
