  0
SECTION
  2
HEADER
  9
$ACADVER
  1
AC1027
  9
$ACADMAINTVER
 70
    55
  9
$DWGCODEPAGE
  3
ANSI_1252
  9
$LASTSAVEDBY
  1
Jason
  9
$REQUIREDVERSIONS
160
                 0
  9
$INSBASE
 10
0.0
 20
0.0
 30
0.0
  9
$EXTMIN
 10
-83.79741204404309
 20
49.1821748218074
 30
0.0
  9
$EXTMAX
 10
289.3443150419409
 20
589.2317904606036
 30
0.0
  9
$LIMMIN
 10
0.0
 20
0.0
  9
$LIMMAX
 10
12.0
 20
9.0
  9
$ORTHOMODE
 70
     0
  9
$REGENMODE
 70
     1
  9
$FILLMODE
 70
     1
  9
$QTEXTMODE
 70
     0
  9
$MIRRTEXT
 70
     1
  9
$LTSCALE
 40
5.0
  9
$ATTMODE
 70
     1
  9
$TEXTSIZE
 40
0.2
  9
$TRACEWID
 40
0.05
  9
$TEXTSTYLE
  7
Standard
  9
$CLAYER
  8
0
  9
$CELTYPE
  6
PLASTER
  9
$CECOLOR
 62
   256
  9
$CELTSCALE
 40
1.0
  9
$DISPSILH
 70
     0
  9
$DIMSCALE
 40
1.0
  9
$DIMASZ
 40
0.18
  9
$DIMEXO
 40
0.0625
  9
$DIMDLI
 40
0.38
  9
$DIMRND
 40
0.0
  9
$DIMDLE
 40
0.0
  9
$DIMEXE
 40
0.18
  9
$DIMTP
 40
0.0
  9
$DIMTM
 40
0.0
  9
$DIMTXT
 40
0.18
  9
$DIMCEN
 40
0.09
  9
$DIMTSZ
 40
0.0
  9
$DIMTOL
 70
     0
  9
$DIMLIM
 70
     0
  9
$DIMTIH
 70
     1
  9
$DIMTOH
 70
     1
  9
$DIMSE1
 70
     0
  9
$DIMSE2
 70
     0
  9
$DIMTAD
 70
     0
  9
$DIMZIN
 70
     0
  9
$DIMBLK
  1

  9
$DIMASO
 70
     1
  9
$DIMSHO
 70
     1
  9
$DIMPOST
  1

  9
$DIMAPOST
  1

  9
$DIMALT
 70
     0
  9
$DIMALTD
 70
     2
  9
$DIMALTF
 40
25.4
  9
$DIMLFAC
 40
1.0
  9
$DIMTOFL
 70
     0
  9
$DIMTVP
 40
0.0
  9
$DIMTIX
 70
     0
  9
$DIMSOXD
 70
     0
  9
$DIMSAH
 70
     0
  9
$DIMBLK1
  1

  9
$DIMBLK2
  1

  9
$DIMSTYLE
  2
Standard
  9
$DIMCLRD
 70
     0
  9
$DIMCLRE
 70
     0
  9
$DIMCLRT
 70
     0
  9
$DIMTFAC
 40
1.0
  9
$DIMGAP
 40
0.09
  9
$DIMJUST
 70
     0
  9
$DIMSD1
 70
     0
  9
$DIMSD2
 70
     0
  9
$DIMTOLJ
 70
     1
  9
$DIMTZIN
 70
     0
  9
$DIMALTZ
 70
     0
  9
$DIMALTTZ
 70
     0
  9
$DIMUPT
 70
     0
  9
$DIMDEC
 70
     4
  9
$DIMTDEC
 70
     4
  9
$DIMALTU
 70
     2
  9
$DIMALTTD
 70
     2
  9
$DIMTXSTY
  7
Standard
  9
$DIMAUNIT
 70
     0
  9
$DIMADEC
 70
     0
  9
$DIMALTRND
 40
0.0
  9
$DIMAZIN
 70
     0
  9
$DIMDSEP
 70
    46
  9
$DIMATFIT
 70
     3
  9
$DIMFRAC
 70
     0
  9
$DIMLDRBLK
  1

  9
$DIMLUNIT
 70
     2
  9
$DIMLWD
 70
    -2
  9
$DIMLWE
 70
    -2
  9
$DIMTMOVE
 70
     0
  9
$DIMFXL
 40
1.0
  9
$DIMFXLON
 70
     0
  9
$DIMJOGANG
 40
0.7853981633974483
  9
$DIMTFILL
 70
     0
  9
$DIMTFILLCLR
 70
     0
  9
$DIMARCSYM
 70
     0
  9
$DIMLTYPE
  6

  9
$DIMLTEX1
  6

  9
$DIMLTEX2
  6

  9
$DIMTXTDIRECTION
 70
     0
  9
$LUNITS
 70
     2
  9
$LUPREC
 70
     4
  9
$SKETCHINC
 40
0.1
  9
$FILLETRAD
 40
0.5
  9
$AUNITS
 70
     0
  9
$AUPREC
 70
     0
  9
$MENU
  1
.
  9
$ELEVATION
 40
0.0
  9
$PELEVATION
 40
0.0
  9
$THICKNESS
 40
0.0
  9
$LIMCHECK
 70
     0
  9
$CHAMFERA
 40
0.5
  9
$CHAMFERB
 40
0.5
  9
$CHAMFERC
 40
1.0
  9
$CHAMFERD
 40
0.0
  9
$SKPOLY
 70
     0
  9
$TDCREATE
 40
2456216.552270394
  9
$TDUCREATE
 40
2456216.010603727
  9
$TDUPDATE
 40
2456636.573795127
  9
$TDUUPDATE
 40
2456636.032128461
  9
$TDINDWG
 40
0.0083556134
  9
$TDUSRTIMER
 40
0.0083556134
  9
$USRTIMER
 70
     1
  9
$ANGBASE
 50
0.0
  9
$ANGDIR
 70
     0
  9
$PDMODE
 70
     0
  9
$PDSIZE
 40
0.0
  9
$PLINEWID
 40
0.0
  9
$SPLFRAME
 70
     0
  9
$SPLINETYPE
 70
     6
  9
$SPLINESEGS
 70
     8
  9
$HANDSEED
  5
47E
  9
$SURFTAB1
 70
     6
  9
$SURFTAB2
 70
     6
  9
$SURFTYPE
 70
     6
  9
$SURFU
 70
     6
  9
$SURFV
 70
     6
  9
$UCSBASE
  2

  9
$UCSNAME
  2

  9
$UCSORG
 10
0.0
 20
0.0
 30
0.0
  9
$UCSXDIR
 10
1.0
 20
0.0
 30
0.0
  9
$UCSYDIR
 10
0.0
 20
1.0
 30
0.0
  9
$UCSORTHOREF
  2

  9
$UCSORTHOVIEW
 70
     0
  9
$UCSORGTOP
 10
0.0
 20
0.0
 30
0.0
  9
$UCSORGBOTTOM
 10
0.0
 20
0.0
 30
0.0
  9
$UCSORGLEFT
 10
0.0
 20
0.0
 30
0.0
  9
$UCSORGRIGHT
 10
0.0
 20
0.0
 30
0.0
  9
$UCSORGFRONT
 10
0.0
 20
0.0
 30
0.0
  9
$UCSORGBACK
 10
0.0
 20
0.0
 30
0.0
  9
$PUCSBASE
  2

  9
$PUCSNAME
  2

  9
$PUCSORG
 10
0.0
 20
0.0
 30
0.0
  9
$PUCSXDIR
 10
1.0
 20
0.0
 30
0.0
  9
$PUCSYDIR
 10
0.0
 20
1.0
 30
0.0
  9
$PUCSORTHOREF
  2

  9
$PUCSORTHOVIEW
 70
     0
  9
$PUCSORGTOP
 10
0.0
 20
0.0
 30
0.0
  9
$PUCSORGBOTTOM
 10
0.0
 20
0.0
 30
0.0
  9
$PUCSORGLEFT
 10
0.0
 20
0.0
 30
0.0
  9
$PUCSORGRIGHT
 10
0.0
 20
0.0
 30
0.0
  9
$PUCSORGFRONT
 10
0.0
 20
0.0
 30
0.0
  9
$PUCSORGBACK
 10
0.0
 20
0.0
 30
0.0
  9
$USERI1
 70
     0
  9
$USERI2
 70
     0
  9
$USERI3
 70
     0
  9
$USERI4
 70
     0
  9
$USERI5
 70
     0
  9
$USERR1
 40
0.0
  9
$USERR2
 40
0.0
  9
$USERR3
 40
0.0
  9
$USERR4
 40
0.0
  9
$USERR5
 40
0.0
  9
$WORLDVIEW
 70
     1
  9
$SHADEDGE
 70
     3
  9
$SHADEDIF
 70
    70
  9
$TILEMODE
 70
     1
  9
$MAXACTVP
 70
    64
  9
$PINSBASE
 10
0.0
 20
0.0
 30
0.0
  9
$PLIMCHECK
 70
     0
  9
$PEXTMIN
 10
1.000000000000000E+20
 20
1.000000000000000E+20
 30
1.000000000000000E+20
  9
$PEXTMAX
 10
-1.000000000000000E+20
 20
-1.000000000000000E+20
 30
-1.000000000000000E+20
  9
$PLIMMIN
 10
0.0
 20
0.0
  9
$PLIMMAX
 10
12.0
 20
9.0
  9
$UNITMODE
 70
     0
  9
$VISRETAIN
 70
     1
  9
$PLINEGEN
 70
     0
  9
$PSLTSCALE
 70
     1
  9
$TREEDEPTH
 70
  3020
  9
$CMLSTYLE
  2
Standard
  9
$CMLJUST
 70
     0
  9
$CMLSCALE
 40
1.0
  9
$PROXYGRAPHICS
 70
     1
  9
$MEASUREMENT
 70
     0
  9
$CELWEIGHT
370
    -1
  9
$ENDCAPS
280
     0
  9
$JOINSTYLE
280
     0
  9
$LWDISPLAY
290
     1
  9
$INSUNITS
 70
     0
  9
$HYPERLINKBASE
  1

  9
$STYLESHEET
  1

  9
$XEDIT
290
     1
  9
$CEPSNTYPE
380
     0
  9
$PSTYLEMODE
290
     1
  9
$FINGERPRINTGUID
  2
{CA6F52FE-16DC-4676-910E-B41403479BFE}
  9
$VERSIONGUID
  2
{7540A4B2-EDCE-45A9-8A61-11B5C283BAB1}
  9
$EXTNAMES
290
     1
  9
$PSVPSCALE
 40
0.0
  9
$OLESTARTUP
290
     0
  9
$SORTENTS
280
   127
  9
$INDEXCTL
280
     0
  9
$HIDETEXT
280
     1
  9
$XCLIPFRAME
280
     0
  9
$HALOGAP
280
     0
  9
$OBSCOLOR
 70
   257
  9
$OBSLTYPE
280
     0
  9
$INTERSECTIONDISPLAY
280
     0
  9
$INTERSECTIONCOLOR
 70
   257
  9
$DIMASSOC
280
     2
  9
$PROJECTNAME
  1

  9
$CAMERADISPLAY
290
     0
  9
$LENSLENGTH
 40
50.0
  9
$CAMERAHEIGHT
 40
0.0
  9
$STEPSPERSEC
 40
2.0
  9
$STEPSIZE
 40
6.0
  9
$3DDWFPREC
 40
2.0
  9
$PSOLWIDTH
 40
0.25
  9
$PSOLHEIGHT
 40
4.0
  9
$LOFTANG1
 40
1.570796326794896
  9
$LOFTANG2
 40
1.570796326794896
  9
$LOFTMAG1
 40
0.0
  9
$LOFTMAG2
 40
0.0
  9
$LOFTPARAM
 70
     7
  9
$LOFTNORMALS
280
     1
  9
$LATITUDE
 40
37.795
  9
$LONGITUDE
 40
-122.394
  9
$NORTHDIRECTION
 40
0.0
  9
$TIMEZONE
 70
 -8000
  9
$LIGHTGLYPHDISPLAY
280
     1
  9
$TILEMODELIGHTSYNCH
280
     1
  9
$CMATERIAL
347
3C
  9
$SOLIDHIST
280
     1
  9
$SHOWHIST
280
     1
  9
$DWFFRAME
280
     2
  9
$DGNFRAME
280
     2
  9
$REALWORLDSCALE
290
     1
  9
$INTERFERECOLOR
 62
   256
  9
$INTERFEREOBJVS
345
33
  9
$INTERFEREVPVS
346
253
  9
$CSHADOW
280
     0
  9
$SHADOWPLANELOCATION
 40
0.0
  0
ENDSEC
  0
SECTION
  2
CLASSES
  0
CLASS
  1
ACDBDICTIONARYWDFLT
  2
AcDbDictionaryWithDefault
  3
ObjectDBX Classes
 90
        0
 91
        1
280
     0
281
     0
  0
CLASS
  1
VISUALSTYLE
  2
AcDbVisualStyle
  3
ObjectDBX Classes
 90
     4095
 91
       26
280
     0
281
     0
  0
CLASS
  1
MATERIAL
  2
AcDbMaterial
  3
ObjectDBX Classes
 90
     1153
 91
        3
280
     0
281
     0
  0
CLASS
  1
SCALE
  2
AcDbScale
  3
ObjectDBX Classes
 90
     1153
 91
       33
280
     0
281
     0
  0
CLASS
  1
DICTIONARYVAR
  2
AcDbDictionaryVar
  3
ObjectDBX Classes
 90
        0
 91
       17
280
     0
281
     0
  0
CLASS
  1
TABLESTYLE
  2
AcDbTableStyle
  3
ObjectDBX Classes
 90
     4095
 91
        1
280
     0
281
     0
  0
CLASS
  1
MLEADERSTYLE
  2
AcDbMLeaderStyle
  3
ACDB_MLEADERSTYLE_CLASS
 90
     4095
 91
        1
280
     0
281
     0
  0
CLASS
  1
ACDBSECTIONVIEWSTYLE
  2
AcDbSectionViewStyle
  3
ObjectDBX Classes
 90
     1025
 91
        1
280
     0
281
     0
  0
CLASS
  1
ACDBDETAILVIEWSTYLE
  2
AcDbDetailViewStyle
  3
ObjectDBX Classes
 90
     1025
 91
        1
280
     0
281
     0
  0
CLASS
  1
EXACXREFPANELOBJECT
  2
ExAcXREFPanelObject
  3
EXAC_ESW
 90
     1025
 91
        1
280
     0
281
     0
  0
CLASS
  1
NPOCOLLECTION
  2
AcDbImpNonPersistentObjectsCollection
  3
ObjectDBX Classes
 90
     1153
 91
        1
280
     0
281
     0
  0
CLASS
  1
IMAGE
  2
AcDbRasterImage
  3
ISM
 90
     2175
 91
        2
280
     0
281
     1
  0
CLASS
  1
IMAGEDEF_REACTOR
  2
AcDbRasterImageDefReactor
  3
ISM
 90
        1
 91
        2
280
     0
281
     0
  0
CLASS
  1
SORTENTSTABLE
  2
AcDbSortentsTable
  3
ObjectDBX Classes
 90
        0
 91
        2
280
     0
281
     0
  0
CLASS
  1
IMAGEDEF
  2
AcDbRasterImageDef
  3
ISM
 90
        0
 91
        2
280
     0
281
     0
  0
CLASS
  1
RASTERVARIABLES
  2
AcDbRasterVariables
  3
ISM
 90
        0
 91
        1
280
     0
281
     0
  0
CLASS
  1
ACAD_EVALUATION_GRAPH
  2
AcDbEvalGraph
  3
ObjectDBX Classes
 90
     1153
 91
        0
280
     0
281
     0
  0
CLASS
  1
ACAECUSTOBJ
  2
AcAeEditorObj
  3
AcAeEditorObj
 90
     1024
 91
        0
280
     0
281
     0
  0
CLASS
  1
ACDB_DYNAMICBLOCKPURGEPREVENTER_VERSION
  2
AcDbDynamicBlockPurgePreventer
  3
ObjectDBX Classes
 90
     1153
 91
        0
280
     0
281
     0
  0
CLASS
  1
ACDBASSOCNETWORK
  2
AcDbAssocNetwork
  3
ObjectDBX Classes
 90
     1025
 91
        0
280
     0
281
     0
  0
CLASS
  1
ACDBASSOC2DCONSTRAINTGROUP
  2
AcDbAssoc2dConstraintGroup
  3
ObjectDBX Classes
 90
     1025
 91
        0
280
     0
281
     0
  0
CLASS
  1
ACDBASSOCGEOMDEPENDENCY
  2
AcDbAssocGeomDependency
  3
ObjectDBX Classes
 90
     1025
 91
        0
280
     0
281
     0
  0
CLASS
  1
CELLSTYLEMAP
  2
AcDbCellStyleMap
  3
ObjectDBX Classes
 90
     1152
 91
        2
280
     0
281
     0
  0
ENDSEC
  0
SECTION
  2
TABLES
  0
TABLE
  2
VPORT
  5
8
330
0
100
AcDbSymbolTable
 70
     1
  0
VPORT
  5
29
330
8
100
AcDbSymbolTableRecord
100
AcDbViewportTableRecord
  2
*Active
 70
     0
 10
0.0
 20
0.0
 11
1.0
 21
1.0
 12
135.9085192510024
 22
301.5023119893684
 13
0.0
 23
0.0
 14
0.5
 24
0.5
 15
0.5
 25
0.5
 16
0.0
 26
0.0
 36
1.0
 17
0.0
 27
0.0
 37
0.0
 40
772.0667701241382
 41
1.816348195329086
 42
50.0
 43
0.0
 44
0.0
 50
0.0
 51
0.0
 71
     0
 72
   100
 73
     1
 74
     3
 75
     0
 76
     0
 77
     0
 78
     0
281
     0
 65
     1
110
0.0
120
0.0
130
0.0
111
1.0
121
0.0
131
0.0
112
0.0
122
1.0
132
0.0
 79
     0
146
0.0
348
2F
 60
     3
 61
     5
292
     1
282
     1
141
0.0
142
0.0
 63
   250
1001
ACAD_NAV_VCDISPLAY
1070
     3
  0
ENDTAB
  0
TABLE
  2
LTYPE
  5
5
330
0
100
AcDbSymbolTable
 70
     8
  0
LTYPE
  5
14
330
5
100
AcDbSymbolTableRecord
100
AcDbLinetypeTableRecord
  2
ByBlock
 70
     0
  3

 72
    65
 73
     0
 40
0.0
  0
LTYPE
  5
15
330
5
100
AcDbSymbolTableRecord
100
AcDbLinetypeTableRecord
  2
ByLayer
 70
     0
  3

 72
    65
 73
     0
 40
0.0
  0
LTYPE
  5
16
330
5
100
AcDbSymbolTableRecord
100
AcDbLinetypeTableRecord
  2
Continuous
 70
     0
  3
Solid line
 72
    65
 73
     0
 40
0.0
  0
LTYPE
  5
42
330
5
100
AcDbSymbolTableRecord
100
AcDbLinetypeTableRecord
  2
Dotted
 70
     0
  3
- - - - - 
 72
    65
 73
     2
 40
12.69999980926513
 49
0.0
 74
     0
 49
-12.69999980926513
 74
     0
  0
LTYPE
  5
1E3
330
5
100
AcDbSymbolTableRecord
100
AcDbLinetypeTableRecord
  2
Hidden
 70
     0
  3
- - - - - 
 72
    65
 73
     2
 40
4.938889980316162
 49
2.822222709655761
 74
     0
 49
-2.1166672706604
 74
     0
  0
LTYPE
  5
1F1
330
5
100
AcDbSymbolTableRecord
100
AcDbLinetypeTableRecord
  2
Sketch
 70
     0
  3
??????????
 72
    65
 73
     3
 40
40.0
 49
0.0
 74
     4
 75
     1
340
1F2
 46
0.3174603174603174
 50
0.0
 44
0.0
 45
0.0
 49
-40.0
 74
     0
 49
0.0
 74
     0
  0
LTYPE
  5
1F4
330
5
100
AcDbSymbolTableRecord
100
AcDbLinetypeTableRecord
  2
Above
 70
     0
  3
- - - - - 
 72
    65
 73
     2
 40
9.599999999999999
 49
6.0
 74
     0
 49
-3.6
 74
     0
  0
LTYPE
  5
303
330
5
100
AcDbSymbolTableRecord
100
AcDbLinetypeTableRecord
  2
ZIGZAG
 70
     0
  3
Zig zag /\/\/\/\/\/\/\/\/\/\/\/\/\/\/\/\/\/\/\/
 72
    65
 73
     4
 40
0.8001000000000001
 49
0.0001
 74
     0
 49
-0.2
 74
     4
 75
   131
340
302
 46
0.2
 50
0.0
 44
-0.2
 45
0.0
 49
-0.4
 74
     4
 75
   131
340
302
 46
0.2
 50
180.0
 44
0.2
 45
0.0
 49
-0.2
 74
     0
  0
LTYPE
  5
323
330
5
100
AcDbSymbolTableRecord
100
AcDbLinetypeTableRecord
  2
DASHEDX2
 70
     0
  3
Dashed (2x) ____  ____  ____  ____  ____  ___
 72
    65
 73
     2
 40
1.5
 49
1.0
 74
     0
 49
-0.5
 74
     0
  0
LTYPE
  5
37E
330
5
100
AcDbSymbolTableRecord
100
AcDbLinetypeTableRecord
  2
PLASTER
 70
     0
  3
PLASTER
 72
    65
 73
     2
 40
2.379214999999999
 49
0.000024
 74
     4
 75
     1
340
37F
 46
0.2
 50
0.0
 44
0.0
 45
0.0
 49
-2.379191
 74
     0
  0
ENDTAB
  0
TABLE
  2
LAYER
  5
2
102
{ACAD_XDICTIONARY
360
276
102
}
330
0
100
AcDbSymbolTable
 70
     5
  0
LAYER
  5
10
102
{ACAD_XDICTIONARY
360
29E
102
}
330
2
100
AcDbSymbolTableRecord
100
AcDbLayerTableRecord
  2
0
 70
     0
 62
     7
  6
Continuous
370
    -3
390
F
347
3E
348
0
  0
LAYER
  5
40
102
{ACAD_XDICTIONARY
360
2A0
102
}
330
2
100
AcDbSymbolTableRecord
100
AcDbLayerTableRecord
  2
Specialized_Fills
 70
     0
 62
     7
  6
Continuous
370
    -3
390
F
347
3E
348
0
  0
LAYER
  5
1DD
102
{ACAD_XDICTIONARY
360
2A2
102
}
330
2
100
AcDbSymbolTableRecord
100
AcDbLayerTableRecord
  2
Specialized_Lines
 70
     0
 62
     7
  6
Continuous
370
    -3
390
F
347
3E
348
0
  0
LAYER
  5
210
102
{ACAD_XDICTIONARY
360
2A4
102
}
330
2
100
AcDbSymbolTableRecord
100
AcDbLayerTableRecord
  2
Specialized_Text
 70
     0
 62
     7
  6
Continuous
370
    -3
390
F
347
3E
348
0
  0
LAYER
  5
26D
102
{ACAD_XDICTIONARY
360
26E
102
}
330
2
100
AcDbSymbolTableRecord
100
AcDbLayerTableRecord
  2
Viewport
 70
     0
 62
     7
  6
Continuous
370
    -3
390
F
347
3E
348
0
1001
AcAecLayerStandard
1000

1000

1001
AcCmTransparency
1071
        0
  0
ENDTAB
  0
TABLE
  2
STYLE
  5
3
330
0
100
AcDbSymbolTable
 70
     6
  0
STYLE
  5
11
330
3
100
AcDbSymbolTableRecord
100
AcDbTextStyleTableRecord
  2
Standard
 70
     0
 40
0.0
 41
1.0
 50
0.0
 71
     0
 42
0.2
  3
txt
  4
BIGFONT.SHX
  0
STYLE
  5
1F2
330
3
100
AcDbSymbolTableRecord
100
AcDbTextStyleTableRecord
  2

 70
     1
 40
0.2
 41
1.0
 50
0.0
 71
     0
 42
0.2
  3
04J Wall_ External Corner - SCHIST1.Shx
  4

  0
STYLE
  5
20E
330
3
100
AcDbSymbolTableRecord
100
AcDbTextStyleTableRecord
  2
GENERATED_STYLE_1
 70
     0
 40
0.0
 41
1.0
 50
0.0
 71
     0
 42
0.2
  3
ARIALUNI.TTF
  4

1001
ACAD
1000
Arial Unicode MS
1071
       34
  0
STYLE
  5
26F
330
3
100
AcDbSymbolTableRecord
100
AcDbTextStyleTableRecord
  2
GENERATED_STYLE_2
 70
     0
 40
0.0
 41
1.0
 50
0.0
 71
     0
 42
0.2
  3
ARIALUNI.TTF
  4

1001
ACAD
1000
Arial Unicode MS
1071
       34
  0
STYLE
  5
302
330
3
100
AcDbSymbolTableRecord
100
AcDbTextStyleTableRecord
  2

 70
     1
 40
0.0
 41
1.0
 50
0.0
 71
     0
 42
0.2
  3
ltypeshp.shx
  4

  0
STYLE
  5
37F
330
3
100
AcDbSymbolTableRecord
100
AcDbTextStyleTableRecord
  2

 70
     1
 40
0.0
 41
1.0
 50
0.0
 71
     0
 42
0.2
  3
P:\VERT-X CONSULTING LTD\2013\10 OCT\1310-015- SPECIALIZED CONSTRUCTION PRODUCTS - CONTRACT DRAUGHTING\DRAWINGS\PLASTER.SHX
  4

  0
ENDTAB
  0
TABLE
  2
VIEW
  5
6
330
0
100
AcDbSymbolTable
 70
     0
  0
ENDTAB
  0
TABLE
  2
UCS
  5
7
330
0
100
AcDbSymbolTable
 70
     0
  0
ENDTAB
  0
TABLE
  2
APPID
  5
9
330
0
100
AcDbSymbolTable
 70
    11
  0
APPID
  5
12
330
9
100
AcDbSymbolTableRecord
100
AcDbRegAppTableRecord
  2
ACAD
 70
     0
  0
APPID
  5
270
330
9
100
AcDbSymbolTableRecord
100
AcDbRegAppTableRecord
  2
ACAD_PSEXT
 70
     0
  0
APPID
  5
271
330
9
100
AcDbSymbolTableRecord
100
AcDbRegAppTableRecord
  2
ACAD_NAV_VCDISPLAY
 70
     0
  0
APPID
  5
272
330
9
100
AcDbSymbolTableRecord
100
AcDbRegAppTableRecord
  2
AcAecLayerStandard
 70
     0
  0
APPID
  5
273
330
9
100
AcDbSymbolTableRecord
100
AcDbRegAppTableRecord
  2
AcCmTransparency
 70
     0
  0
APPID
  5
274
330
9
100
AcDbSymbolTableRecord
100
AcDbRegAppTableRecord
  2
GradientColor1ACI
 70
     0
  0
APPID
  5
275
330
9
100
AcDbSymbolTableRecord
100
AcDbRegAppTableRecord
  2
GradientColor2ACI
 70
     0
  0
APPID
  5
29C
330
9
100
AcDbSymbolTableRecord
100
AcDbRegAppTableRecord
  2
ACAD_EXEMPT_FROM_CAD_STANDARDS
 70
     0
  0
APPID
  5
2C1
330
9
100
AcDbSymbolTableRecord
100
AcDbRegAppTableRecord
  2
ACAUTHENVIRON
 70
     0
  0
APPID
  5
2D0
330
9
100
AcDbSymbolTableRecord
100
AcDbRegAppTableRecord
  2
AcDbDynamicBlockTrueName
 70
     0
  0
APPID
  5
2D1
330
9
100
AcDbSymbolTableRecord
100
AcDbRegAppTableRecord
  2
AcDbDynamicBlockGUID
 70
     0
  0
ENDTAB
  0
TABLE
  2
DIMSTYLE
  5
A
330
0
100
AcDbSymbolTable
 70
     2
100
AcDbDimStyleTable
 71
     1
340
27
  0
DIMSTYLE
105
27
330
A
100
AcDbSymbolTableRecord
100
AcDbDimStyleTableRecord
  2
Standard
 70
     0
340
11
  0
DIMSTYLE
105
212
330
A
100
AcDbSymbolTableRecord
100
AcDbDimStyleTableRecord
  2
GENERATED_STYLE__1
 70
     0
 41
7.295999999999999
172
     1
341
213
  0
ENDTAB
  0
TABLE
  2
BLOCK_RECORD
  5
1
330
0
100
AcDbSymbolTable
 70
     4
  0
BLOCK_RECORD
  5
1F
102
{ACAD_XDICTIONARY
360
3FC
102
}
330
1
100
AcDbSymbolTableRecord
100
AcDbBlockTableRecord
  2
*Model_Space
340
22
 70
     0
280
     1
281
     0
  0
BLOCK_RECORD
  5
1B
330
1
100
AcDbSymbolTableRecord
100
AcDbBlockTableRecord
  2
*Paper_Space
340
1E
 70
     0
280
     1
281
     0
  0
BLOCK_RECORD
  5
23
330
1
100
AcDbSymbolTableRecord
100
AcDbBlockTableRecord
  2
*Paper_Space0
340
26
 70
     0
280
     1
281
     0
  0
BLOCK_RECORD
  5
61
102
{ACAD_XDICTIONARY
360
2C2
102
}
330
1
100
AcDbSymbolTableRecord
100
AcDbBlockTableRecord
  2
Fill_1
340
0
102
{BLKREFS
331
1AD
102
}
 70
     0
280
     1
281
     0
1001
AcDbDynamicBlockGUID
1000
{5459B8AE-7975-4D0F-A897-EE0DDB109FBE}
  0
BLOCK_RECORD
  5
213
330
1
100
AcDbSymbolTableRecord
100
AcDbBlockTableRecord
  2
ARROWHEAD_5
340
0
 70
     0
280
     1
281
     0
  0
BLOCK_RECORD
  5
228
330
1
100
AcDbSymbolTableRecord
100
AcDbBlockTableRecord
  2
04J Wall_ External Corner - SCH_STORY_MARKER
340
0
 70
     0
280
     1
281
     0
  0
ENDTAB
  0
ENDSEC
  0
SECTION
  2
BLOCKS
  0
BLOCK
  5
20
330
1F
100
AcDbEntity
  8
0
100
AcDbBlockBegin
  2
*Model_Space
 70
     0
 10
0.0
 20
0.0
 30
0.0
  3
*Model_Space
  1

  0
ENDBLK
  5
21
330
1F
100
AcDbEntity
  8
0
100
AcDbBlockEnd
  0
BLOCK
  5
1C
330
1B
100
AcDbEntity
 67
     1
  8
0
100
AcDbBlockBegin
  2
*Paper_Space
 70
     0
 10
0.0
 20
0.0
 30
0.0
  3
*Paper_Space
  1

  0
ENDBLK
  5
1D
330
1B
100
AcDbEntity
 67
     1
  8
0
100
AcDbBlockEnd
  0
BLOCK
  5
24
330
23
100
AcDbEntity
 67
     1
  8
0
100
AcDbBlockBegin
  2
*Paper_Space0
 70
     0
 10
0.0
 20
0.0
 30
0.0
  3
*Paper_Space0
  1

  0
ENDBLK
  5
25
330
23
100
AcDbEntity
 67
     1
  8
0
100
AcDbBlockEnd
  0
BLOCK
  5
62
330
61
100
AcDbEntity
  8
0
100
AcDbBlockBegin
  2
Fill_1
 70
     0
 10
0.0
 20
0.0
 30
0.0
  3
Fill_1
  1

  0
LINE
  5
2BD
102
{ACAD_REACTORS
330
2CF
102
}
330
61
100
AcDbEntity
  8
Specialized_Fills
  6
Continuous
100
AcDbLine
 10
130.6834127313193
 20
108.0589418046243
 30
0.0
 11
130.683412731329
 21
334.9181503176227
 31
0.0
  0
LINE
  5
2BE
102
{ACAD_REACTORS
330
2CF
102
}
330
61
100
AcDbEntity
  8
Specialized_Fills
  6
Continuous
100
AcDbLine
 10
130.683412731329
 20
334.9181503176227
 30
0.0
 11
89.68341273133262
 21
334.9181503176227
 31
0.0
  0
LINE
  5
2BF
102
{ACAD_REACTORS
330
2CF
102
}
330
61
100
AcDbEntity
  8
Specialized_Fills
  6
Continuous
100
AcDbLine
 10
89.68341273133262
 20
334.9181503176227
 30
0.0
 11
89.68341273133264
 21
108.0589418046234
 31
0.0
  0
LINE
  5
2C0
102
{ACAD_REACTORS
330
2CF
102
}
330
61
100
AcDbEntity
  8
Specialized_Fills
  6
Continuous
100
AcDbLine
 10
89.68341273133264
 20
108.0589418046234
 30
0.0
 11
130.6834127313193
 21
108.0589418046243
 31
0.0
  0
HATCH
  5
2CF
330
61
100
AcDbEntity
  8
0
 62
   251
420
  6250335
100
AcDbHatch
 10
0.0
 20
0.0
 30
0.0
210
0.0
220
0.0
230
1.0
  2
HPCRC1E0
 70
     0
 71
     1
 91
        1
 92
        7
 72
     0
 73
     1
 93
        4
 10
130.683412731329
 20
334.9181503176227
 10
89.68341273133262
 20
334.9181503176227
 10
89.68341273133264
 20
108.0589418046233
 10
130.6834127313193
 20
108.0589418046242
 97
        4
330
2BE
330
2BF
330
2C0
330
2BD
 75
     1
 76
     2
 52
0.0
 41
0.12
 77
     0
 78
    78
 53
82.8749847
 43
0.0
 44
4.2
 45
-0.0000004961129005
 46
8.399999852931037
 79
     2
 49
0.9674709324
 49
-66.75549316799998
 53
75.96376039999999
 43
0.12
 44
5.16
 45
-0.000000348785556
 46
8.399999709154096
 79
     2
 49
0.4947726600000001
 49
-34.139315184
 53
63.43495179999999
 43
0.24
 44
5.639999999999999
 45
-0.0000000286036308
 46
8.400000041591663
 79
     2
 49
1.073312639999999
 49
-17.70965881199999
 53
45.0
 43
0.72
 44
6.599999999999999
 45
0.0000000000000009
 46
8.400000002875099
 79
     2
 49
1.527350688
 49
-10.352043456
 53
33.6900673
 43
1.799999999999999
 44
7.679999999999999
 45
0.0000001596020127
 46
8.399999824188462
 79
     2
 49
0.4326661440000001
 49
-29.85396423600001
 53
33.6900673
 43
10.2
 44
7.679999999999999
 45
0.0000001596020127
 46
8.399999824188462
 79
     2
 49
0.4326661440000001
 49
-29.85396423600001
 53
33.6900673
 43
18.6
 44
7.679999999999999
 45
0.0000001596020127
 46
8.399999824188462
 79
     2
 49
0.4326661440000001
 49
-29.85396423600001
 53
26.5650501
 43
2.16
 44
7.919999999999999
 45
-0.0000000460215162
 46
8.400000143556356
 79
     2
 49
0.26832816
 49
-18.514643556
 53
26.5650501
 43
10.56
 44
7.919999999999999
 45
-0.0000000460215162
 46
8.400000143556356
 79
     2
 49
0.26832816
 49
-18.514643556
 53
18.434948
 43
2.399999999999999
 44
8.039999999999999
 45
0.0000002686412607
 46
8.399999851558131
 79
     2
 49
0.3794733239999999
 49
-26.183659056
 53
18.434948
 43
10.8
 44
8.039999999999999
 45
0.0000002686412607
 46
8.399999851558131
 79
     2
 49
0.3794733239999999
 49
-26.183659056
 53
18.434948
 43
19.2
 44
8.039999999999999
 45
0.0000002686412607
 46
8.399999851558131
 79
     2
 49
0.3794733239999999
 49
-26.183659056
 53
26.5650501
 43
2.759999999999999
 44
8.16
 45
-0.0000000460215162
 46
8.400000143556356
 79
     2
 49
0.26832816
 49
-18.514643556
 53
26.5650501
 43
11.16
 44
8.16
 45
-0.0000000460215162
 46
8.400000143556356
 79
     2
 49
0.26832816
 49
-18.514643556
 53
11.3099327
 43
3.0
 44
8.279999999999999
 45
-0.0000000543109101
 46
8.400000069389928
 79
     2
 49
0.6118823435999998
 49
-42.21988036799999
 53
11.3099327
 43
11.4
 44
8.279999999999999
 45
-0.0000000543109101
 46
8.400000069389928
 79
     2
 49
0.6118823435999998
 49
-42.21988036799999
 53
11.3099327
 43
19.8
 44
8.279999999999999
 45
-0.0000000543109101
 46
8.400000069389928
 79
     2
 49
0.6118823435999998
 49
-42.21988036799999
 53
11.3099327
 43
28.2
 44
8.279999999999999
 45
-0.0000000543109101
 46
8.400000069389928
 79
     2
 49
0.6118823435999998
 49
-42.21988036799999
 53
11.3099327
 43
36.6
 44
8.279999999999999
 45
-0.0000000543109101
 46
8.400000069389928
 79
     2
 49
0.6118823435999998
 49
-42.21988036799999
 53
0.0
 43
3.599999999999999
 44
8.4
 45
0.0
 46
8.4
 79
     2
 49
1.199999999999999
 49
-7.199999999999999
 53
348.6900673
 43
4.799999999999999
 44
8.4
 45
0.0000000543109101
 46
8.400000069389928
 79
     2
 49
0.6118823435999998
 49
-42.21988036799999
 53
348.6900673
 43
13.2
 44
8.4
 45
0.0000000543109101
 46
8.400000069389928
 79
     2
 49
0.6118823435999998
 49
-42.21988036799999
 53
348.6900673
 43
21.6
 44
8.4
 45
0.0000000543109101
 46
8.400000069389928
 79
     2
 49
0.6118823435999998
 49
-42.21988036799999
 53
348.6900673
 43
30.0
 44
8.4
 45
0.0000000543109101
 46
8.400000069389928
 79
     2
 49
0.6118823435999998
 49
-42.21988036799999
 53
348.6900673
 43
38.4
 44
8.4
 45
0.0000000543109101
 46
8.400000069389928
 79
     2
 49
0.6118823435999998
 49
-42.21988036799999
 53
333.4349499
 43
5.399999999999999
 44
8.279999999999999
 45
0.0000000460215162
 46
8.400000143556356
 79
     2
 49
0.2683281599999999
 49
-18.514643556
 53
333.4349499
 43
13.8
 44
8.279999999999999
 45
0.0000000460215162
 46
8.400000143556356
 79
     2
 49
0.2683281599999999
 49
-18.514643556
 53
341.565052
 43
5.639999999999999
 44
8.16
 45
-0.0000002686412607
 46
8.399999851558131
 79
     2
 49
0.379473324
 49
-26.183659056
 53
341.565052
 43
14.04
 44
8.16
 45
-0.0000002686412607
 46
8.399999851558131
 79
     2
 49
0.379473324
 49
-26.183659056
 53
341.565052
 43
22.44
 44
8.16
 45
-0.0000002686412607
 46
8.399999851558131
 79
     2
 49
0.379473324
 49
-26.183659056
 53
333.4349499
 43
6.0
 44
8.039999999999999
 45
0.0000000460215162
 46
8.400000143556356
 79
     2
 49
0.2683281599999999
 49
-18.514643556
 53
333.4349499
 43
14.4
 44
8.039999999999999
 45
0.0000000460215162
 46
8.400000143556356
 79
     2
 49
0.2683281599999999
 49
-18.514643556
 53
326.3099327
 43
6.24
 44
7.919999999999999
 45
-0.0000001596020127
 46
8.399999824188462
 79
     2
 49
0.4326661440000001
 49
-29.85396423600001
 53
326.3099327
 43
14.64
 44
7.919999999999999
 45
-0.0000001596020127
 46
8.399999824188462
 79
     2
 49
0.4326661440000001
 49
-29.85396423600001
 53
326.3099327
 43
23.04
 44
7.919999999999999
 45
-0.0000001596020127
 46
8.399999824188462
 79
     2
 49
0.4326661440000001
 49
-29.85396423600001
 53
315.0
 43
6.599999999999999
 44
7.679999999999999
 45
-0.0000000000000009
 46
8.400000002875099
 79
     2
 49
1.527350688
 49
-10.352043456
 53
296.5650482
 43
7.679999999999999
 44
6.599999999999999
 45
0.0000000286036308
 46
8.400000041591663
 79
     2
 49
1.073312639999999
 49
-17.70965881199999
 53
284.0362396
 43
8.16
 44
5.639999999999999
 45
0.000000348785556
 46
8.399999709154096
 79
     2
 49
0.4947726600000001
 49
-34.139315184
 53
277.1250153
 43
8.279999999999999
 44
5.16
 45
0.0000004961129005
 46
8.399999852931037
 79
     2
 49
0.9674709324
 49
-66.75549316799998
 53
277.1250153
 43
0.0
 44
4.2
 45
0.0000004961129005
 46
8.399999852931037
 79
     2
 49
0.9674709324
 49
-66.75549316799998
 53
284.0362396
 43
0.12
 44
3.239999999999999
 45
0.000000348785556
 46
8.399999709154096
 79
     2
 49
0.4947726600000001
 49
-34.139315184
 53
296.5650482
 43
0.24
 44
2.759999999999999
 45
0.0000000286036308
 46
8.400000041591663
 79
     2
 49
1.073312639999999
 49
-17.70965881199999
 53
315.0
 43
0.72
 44
1.799999999999999
 45
-0.0000000000000009
 46
8.400000002875099
 79
     2
 49
1.527350688
 49
-10.352043456
 53
326.3099327
 43
1.799999999999999
 44
0.72
 45
-0.0000001596020127
 46
8.399999824188462
 79
     2
 49
0.4326661440000001
 49
-29.85396423600001
 53
326.3099327
 43
10.2
 44
0.72
 45
-0.0000001596020127
 46
8.399999824188462
 79
     2
 49
0.4326661440000001
 49
-29.85396423600001
 53
326.3099327
 43
18.6
 44
0.72
 45
-0.0000001596020127
 46
8.399999824188462
 79
     2
 49
0.4326661440000001
 49
-29.85396423600001
 53
333.4349499
 43
2.16
 44
0.48
 45
0.0000000460215162
 46
8.400000143556356
 79
     2
 49
0.2683281599999999
 49
-18.514643556
 53
333.4349499
 43
10.56
 44
0.48
 45
0.0000000460215162
 46
8.400000143556356
 79
     2
 49
0.2683281599999999
 49
-18.514643556
 53
341.565052
 43
2.399999999999999
 44
0.36
 45
-0.0000002686412607
 46
8.399999851558131
 79
     2
 49
0.379473324
 49
-26.183659056
 53
341.565052
 43
10.8
 44
0.36
 45
-0.0000002686412607
 46
8.399999851558131
 79
     2
 49
0.379473324
 49
-26.183659056
 53
341.565052
 43
19.2
 44
0.36
 45
-0.0000002686412607
 46
8.399999851558131
 79
     2
 49
0.379473324
 49
-26.183659056
 53
333.4349499
 43
2.759999999999999
 44
0.24
 45
0.0000000460215162
 46
8.400000143556356
 79
     2
 49
0.2683281599999999
 49
-18.514643556
 53
333.4349499
 43
11.16
 44
0.24
 45
0.0000000460215162
 46
8.400000143556356
 79
     2
 49
0.2683281599999999
 49
-18.514643556
 53
348.6900673
 43
3.0
 44
0.12
 45
0.0000000543109101
 46
8.400000069389928
 79
     2
 49
0.6118823435999998
 49
-42.21988036799999
 53
348.6900673
 43
11.4
 44
0.12
 45
0.0000000543109101
 46
8.400000069389928
 79
     2
 49
0.6118823435999998
 49
-42.21988036799999
 53
348.6900673
 43
19.8
 44
0.12
 45
0.0000000543109101
 46
8.400000069389928
 79
     2
 49
0.6118823435999998
 49
-42.21988036799999
 53
348.6900673
 43
28.2
 44
0.12
 45
0.0000000543109101
 46
8.400000069389928
 79
     2
 49
0.6118823435999998
 49
-42.21988036799999
 53
348.6900673
 43
36.6
 44
0.12
 45
0.0000000543109101
 46
8.400000069389928
 79
     2
 49
0.6118823435999998
 49
-42.21988036799999
 53
0.0
 43
3.599999999999999
 44
0.0
 45
0.0
 46
8.4
 79
     2
 49
1.199999999999999
 49
-7.199999999999999
 53
11.3099327
 43
4.799999999999999
 44
0.0
 45
-0.0000000543109101
 46
8.400000069389928
 79
     2
 49
0.6118823435999998
 49
-42.21988036799999
 53
11.3099327
 43
13.2
 44
0.0
 45
-0.0000000543109101
 46
8.400000069389928
 79
     2
 49
0.6118823435999998
 49
-42.21988036799999
 53
11.3099327
 43
21.6
 44
0.0
 45
-0.0000000543109101
 46
8.400000069389928
 79
     2
 49
0.6118823435999998
 49
-42.21988036799999
 53
11.3099327
 43
30.0
 44
0.0
 45
-0.0000000543109101
 46
8.400000069389928
 79
     2
 49
0.6118823435999998
 49
-42.21988036799999
 53
11.3099327
 43
38.4
 44
0.0
 45
-0.0000000543109101
 46
8.400000069389928
 79
     2
 49
0.6118823435999998
 49
-42.21988036799999
 53
26.5650501
 43
5.399999999999999
 44
0.12
 45
-0.0000000460215162
 46
8.400000143556356
 79
     2
 49
0.26832816
 49
-18.514643556
 53
26.5650501
 43
13.8
 44
0.12
 45
-0.0000000460215162
 46
8.400000143556356
 79
     2
 49
0.26832816
 49
-18.514643556
 53
18.434948
 43
5.639999999999999
 44
0.24
 45
0.0000002686412607
 46
8.399999851558131
 79
     2
 49
0.3794733239999999
 49
-26.183659056
 53
18.434948
 43
14.04
 44
0.24
 45
0.0000002686412607
 46
8.399999851558131
 79
     2
 49
0.3794733239999999
 49
-26.183659056
 53
18.434948
 43
22.44
 44
0.24
 45
0.0000002686412607
 46
8.399999851558131
 79
     2
 49
0.3794733239999999
 49
-26.183659056
 53
26.5650501
 43
6.0
 44
0.36
 45
-0.0000000460215162
 46
8.400000143556356
 79
     2
 49
0.26832816
 49
-18.514643556
 53
26.5650501
 43
14.4
 44
0.36
 45
-0.0000000460215162
 46
8.400000143556356
 79
     2
 49
0.26832816
 49
-18.514643556
 53
33.6900673
 43
6.24
 44
0.48
 45
0.0000001596020127
 46
8.399999824188462
 79
     2
 49
0.4326661440000001
 49
-29.85396423600001
 53
33.6900673
 43
14.64
 44
0.48
 45
0.0000001596020127
 46
8.399999824188462
 79
     2
 49
0.4326661440000001
 49
-29.85396423600001
 53
33.6900673
 43
23.04
 44
0.48
 45
0.0000001596020127
 46
8.399999824188462
 79
     2
 49
0.4326661440000001
 49
-29.85396423600001
 53
45.0
 43
6.599999999999999
 44
0.72
 45
0.0000000000000009
 46
8.400000002875099
 79
     2
 49
1.527350688
 49
-10.352043456
 53
63.43495179999999
 43
7.679999999999999
 44
1.799999999999999
 45
-0.0000000286036308
 46
8.400000041591663
 79
     2
 49
1.073312639999999
 49
-17.70965881199999
 53
75.96376039999999
 43
8.16
 44
2.759999999999999
 45
-0.000000348785556
 46
8.399999709154096
 79
     2
 49
0.4947726600000001
 49
-34.139315184
 53
82.8749847
 43
8.279999999999999
 44
3.239999999999999
 45
-0.0000004961129005
 46
8.399999852931037
 79
     2
 49
0.9674709324
 49
-66.75549316799998
 47
0.3375163569800202
 98
        1
 10
116.3548731875692
 20
303.8425371435807
1001
GradientColor1ACI
1070
     5
1001
GradientColor2ACI
1070
     2
1001
ACAD
1010
0.0
1020
0.0
1030
0.0
  0
ENDBLK
  5
63
330
61
100
AcDbEntity
  8
0
100
AcDbBlockEnd
  0
BLOCK
  5
214
330
213
100
AcDbEntity
  8
0
100
AcDbBlockBegin
  2
ARROWHEAD_5
 70
     0
 10
0.0
 20
0.0
 30
0.0
  3
ARROWHEAD_5
  1

  0
SOLID
  5
216
330
213
100
AcDbEntity
  8
0
  6
Continuous
 62
     0
370
     0
100
AcDbTrace
 10
-1.0
 20
0.2679
 30
0.0
 11
0.0
 21
0.0
 31
0.0
 12
-1.0
 22
-0.2679
 32
0.0
 13
-1.0
 23
0.2679
 33
0.0
  0
LINE
  5
217
330
213
100
AcDbEntity
  8
0
  6
Continuous
 62
     0
370
     0
100
AcDbLine
 10
0.0
 20
0.0
 30
0.0
 11
-1.0
 21
0.0
 31
0.0
  0
ENDBLK
  5
215
330
213
100
AcDbEntity
  8
0
100
AcDbBlockEnd
  0
BLOCK
  5
229
330
228
100
AcDbEntity
  8
0
100
AcDbBlockBegin
  2
04J Wall_ External Corner - SCH_STORY_MARKER
 70
     0
 10
0.0
 20
0.0
 30
0.0
  3
04J Wall_ External Corner - SCH_STORY_MARKER
  1

  0
ENDBLK
  5
22A
330
228
100
AcDbEntity
  8
0
100
AcDbBlockEnd
  0
ENDSEC
  0
SECTION
  2
ENTITIES
  0
HATCH
  5
3F
330
1F
100
AcDbEntity
  8
Specialized_Fills
  6
Continuous
100
AcDbHatch
 10
0.0
 20
0.0
 30
0.0
210
0.0
220
0.0
230
1.0
  2
LINES___VERTICAL
 70
     0
 71
     1
 91
        1
 92
        1
 93
        4
 72
     1
 10
64.683412731323
 20
350.42532033871
 11
64.683412731323
 21
357.92532033871
 72
     1
 10
64.683412731323
 20
357.92532033871
 11
-71.86152521030727
 21
357.92532033871
 72
     1
 10
-71.86152521030726
 20
357.92532033871
 11
-71.86152521030727
 21
350.4253203387101
 72
     1
 10
-71.86152521030727
 20
350.4253203387101
 11
64.683412731323
 21
350.42532033871
 97
        1
330
41
 75
     0
 76
     2
 52
0.0
 41
1.0
 77
     0
 78
     1
 53
90.0
 43
0.0
 44
14.50717002108843
 45
-2.0
 46
0.0
 79
     0
 98
        0
  0
LWPOLYLINE
  5
41
102
{ACAD_REACTORS
330
3F
102
}
330
1F
100
AcDbEntity
  8
Specialized_Fills
  6
Continuous
100
AcDbPolyline
 90
        4
 70
   129
 43
0.0
 10
64.683412731323
 20
350.42532033871
 10
64.683412731323
 20
357.92532033871
 10
-71.86152521030726
 20
357.92532033871
 10
-71.86152521030727
 20
350.4253203387101
  0
HATCH
  5
43
330
1F
100
AcDbEntity
  8
Specialized_Fills
  6
Continuous
 62
     7
420
 16250871
370
     0
100
AcDbHatch
 10
0.0
 20
0.0
 30
0.0
210
0.0
220
0.0
230
1.0
  2
SOLID
 70
     1
 71
     0
 91
        1
 92
        2
 72
     0
 73
     1
 93
       11
 10
142.6556521886157
 20
507.0614655861774
 10
137.1543238133503
 20
514.3965700865317
 10
132.569883500629
 20
518.0641223367088
 10
124.7763349690024
 20
521.2732305556138
 10
112.8567901559273
 20
522.1901186181583
 10
99.26699317062642
 20
524.6661074287665
 10
81.68259602942191
 20
519.9543824153905
 10
86.48157268607725
 20
519.9543824153903
 10
102.1482695704232
 20
519.9543824153903
 10
125.256647474834
 20
517.2127104606297
 10
132.6983284948983
 20
510.5543642847827
 97
        0
 75
     0
 76
     1
 98
        0
450
        0
451
        0
460
0.0
461
0.0
452
        1
462
0.0
453
        0
470

  0
HATCH
  5
44
330
1F
100
AcDbEntity
  8
Specialized_Fills
  6
Continuous
 62
     7
420
 16250871
370
     0
100
AcDbHatch
 10
0.0
 20
0.0
 30
0.0
210
0.0
220
0.0
230
1.0
  2
SOLID
 70
     1
 71
     0
 91
        1
 92
        2
 72
     0
 73
     1
 93
        7
 10
146.8259550584555
 20
502.0586310193059
 10
142.655652188616
 20
507.0614655861775
 10
132.6983284948983
 20
510.5543642847829
 10
139.7483420928543
 20
502.7210158426091
 10
142.8816814697235
 20
490.9709931793503
 10
147.5816905350272
 20
483.9209795813944
 10
147.2462616313157
 20
491.9712732705516
 97
        0
 75
     0
 76
     1
 98
        0
450
        0
451
        0
460
0.0
461
0.0
452
        1
462
0.0
453
        0
470

  0
HATCH
  5
45
330
1F
100
AcDbEntity
  8
Specialized_Fills
  6
Continuous
100
AcDbHatch
 10
0.0
 20
0.0
 30
0.0
210
0.0
220
0.0
230
1.0
  2
ANSI31
 70
     0
 71
     1
 91
        1
 92
        1
 93
        8
 72
     1
 10
118.6703769617491
 20
359.5412695094794
 11
115.8566293442176
 21
359.3707393508405
 72
     1
 10
115.8566293442176
 20
359.3707393508405
 11
110.2306209512386
 21
359.3707393508418
 72
     2
 10
107.3799215697927
 20
354.6906534724877
 40
5.479935290872085
 50
301.3461215556656
 51
341.2150783914805
 73
     0
 72
     2
 10
108.0046831339334
 20
354.4213566968289
 40
4.996036358117954
 50
335.9767033568427
 51
350.4711910340052
 73
     0
 72
     2
 10
107.8232133028425
 20
354.3666504745692
 40
5.18411375672253
 50
350.2069294858853
 51
404.6200089444523
 73
     0
 72
     1
 10
111.5131659155919
 20
350.7253203387118
 11
128.7816542738119
 21
350.7253203387118
 72
     2
 10
135.1258302188135
 20
355.4396972668854
 40
7.9040444230807
 50
143.3838445291948
 51
216.6161554708049
 73
     0
 72
     1
 10
128.7816542738119
 20
360.1540741950591
 11
118.6703769617491
 21
359.5412695094794
 97
        1
330
46
 75
     0
 76
     2
 52
0.0
 41
1.0
 77
     0
 78
     1
 53
45.0
 43
0.0
 44
14.50717002108843
 45
-0.4419417382415923
 46
0.4419417382415923
 79
     0
 98
        0
  0
LWPOLYLINE
  5
46
102
{ACAD_REACTORS
330
45
102
}
330
1F
100
AcDbEntity
  8
Specialized_Fills
  6
Continuous
100
AcDbPolyline
 90
        8
 70
   129
 43
0.0
 10
118.6703769617491
 20
359.5412695094794
 10
115.8566293442176
 20
359.3707393508405
 10
110.2306209512386
 20
359.3707393508418
 42
-0.1757374789662164
 10
112.5679628314015
 20
356.4552833656918
 42
-0.0633285901914697
 10
112.9317866257521
 20
355.248418044338
 42
-0.2419858718840609
 10
111.5131659155919
 20
350.7253203387118
 10
128.7816542738119
 20
350.7253203387118
 42
-0.3308747904218577
 10
128.7816542738119
 20
360.1540741950591
  0
HATCH
  5
47
330
1F
100
AcDbEntity
  8
Specialized_Fills
  6
Continuous
100
AcDbHatch
 10
0.0
 20
0.0
 30
0.0
210
0.0
220
0.0
230
1.0
  2
APDCONC
 70
     0
 71
     1
 91
        1
 92
        1
 93
        9
 72
     2
 10
108.0046831339334
 20
354.421356696829
 40
4.996036358117874
 50
312.2861527506451
 51
360.0
 73
     1
 72
     2
 10
108.0046831339332
 20
354.421356696829
 40
4.996036358118118
 50
0.0
 51
9.528808966027527
 73
     1
 72
     2
 10
107.8232133028427
 20
354.3666504745691
 40
5.184113756722389
 50
9.793070514148096
 51
23.75903509500573
 73
     1
 72
     2
 10
107.6345035729104
 20
354.2999589740395
 40
5.383720227541809
 50
23.59950301339893
 51
66.07933983190867
 73
     1
 72
     1
 10
109.8174472323164
 20
359.2212596627093
 11
106.3349830299725
 21
359.1622348457204
 72
     1
 10
106.3349830299725
 20
359.1622348457204
 11
105.4557953685607
 21
358.7182800672381
 72
     2
 10
108.0046831339334
 20
354.4213566968289
 40
4.996036358117793
 50
120.6759526852729
 51
179.9999999999993
 73
     1
 72
     2
 10
108.0046831339335
 20
354.421356696829
 40
4.996036358117891
 50
180.0
 51
227.7138472493546
 73
     1
 72
     1
 10
104.6431813072031
 20
350.7253203387118
 11
111.3661849606637
 21
350.7253203387118
 97
        1
330
48
 75
     0
 76
     2
 52
0.0
 41
1.0
 77
     0
 78
     5
 53
0.0
 43
0.0
 44
14.50717002108843
 45
0.5
 46
0.5
 79
     2
 49
0.1
 49
-0.9000000000000001
 53
90.0
 43
0.0999999999999091
 44
14.50717002108843
 45
-0.5
 46
0.5
 79
     2
 49
0.1
 49
-0.9000000000000001
 53
45.0
 43
0.0
 44
14.50717002108843
 45
0.0
 46
0.9999999997361818
 79
     2
 49
0.1414235625
 49
-0.5656854240000002
 53
7.600000000000001
 43
0.3000000000001819
 44
14.50717002108843
 45
0.2147397874986048
 46
0.280867982627166
 79
     2
 49
0.0
 49
-0.4999999999999992
 53
352.4
 43
0.3000000000001819
 44
14.50717002108843
 45
0.2808679826271661
 46
0.2147397874986046
 79
     2
 49
0.0
 49
-0.4999999999999992
 98
        0
  0
LWPOLYLINE
  5
48
102
{ACAD_REACTORS
330
47
102
}
330
1F
100
AcDbEntity
  8
Specialized_Fills
  6
Continuous
100
AcDbPolyline
 90
        9
 70
   129
 43
0.0
 10
111.3661849606637
 20
350.7253203387118
 42
0.2112519192501988
 10
113.0007194920513
 20
354.421356696829
 42
0.0416012469292809
 10
112.9317866257517
 20
355.2484180443409
 42
0.0610135584249589
 10
112.5679628314026
 20
356.4552833656892
 42
0.1875054910461684
 10
109.8174472323164
 20
359.2212596627093
 10
106.3349830299725
 20
359.1622348457204
 10
105.4557953685607
 20
358.7182800672381
 42
0.2647905221574471
 10
103.0086467758156
 20
354.421356696829
 42
0.2112519192501971
 10
104.6431813072031
 20
350.7253203387118
  0
HATCH
  5
49
330
1F
100
AcDbEntity
  8
Specialized_Fills
  6
Continuous
 62
     7
420
 16250871
370
     0
100
AcDbHatch
 10
0.0
 20
0.0
 30
0.0
210
0.0
220
0.0
230
1.0
  2
SOLID
 70
     1
 71
     0
 91
        1
 92
        2
 72
     0
 73
     1
 93
        8
 10
144.0347740864243
 20
384.7390624069201
 10
142.1677363800736
 20
397.1825150861186
 10
140.5911805357259
 20
388.701731612071
 10
136.615002715985
 20
373.862433968862
 10
136.2233352938764
 20
367.5957552151235
 10
131.4604494073036
 20
360.8591928998899
 10
135.2078753259415
 20
361.9670439235131
 10
144.0347740864243
 20
372.3680837339621
 97
        0
 75
     0
 76
     1
 98
        0
450
        0
451
        0
460
0.0
461
0.0
452
        1
462
0.0
453
        0
470

  0
HATCH
  5
4A
330
1F
100
AcDbEntity
  8
Specialized_Fills
  6
Continuous
 62
   254
420
 14671839
370
    13
100
AcDbHatch
 10
0.0
 20
0.0
 30
0.0
210
0.0
220
0.0
230
1.0
  2
SOLID
 70
     1
 71
     1
 91
        1
 92
        1
 93
        8
 72
     1
 10
21.54553522214969
 20
521.87476306288
 11
22.87205151633939
 21
523.2012793570699
 72
     1
 10
22.87205151633939
 20
523.2012793570699
 11
20.32080104930531
 21
523.7666818710492
 72
     1
 10
20.32080104930531
 20
523.7666818710492
 11
15.45690797060666
 21
523.7666818710492
 72
     1
 10
15.45690797060666
 20
523.7666818710492
 11
8.015069021408006
 21
523.2012793570698
 72
     1
 10
8.015069021408006
 20
523.2012793570698
 11
13.32113419817219
 21
521.6094598040408
 72
     1
 10
13.32113419817219
 20
521.6094598040408
 11
17.03537982190242
 21
520.8135500275274
 72
     1
 10
17.03537982190242
 20
520.8135500275274
 11
17.36190690970306
 21
519.1809145885242
 72
     1
 10
17.36190690970306
 20
519.1809145885242
 11
21.54553522214969
 21
521.87476306288
 97
        1
330
4B
 75
     0
 76
     1
 98
        0
450
        0
451
        0
460
0.0
461
0.0
452
        1
462
0.0
453
        0
470

  0
LWPOLYLINE
  5
4B
102
{ACAD_REACTORS
330
4A
102
}
330
1F
100
AcDbEntity
  8
Specialized_Fills
  6
Continuous
100
AcDbPolyline
 90
        8
 70
   129
 43
0.0
 10
21.54553522214969
 20
521.87476306288
 10
22.87205151633939
 20
523.2012793570699
 10
20.32080104930531
 20
523.7666818710492
 10
15.45690797060666
 20
523.7666818710492
 10
8.015069021408006
 20
523.2012793570698
 10
13.32113419817219
 20
521.6094598040408
 10
17.03537982190242
 20
520.8135500275274
 10
17.36190690970306
 20
519.1809145885242
  0
HATCH
  5
4C
330
1F
100
AcDbEntity
  8
Specialized_Fills
  6
Continuous
 62
     7
420
 16250871
370
     0
100
AcDbHatch
 10
0.0
 20
0.0
 30
0.0
210
0.0
220
0.0
230
1.0
  2
SOLID
 70
     1
 71
     0
 91
        1
 92
        2
 72
     0
 73
     1
 93
        9
 10
-34.5247520874864
 20
510.6262114608012
 10
-35.00044451540724
 20
513.956058456247
 10
-38.65761786171203
 20
514.7091071931888
 10
-36.72841368526425
 20
508.0946928739394
 10
-36.33674626315564
 20
503.3946838086356
 10
-36.33674626315814
 20
476.8709659834406
 10
-33.81127472539882
 20
491.3626606014572
 10
-32.20656470437389
 20
503.9328890994859
 10
-34.15627533910016
 20
508.0468742220981
 97
        0
 75
     0
 76
     1
 98
        0
450
        0
451
        0
460
0.0
461
0.0
452
        1
462
0.0
453
        0
470

  0
HATCH
  5
4D
330
1F
100
AcDbEntity
  8
Specialized_Fills
  6
Continuous
 62
     7
420
 16250871
370
     0
100
AcDbHatch
 10
0.0
 20
0.0
 30
0.0
210
0.0
220
0.0
230
1.0
  2
SOLID
 70
     1
 71
     0
 91
        1
 92
        2
 72
     0
 73
     1
 93
       19
 10
1.656898055427666
 20
405.0320829032067
 10
4.104819443606747
 20
404.7600916378534
 10
5.638368315829481
 20
402.9477156979538
 10
6.653323497453629
 20
410.1738021406713
 10
4.106412212608323
 20
413.6758051573333
 10
4.180465219140391
 20
420.0791897776823
 10
-2.477880956707693
 20
409.8958368028547
 10
-8.195471834175355
 20
399.7124838280325
 10
-8.195471834170804
 20
378.2054214422325
 10
-11.87789908731428
 20
364.4624158382535
 10
-13.31495891159511
 20
363.8573380175037
 10
-9.702175440082754
 20
362.0739659039177
 10
-6.119762608550571
 20
362.4577958501531
 10
-2.810959911498003
 20
363.8592388708967
 10
-5.958857374462889
 20
364.7773756309282
 10
-5.958857374462889
 20
371.8491485301123
 10
-5.958857374462889
 20
380.0088864907092
 10
-5.958857374472326
 20
390.6165458394855
 10
-1.335005863456906
 20
398.7762838000842
 97
        0
 75
     0
 76
     1
 98
        0
450
        0
451
        0
460
0.0
461
0.0
452
        1
462
0.0
453
        0
470

  0
HATCH
  5
4E
330
1F
100
AcDbEntity
  8
Specialized_Fills
  6
Continuous
 62
     7
420
 16250871
370
     0
100
AcDbHatch
 10
0.0
 20
0.0
 30
0.0
210
0.0
220
0.0
230
1.0
  2
SOLID
 70
     1
 71
     0
 91
        1
 92
        2
 72
     0
 73
     1
 93
       23
 10
-39.84892839029635
 20
361.7003396144701
 10
-36.85420348213656
 20
362.4307742219384
 10
-24.91555683442506
 20
362.4307742219327
 10
-12.96238514191306
 20
359.2279315199326
 10
-3.028037980286085
 20
359.2279315199229
 10
2.683796609216967
 20
362.9741445646555
 10
0.5689329940145385
 20
362.8734367734555
 10
-2.810959911497976
 20
363.8592388708967
 10
-6.119762608550738
 20
362.4577958501531
 10
-9.702175440082754
 20
362.0739659039177
 10
-13.31495891159511
 20
363.8573380175037
 10
-19.31958010737854
 20
361.3290764613842
 10
-22.84458690635646
 20
362.8957461498188
 10
-24.80292401689972
 20
365.2457506824708
 10
-27.72869045932159
 20
365.8309039709552
 10
-32.21139645247049
 20
365.0838068103188
 10
-37.7385476782634
 20
365.9681510064454
 10
-39.94940816858058
 20
369.5055277909528
 10
-43.7784272832201
 20
372.1860974022362
 10
-49.88676754910091
 20
368.2694231811507
 10
-56.06500609582164
 20
364.7024154930842
 10
-49.45610827694381
 20
365.5259789083822
 10
-48.35067803178553
 20
363.9783765651602
 97
        0
 75
     0
 76
     1
 98
        0
450
        0
451
        0
460
0.0
461
0.0
452
        1
462
0.0
453
        0
470

  0
HATCH
  5
4F
330
1F
100
AcDbEntity
  8
Specialized_Fills
  6
Continuous
 62
     7
420
 16250871
370
     0
100
AcDbHatch
 10
0.0
 20
0.0
 30
0.0
210
0.0
220
0.0
230
1.0
  2
SOLID
 70
     1
 71
     0
 91
        1
 92
        2
 72
     0
 73
     1
 93
       16
 10
0.5689329940146392
 20
362.8734367734555
 10
6.280749566432514
 20
363.1454280388088
 10
11.72057487349708
 20
365.8653406923414
 10
14.44048752702953
 20
367.7692795498137
 10
14.44048752702953
 20
372.3931310608189
 10
11.17659234279075
 20
377.8329563678834
 10
9.544644750671407
 20
385.4487117977738
 10
9.544644750671402
 20
392.7924759623112
 10
7.096723362492133
 20
401.2242051882615
 10
4.104819443606761
 20
404.7600916378534
 10
1.656898055427648
 20
405.0320829032067
 10
-1.335005863457805
 20
398.7762838000822
 10
-5.958857374472326
 20
390.6165458394855
 10
-5.958857374462889
 20
380.0088864907092
 10
-5.958857374462889
 20
371.8491485301123
 10
-5.958857374462889
 20
364.7773756309282
 97
        0
 75
     0
 76
     1
 98
        0
450
        0
451
        0
460
0.0
461
0.0
452
        1
462
0.0
453
        0
470

  0
HATCH
  5
50
330
1F
100
AcDbEntity
  8
Specialized_Fills
  6
Continuous
 62
     7
420
 16250871
370
     0
100
AcDbHatch
 10
0.0
 20
0.0
 30
0.0
210
0.0
220
0.0
230
1.0
  2
SOLID
 70
     1
 71
     0
 91
        1
 92
        2
 72
     0
 73
     1
 93
       34
 10
15.53882046029165
 20
495.6710022446528
 10
15.14715303818292
 20
506.6376900636954
 10
13.58048334974837
 20
518.7793801490637
 10
-0.5195438461632723
 20
518.7793801490637
 10
-13.05290135364001
 20
521.1293846817154
 10
-25.1945914390085
 20
519.1710475711722
 10
-30.67793534852958
 20
514.8627059279772
 10
-31.46127019274674
 20
509.7710294405652
 10
-33.81127472539905
 20
491.3626606014567
 10
-36.33674626315865
 20
476.8709659834378
 10
-32.68800832022578
 20
463.2536905968746
 10
-32.68800832023122
 20
448.6709115916144
 10
-35.37794441383346
 20
438.4875586167894
 10
-35.37794441383346
 20
426.3458685314209
 10
-38.11961636859393
 20
405.9791625817718
 10
-39.29461863492012
 20
395.7958096069461
 10
-37.72794894648547
 20
388.3541285868817
 10
-36.94461410226807
 20
378.9541104562743
 10
-35.76961183594207
 20
369.554092325666
 10
-30.67793534852951
 20
366.4207529487967
 10
-24.80292401689969
 20
365.2457506824709
 10
-22.84458690635651
 20
362.8957461498189
 10
-19.31958010737856
 20
361.3290764613842
 10
-13.31495891159511
 20
363.8573380175037
 10
-11.87789908731432
 20
364.4624158382535
 10
-8.195471834170804
 20
378.2054214422326
 10
-8.195471834175355
 20
399.7124838280324
 10
-2.477880956704533
 20
409.8958368028609
 10
4.180465219140647
 20
420.0791897776826
 10
8.032489440987788
 20
434.4551398856203
 10
4.351693531434948
 20
448.1920572323369
 10
10.05547655077044
 20
462.7709387875258
 10
11.62214623921197
 20
472.1709569181737
 10
13.18881592763422
 20
481.1793076265973
 97
        0
 75
     0
 76
     1
 98
        0
450
        0
451
        0
460
0.0
461
0.0
452
        1
462
0.0
453
        0
470

  0
HATCH
  5
51
330
1F
100
AcDbEntity
  8
Specialized_Fills
  6
Continuous
 62
     7
420
 16250871
370
     0
100
AcDbHatch
 10
0.0
 20
0.0
 30
0.0
210
0.0
220
0.0
230
1.0
  2
SOLID
 70
     1
 71
     0
 91
        1
 92
        2
 72
     0
 73
     1
 93
       57
 10
4.180465219140391
 20
420.0791897776816
 10
4.106412212608323
 20
413.6758051573333
 10
6.653323497453626
 20
410.1738021406713
 10
5.638368315829477
 20
402.9477156979537
 10
7.096723362492115
 20
401.2242051882616
 10
9.544644750671405
 20
392.7924759623112
 10
9.544644750671407
 20
385.4487117977738
 10
11.17659234279075
 20
377.8329563678834
 10
14.44048752702953
 20
372.3931310608189
 10
14.44048752702953
 20
367.7692795498137
 10
11.72057487349575
 20
365.8653406923405
 10
6.280749566432514
 20
363.1454280388088
 10
2.683796609215721
 20
362.9741445646557
 10
15.5431901383771
 20
362.9741445646469
 10
22.39300034719283
 20
368.1832563482858
 10
17.88882499294343
 20
372.6874317025353
 10
13.18881592763965
 20
385.2207892100123
 10
13.18881592763965
 20
395.4041421848373
 10
9.272141706553105
 20
407.1541648480968
 10
9.27214170653734
 20
415.7708481344872
 10
9.272141706553101
 20
428.3042056419643
 10
10.44714397287904
 20
436.9208889283548
 10
8.097139440227159
 20
443.5792351042019
 10
8.097139440227053
 20
448.6709115916144
 10
12.40548108342232
 20
458.8542645664391
 10
15.14715303818292
 20
468.2542826970474
 10
15.72059394348135
 20
477.8154887085397
 10
19.45549468137815
 20
491.7543280235663
 10
20.91059759427317
 20
501.6490278312652
 10
21.24306907867624
 20
503.909833925208
 10
19.68841241028261
 20
511.2626327093577
 10
19.15780589260663
 20
513.9156652977383
 10
17.83128959841651
 20
516.8340011449568
 10
17.0353798219024
 20
520.8135500275274
 10
13.32113419816927
 20
521.6094598040418
 10
8.015069021408413
 20
523.2012793570695
 10
3.77021687999986
 20
523.7318858747458
 10
-0.7399385202471292
 20
523.997189133584
 10
-7.372519991197888
 20
523.997189133584
 10
-13.47449494447207
 20
524.7930989100982
 10
-20.37237967426201
 20
525.8543119454505
 10
-24.35192855683276
 20
523.2012793570698
 10
-32.16050111374647
 20
520.7691166446952
 10
-32.00696913525245
 20
518.9267329027643
 10
-30.94586252415649
 20
513.1211792864021
 10
-30.67793534852958
 20
514.8627059279772
 10
-25.19459143900862
 20
519.1710475711724
 10
-13.05290135364013
 20
521.1293846817155
 10
-0.5195438461632098
 20
518.7793801490637
 10
13.58048334974837
 20
518.7793801490637
 10
15.14715303818292
 20
506.6376900636954
 10
15.53882046029165
 20
495.6710022446528
 10
13.18881592763881
 20
481.1793076266255
 10
11.62214623921177
 20
472.1709569181735
 10
10.05547655077043
 20
462.7709387875257
 10
4.351693531434952
 20
448.1920572323369
 10
8.032489440987788
 20
434.4551398856203
 97
        0
 75
     0
 76
     1
 98
        0
450
        0
451
        0
460
0.0
461
0.0
452
        1
462
0.0
453
        0
470

  0
HATCH
  5
52
330
1F
100
AcDbEntity
  8
Specialized_Fills
  6
Continuous
 62
   254
420
 14671839
370
    13
100
AcDbHatch
 10
0.0
 20
0.0
 30
0.0
210
0.0
220
0.0
230
1.0
  2
SOLID
 70
     1
 71
     1
 91
        1
 92
        1
 93
       23
 72
     1
 10
66.99703972224854
 20
518.3380748567031
 11
65.05526967158868
 21
518.6911239568233
 72
     1
 10
65.05526967158868
 20
518.6911239568233
 11
57.62677842412312
 21
520.5482467686892
 72
     1
 10
57.62677842412312
 20
520.5482467686892
 11
53.38192628271439
 21
521.6094598040415
 72
     1
 10
53.38192628271439
 20
521.6094598040415
 11
50.99419695317187
 21
521.6094598040412
 72
     1
 10
50.99419695317187
 20
521.6094598040412
 11
46.48973760593618
 21
520.6405925218851
 72
     1
 10
46.48973760593618
 20
520.6405925218851
 11
36.93312423475536
 21
523.2012793570695
 72
     1
 10
36.93312423475536
 20
523.2012793570695
 11
28.70872321077635
 21
524.5277956512602
 72
     1
 10
28.70872321077635
 20
524.5277956512602
 11
26.32099388123388
 21
524.5277956512602
 72
     1
 10
26.32099388123388
 20
524.5277956512602
 11
24.19856781052954
 21
524.5277956512602
 72
     1
 10
24.19856781052954
 20
524.5277956512602
 11
21.5455352221492
 21
521.8747630628797
 72
     1
 10
21.5455352221492
 20
521.8747630628797
 11
17.36190690970306
 21
519.1809145885242
 72
     1
 10
17.36190690970306
 20
519.1809145885242
 11
17.83128959841655
 21
516.8340011449565
 72
     1
 10
17.83128959841655
 20
516.8340011449565
 11
19.15780589260663
 21
513.9156652977383
 72
     1
 10
19.15780589260663
 20
513.9156652977383
 11
19.68841241028451
 21
511.2626327093488
 72
     1
 10
19.68841241028451
 20
511.2626327093488
 11
21.24306907867643
 21
503.9098339252071
 72
     1
 10
21.24306907867643
 20
503.9098339252071
 11
21.41383179191947
 21
505.0710203752607
 72
     1
 10
21.41383179191947
 20
505.0710203752607
 11
21.41383179192136
 21
519.9543824153896
 72
     1
 10
21.41383179192136
 20
519.9543824153896
 11
33.26742245075733
 21
522.5859610001154
 72
     1
 10
33.26742245075733
 20
522.5859610001154
 11
50.39722102796269
 21
517.9960453048461
 72
     1
 10
50.39722102796269
 20
517.9960453048461
 11
69.58892471128584
 21
515.2543733500858
 72
     1
 10
69.58892471128584
 20
515.2543733500858
 11
71.87635059089233
 21
515.8853873858394
 72
     1
 10
71.87635059089233
 20
515.8853873858394
 11
67.97360551880716
 21
518.160517439147
 72
     1
 10
67.97360551880716
 20
518.160517439147
 11
66.99703972224854
 21
518.3380748567031
 97
        1
330
53
 75
     0
 76
     1
 98
        0
450
        0
451
        0
460
0.0
461
0.0
452
        1
462
0.0
453
        0
470

  0
LWPOLYLINE
  5
53
102
{ACAD_REACTORS
330
52
102
}
330
1F
100
AcDbEntity
  8
Specialized_Fills
  6
Continuous
100
AcDbPolyline
 90
       23
 70
   129
 43
0.0
 10
66.99703972224854
 20
518.3380748567031
 10
65.05526967158868
 20
518.6911239568233
 10
57.62677842412312
 20
520.5482467686892
 10
53.38192628271439
 20
521.6094598040415
 10
50.99419695317187
 20
521.6094598040412
 10
46.48973760593618
 20
520.6405925218851
 10
36.93312423475536
 20
523.2012793570695
 10
28.70872321077635
 20
524.5277956512602
 10
26.32099388123388
 20
524.5277956512602
 10
24.19856781052954
 20
524.5277956512602
 10
21.5455352221492
 20
521.8747630628797
 10
17.36190690970306
 20
519.1809145885242
 10
17.83128959841655
 20
516.8340011449565
 10
19.15780589260663
 20
513.9156652977383
 10
19.68841241028451
 20
511.2626327093488
 10
21.24306907867643
 20
503.9098339252071
 10
21.41383179191947
 20
505.0710203752607
 10
21.41383179192136
 20
519.9543824153896
 10
33.26742245075733
 20
522.5859610001154
 10
50.39722102796269
 20
517.9960453048461
 10
69.58892471128584
 20
515.2543733500858
 10
71.87635059089233
 20
515.8853873858394
 10
67.97360551880716
 20
518.160517439147
  0
HATCH
  5
54
330
1F
100
AcDbEntity
  8
Specialized_Fills
  6
Continuous
 62
   254
420
 14671839
370
    13
100
AcDbHatch
 10
0.0
 20
0.0
 30
0.0
210
0.0
220
0.0
230
1.0
  2
SOLID
 70
     1
 71
     1
 91
        1
 92
        1
 93
        4
 72
     1
 10
-25.31658736867251
 20
172.0559989623476
 11
-25.3165873686725
 21
217.0559989623635
 72
     1
 10
-25.3165873686725
 20
217.0559989623635
 11
64.6834126313025
 21
217.0559989623635
 72
     1
 10
64.6834126313025
 20
217.0559989623635
 11
64.68341263130247
 21
172.0559989623476
 72
     1
 10
64.68341263130247
 20
172.0559989623476
 11
-25.31658736867252
 21
172.0559989623476
 97
        1
330
55
 75
     0
 76
     1
 98
        0
450
        0
451
        0
460
0.0
461
0.0
452
        1
462
0.0
453
        0
470

  0
LWPOLYLINE
  5
55
102
{ACAD_REACTORS
330
54
102
}
330
1F
100
AcDbEntity
  8
Specialized_Fills
  6
Continuous
100
AcDbPolyline
 90
        4
 70
   129
 43
0.0
 10
-25.31658736867251
 20
172.0559989623476
 10
-25.3165873686725
 20
217.0559989623635
 10
64.6834126313025
 20
217.0559989623635
 10
64.68341263130247
 20
172.0559989623476
  0
HATCH
  5
56
330
1F
100
AcDbEntity
  8
Specialized_Fills
  6
Continuous
 62
   254
420
 14671839
370
    13
100
AcDbHatch
 10
0.0
 20
0.0
 30
0.0
210
0.0
220
0.0
230
1.0
  2
SOLID
 70
     1
 71
     1
 91
        1
 92
        1
 93
        4
 72
     1
 10
-0.5247394743325695
 20
217.0559989623635
 11
-45.52473947434848
 21
217.0559989623635
 72
     1
 10
-45.52473947434848
 20
217.0559989623635
 11
-45.52473947434848
 21
307.0559989623385
 72
     1
 10
-45.52473947434848
 20
307.0559989623385
 11
-0.52473947433257
 21
307.0559989623385
 72
     1
 10
-0.5247394743325695
 20
307.0559989623385
 11
-0.5247394743325695
 21
217.0559989623635
 97
        1
330
57
 75
     0
 76
     1
 98
        0
450
        0
451
        0
460
0.0
461
0.0
452
        1
462
0.0
453
        0
470

  0
LWPOLYLINE
  5
57
102
{ACAD_REACTORS
330
56
102
}
330
1F
100
AcDbEntity
  8
Specialized_Fills
  6
Continuous
100
AcDbPolyline
 90
        4
 70
   129
 43
0.0
 10
-0.5247394743325695
 20
217.0559989623635
 10
-45.52473947434848
 20
217.0559989623635
 10
-45.52473947434848
 20
307.0559989623385
 10
-0.5247394743325695
 20
307.0559989623385
  0
HATCH
  5
58
330
1F
100
AcDbEntity
  8
Specialized_Fills
  6
Continuous
 62
   254
420
 14671839
370
    13
100
AcDbHatch
 10
0.0
 20
0.0
 30
0.0
210
0.0
220
0.0
230
1.0
  2
SOLID
 70
     1
 71
     1
 91
        1
 92
        1
 93
        4
 72
     1
 10
64.68341273132563
 20
217.0559989623635
 11
19.68341273130971
 21
217.0559989623635
 72
     1
 10
19.68341273130972
 20
217.0559989623635
 11
19.68341273130972
 21
307.0559989623385
 72
     1
 10
19.68341273130972
 20
307.0559989623385
 11
64.68341273132563
 21
307.0559989623385
 72
     1
 10
64.68341273132563
 20
307.0559989623385
 11
64.68341273132563
 21
217.0559989623635
 97
        1
330
59
 75
     0
 76
     1
 98
        0
450
        0
451
        0
460
0.0
461
0.0
452
        1
462
0.0
453
        0
470

  0
LWPOLYLINE
  5
59
102
{ACAD_REACTORS
330
58
102
}
330
1F
100
AcDbEntity
  8
Specialized_Fills
  6
Continuous
100
AcDbPolyline
 90
        4
 70
   129
 43
0.0
 10
64.68341273132563
 20
217.0559989623635
 10
19.68341273130972
 20
217.0559989623635
 10
19.68341273130972
 20
307.0559989623385
 10
64.68341273132563
 20
307.0559989623385
  0
HATCH
  5
5A
330
1F
100
AcDbEntity
  8
Specialized_Fills
  6
Continuous
100
AcDbHatch
 10
0.0
 20
0.0
 30
0.0
210
0.0
220
0.0
230
1.0
  2
LINES___ANGLED
 70
     0
 71
     1
 91
        1
 92
        1
 93
        4
 72
     1
 10
67.68341273133244
 20
307.0559989623399
 11
67.68341273133244
 21
257.0559989623427
 72
     1
 10
67.68341273133244
 20
257.0559989623427
 11
87.68341273133284
 21
257.0559989623427
 72
     1
 10
87.68341273133284
 20
257.0559989623427
 11
87.68341273133284
 21
307.0559989623399
 72
     1
 10
87.68341273133284
 20
307.0559989623399
 11
67.68341273133244
 21
307.0559989623399
 97
        1
330
5B
 75
     0
 76
     2
 52
0.0
 41
1.0
 77
     0
 78
     1
 53
45.0
 43
0.0
 44
14.50717002108843
 45
-1.838477563650065
 46
1.838477563650065
 79
     0
 98
        0
  0
LWPOLYLINE
  5
5B
102
{ACAD_REACTORS
330
5A
102
}
330
1F
100
AcDbEntity
  8
Specialized_Fills
  6
Continuous
100
AcDbPolyline
 90
        4
 70
   129
 43
0.0
 10
67.68341273133244
 20
307.0559989623399
 10
67.68341273133244
 20
257.0559989623427
 10
87.68341273133284
 20
257.0559989623427
 10
87.68341273133284
 20
307.0559989623399
  0
HATCH
  5
5C
330
1F
100
AcDbEntity
  8
Specialized_Fills
  6
Continuous
 62
     7
420
 16250871
370
     0
100
AcDbHatch
 10
0.0
 20
0.0
 30
0.0
210
0.0
220
0.0
230
1.0
  2
SOLID
 70
     1
 71
     0
 91
        1
 92
        2
 72
     0
 73
     1
 93
       23
 10
-42.21175759478556
 20
414.094511567862
 10
-42.21175759478945
 20
389.4194639750168
 10
-39.47008564002496
 20
376.8861064675399
 10
-43.77842728322001
 20
372.1860974022362
 10
-39.94940816858064
 20
369.5055277909528
 10
-37.73854767826345
 20
365.9681510064454
 10
-32.21139645247067
 20
365.0838068103188
 10
-27.72869045932164
 20
365.8309039709552
 10
-30.67793534852961
 20
366.4207529487968
 10
-35.76961183594207
 20
369.554092325666
 10
-36.944614102268
 20
378.9541104562738
 10
-37.72794894648546
 20
388.3541285868816
 10
-39.29461863492011
 20
395.7958096069461
 10
-38.11961636859347
 20
405.979162581775
 10
-35.37794441383346
 20
426.3458685314209
 10
-35.37794441383346
 20
438.4875586167893
 10
-32.68800832023122
 20
448.6709115916144
 10
-32.68800832022578
 20
463.2536905968746
 10
-36.33674626315816
 20
476.8709659834359
 10
-36.3367462631602
 20
455.2195908892711
 10
-36.33674626315566
 20
448.9529121355324
 10
-41.82009017267675
 20
437.9862243164902
 10
-38.29508337369892
 20
426.2362016532305
 97
        0
 75
     0
 76
     1
 98
        0
450
        0
451
        0
460
0.0
461
0.0
452
        1
462
0.0
453
        0
470

  0
HATCH
  5
5D
330
1F
100
AcDbEntity
  8
Specialized_Fills
  6
Continuous
 62
   254
420
 14671839
370
    13
100
AcDbHatch
 10
0.0
 20
0.0
 30
0.0
210
0.0
220
0.0
230
1.0
  2
SOLID
 70
     1
 71
     1
 91
        1
 92
        1
 93
       18
 72
     1
 10
-30.94586252415665
 20
513.121179286403
 11
-32.00696913525248
 21
518.9267329027646
 72
     1
 10
-32.00696913525248
 20
518.9267329027646
 11
-32.16050111374646
 21
520.7691166446952
 72
     1
 10
-32.16050111374646
 20
520.7691166446952
 11
-36.76646046857391
 21
522.4579684081319
 72
     1
 10
-36.76646046857391
 20
522.4579684081319
 11
-40.75829190942403
 21
524.1468201715687
 72
     1
 10
-40.75829190942403
 20
524.1468201715687
 11
-44.75012335027439
 21
525.2215440210277
 72
     1
 10
-44.75012335027439
 20
525.2215440210277
 11
-50.27727457606679
 21
525.2215440210282
 72
     1
 10
-50.27727457606679
 20
525.2215440210282
 11
-54.42263799541136
 21
524.4538841285568
 72
     1
 10
-54.42263799541136
 20
524.4538841285568
 11
-58.4144694362615
 21
522.4579684081319
 72
     1
 10
-58.4144694362615
 20
522.4579684081319
 11
-61.79217296313478
 21
522.4579684081319
 72
     1
 10
-61.79217296313478
 20
522.4579684081319
 11
-64.8628125330195
 21
524.1468201715687
 72
     1
 10
-64.8628125330195
 20
524.1468201715687
 11
-69.31523990935251
 21
524.1468201715685
 72
     1
 10
-69.31523990935251
 20
524.1468201715685
 11
-71.7717515652605
 21
524.1468201715685
 72
     1
 10
-71.7717515652605
 20
524.1468201715685
 11
-71.86007235468217
 21
521.0076834378219
 72
     1
 10
-71.86007235468217
 20
521.0076834378219
 11
-58.27012190124059
 21
517.4947110045471
 72
     1
 10
-58.27012190124059
 20
517.4947110045471
 11
-35.63018233264504
 21
517.8115080543316
 72
     1
 10
-35.63018233264504
 20
517.8115080543316
 11
-34.98578108159079
 21
507.2401013925206
 72
     1
 10
-34.98578108159079
 20
507.2401013925206
 11
-32.20656470437411
 21
503.9328890994859
 72
     1
 10
-32.20656470437411
 20
503.9328890994859
 11
-30.94586252415665
 21
513.121179286403
 97
        1
330
5E
 75
     0
 76
     1
 98
        0
450
        0
451
        0
460
0.0
461
0.0
452
        1
462
0.0
453
        0
470

  0
LWPOLYLINE
  5
5E
102
{ACAD_REACTORS
330
5D
102
}
330
1F
100
AcDbEntity
  8
Specialized_Fills
  6
Continuous
100
AcDbPolyline
 90
       18
 70
   129
 43
0.0
 10
-30.94586252415665
 20
513.121179286403
 10
-32.00696913525248
 20
518.9267329027646
 10
-32.16050111374646
 20
520.7691166446952
 10
-36.76646046857391
 20
522.4579684081319
 10
-40.75829190942403
 20
524.1468201715687
 10
-44.75012335027439
 20
525.2215440210277
 10
-50.27727457606679
 20
525.2215440210282
 10
-54.42263799541136
 20
524.4538841285568
 10
-58.4144694362615
 20
522.4579684081319
 10
-61.79217296313478
 20
522.4579684081319
 10
-64.8628125330195
 20
524.1468201715687
 10
-69.31523990935251
 20
524.1468201715685
 10
-71.7717515652605
 20
524.1468201715685
 10
-71.86007235468217
 20
521.0076834378219
 10
-58.27012190124059
 20
517.4947110045471
 10
-35.63018233264504
 20
517.8115080543316
 10
-34.98578108159079
 20
507.2401013925206
 10
-32.20656470437411
 20
503.9328890994859
  0
HATCH
  5
5F
330
1F
100
AcDbEntity
  8
Specialized_Fills
  6
Continuous
 62
   254
420
 14671839
370
    13
100
AcDbHatch
 10
0.0
 20
0.0
 30
0.0
210
0.0
220
0.0
230
1.0
  2
SOLID
 70
     1
 71
     1
 91
        1
 92
        1
 93
       48
 72
     1
 10
62.1472436912212
 20
362.8957461498157
 11
70.37225955550287
 21
361.3290764613844
 72
     1
 10
70.37225955550287
 20
361.3290764613844
 11
76.27780807403839
 21
363.3477360823615
 72
     1
 10
76.27780807403839
 20
363.3477360823615
 11
79.70546126311351
 21
361.7291220764095
 72
     1
 10
79.70546126311351
 20
361.7291220764095
 11
85.22779140106806
 21
362.0147598421656
 72
     1
 10
85.22779140106806
 20
362.0147598421656
 11
89.14597875861863
 21
359.9298829530674
 72
     1
 10
89.14597875861863
 20
359.9298829530674
 11
95.09825597246788
 21
357.8040696624071
 72
     1
 10
95.09825597246788
 20
357.8040696624071
 11
103.3232718367494
 21
359.3707393508417
 72
     1
 10
103.3232718367494
 20
359.3707393508417
 11
115.8566293442268
 21
359.3707393508418
 72
     1
 10
115.8566293442268
 20
359.3707393508418
 11
128.7816542738119
 21
360.1540741950591
 72
     1
 10
128.7816542738119
 20
360.1540741950591
 11
136.2233352938764
 21
367.5957552151235
 72
     1
 10
136.2233352938764
 20
367.5957552151235
 11
136.615002715985
 21
373.8624339688619
 72
     1
 10
136.615002715985
 20
373.8624339688619
 11
140.5911805357259
 21
388.701731612071
 72
     1
 10
140.5911805357259
 20
388.701731612071
 11
144.4047915007025
 21
405.5313184556472
 72
     1
 10
144.4047915007025
 20
405.5313184556472
 11
144.4047915006989
 21
421.5011844733223
 72
     1
 10
144.4047915006989
 20
421.5011844733223
 11
144.4047915006941
 21
433.0042147072687
 72
     1
 10
144.4047915006941
 20
433.0042147072687
 11
150.3233624897879
 21
443.5792351042025
 72
     1
 10
150.3233624897879
 20
443.5792351042025
 11
147.973357957136
 21
454.9375903453536
 72
     1
 10
147.973357957136
 20
454.9375903453536
 11
147.9733579571318
 21
474.5209614507871
 72
     1
 10
147.9733579571318
 20
474.5209614507871
 11
147.5816905350274
 21
483.9209795813941
 72
     1
 10
147.5816905350274
 20
483.9209795813941
 11
142.8816814697236
 21
490.9709931793499
 72
     1
 10
142.8816814697236
 20
490.9709931793499
 11
139.7483420928542
 21
502.7210158426092
 72
     1
 10
139.7483420928542
 20
502.7210158426092
 11
132.6983284948983
 21
510.5543642847827
 72
     1
 10
132.6983284948983
 20
510.5543642847827
 11
125.256647474834
 21
517.2127104606297
 72
     1
 10
125.256647474834
 20
517.2127104606297
 11
102.1482695704232
 21
519.9543824153903
 72
     1
 10
102.1482695704232
 20
519.9543824153903
 11
86.48157268607725
 21
519.9543824153903
 72
     1
 10
86.48157268607725
 20
519.9543824153903
 11
80.94727995243603
 21
518.3877127269547
 72
     1
 10
80.94727995243603
 20
518.3877127269547
 11
69.58892471128582
 21
515.2543733500858
 72
     1
 10
69.58892471128582
 20
515.2543733500858
 11
50.39722102796144
 21
517.9960453048463
 72
     1
 10
50.39722102796144
 20
517.9960453048463
 11
33.26742245075733
 21
522.5859610001154
 72
     1
 10
33.26742245075733
 20
522.5859610001154
 11
21.41383179192136
 21
519.9543824153896
 72
     1
 10
21.41383179192136
 20
519.9543824153896
 11
21.41383179191947
 21
505.0710203752609
 72
     1
 10
21.41383179191947
 20
505.0710203752609
 11
19.45549468137818
 21
491.7543280235664
 72
     1
 10
19.45549468137818
 20
491.7543280235664
 11
15.72059394348134
 21
477.8154887085397
 72
     1
 10
15.72059394348134
 20
477.8154887085397
 11
15.14715303818293
 21
468.2542826970474
 72
     1
 10
15.14715303818293
 20
468.2542826970474
 11
12.40548108342229
 21
458.8542645664394
 72
     1
 10
12.40548108342229
 20
458.8542645664394
 11
8.097139440227053
 21
448.6709115916144
 72
     1
 10
8.097139440227053
 20
448.6709115916144
 11
8.097139440227159
 21
443.5792351042019
 72
     1
 10
8.097139440227159
 20
443.5792351042019
 11
10.44714397287904
 21
436.9208889283548
 72
     1
 10
10.44714397287904
 20
436.9208889283548
 11
9.272141706553101
 21
428.3042056419643
 72
     1
 10
9.272141706553101
 20
428.3042056419643
 11
9.27214170653734
 21
415.7708481344872
 72
     1
 10
9.27214170653734
 20
415.7708481344872
 11
9.272141706553105
 21
407.1541648480968
 72
     1
 10
9.272141706553105
 20
407.1541648480968
 11
13.18881592763965
 21
395.4041421848373
 72
     1
 10
13.18881592763965
 20
395.4041421848373
 11
13.18881592763965
 21
385.2207892100123
 72
     1
 10
13.18881592763965
 20
385.2207892100123
 11
17.88882499294343
 21
372.6874317025353
 72
     1
 10
17.88882499294343
 20
372.6874317025353
 11
26.89717570144246
 21
363.6790809940362
 72
     1
 10
26.89717570144246
 20
363.6790809940362
 11
36.68886125415095
 21
363.2874135719277
 72
     1
 10
36.68886125415095
 20
363.2874135719277
 11
45.30554454054756
 21
362.8957461498188
 72
     1
 10
45.30554454054756
 20
362.8957461498188
 11
62.1472436912212
 21
362.8957461498157
 97
        1
330
60
 75
     0
 76
     1
 98
        0
450
        0
451
        0
460
0.0
461
0.0
452
        1
462
0.0
453
        0
470

  0
LWPOLYLINE
  5
60
102
{ACAD_REACTORS
330
5F
102
}
330
1F
100
AcDbEntity
  8
Specialized_Fills
  6
Continuous
100
AcDbPolyline
 90
       48
 70
   129
 43
0.0
 10
62.1472436912212
 20
362.8957461498157
 10
70.37225955550287
 20
361.3290764613844
 10
76.27780807403839
 20
363.3477360823615
 10
79.70546126311351
 20
361.7291220764095
 10
85.22779140106806
 20
362.0147598421656
 10
89.14597875861863
 20
359.9298829530674
 10
95.09825597246788
 20
357.8040696624071
 10
103.3232718367494
 20
359.3707393508417
 10
115.8566293442268
 20
359.3707393508418
 10
128.7816542738119
 20
360.1540741950591
 10
136.2233352938764
 20
367.5957552151235
 10
136.615002715985
 20
373.8624339688619
 10
140.5911805357259
 20
388.701731612071
 10
144.4047915007025
 20
405.5313184556472
 10
144.4047915006989
 20
421.5011844733223
 10
144.4047915006941
 20
433.0042147072687
 10
150.3233624897879
 20
443.5792351042025
 10
147.973357957136
 20
454.9375903453536
 10
147.9733579571318
 20
474.5209614507871
 10
147.5816905350274
 20
483.9209795813941
 10
142.8816814697236
 20
490.9709931793499
 10
139.7483420928542
 20
502.7210158426092
 10
132.6983284948983
 20
510.5543642847827
 10
125.256647474834
 20
517.2127104606297
 10
102.1482695704232
 20
519.9543824153903
 10
86.48157268607725
 20
519.9543824153903
 10
80.94727995243603
 20
518.3877127269547
 10
69.58892471128582
 20
515.2543733500858
 10
50.39722102796144
 20
517.9960453048463
 10
33.26742245075733
 20
522.5859610001154
 10
21.41383179192136
 20
519.9543824153896
 10
21.41383179191947
 20
505.0710203752609
 10
19.45549468137818
 20
491.7543280235664
 10
15.72059394348134
 20
477.8154887085397
 10
15.14715303818293
 20
468.2542826970474
 10
12.40548108342229
 20
458.8542645664394
 10
8.097139440227053
 20
448.6709115916144
 10
8.097139440227159
 20
443.5792351042019
 10
10.44714397287904
 20
436.9208889283548
 10
9.272141706553101
 20
428.3042056419643
 10
9.27214170653734
 20
415.7708481344872
 10
9.272141706553105
 20
407.1541648480968
 10
13.18881592763965
 20
395.4041421848373
 10
13.18881592763965
 20
385.2207892100123
 10
17.88882499294343
 20
372.6874317025353
 10
26.89717570144246
 20
363.6790809940362
 10
36.68886125415095
 20
363.2874135719277
 10
45.30554454054756
 20
362.8957461498188
  0
INSERT
  5
1AD
330
1F
100
AcDbEntity
  8
Specialized_Fills
  6
Continuous
 62
    30
420
 16742400
370
    20
100
AcDbBlockReference
  2
Fill_1
 10
0.0
 20
14.50717002108843
 30
0.0
  0
HATCH
  5
1AE
330
1F
100
AcDbEntity
  8
Specialized_Fills
  6
Continuous
 62
    30
420
 16742400
370
    20
100
AcDbHatch
 10
0.0
 20
0.0
 30
0.0
210
0.0
220
0.0
230
1.0
  2
SOLID
 70
     1
 71
     0
 91
        1
 92
        2
 72
     1
 73
     1
 93
        7
 10
90.33341273133313
 20
349.4253203387112
 42
-0.9999999999999998
 10
90.33341273133313
 20
350.7253203387117
 42
0.0
 10
131.4334127313039
 20
350.7253203387117
 42
-0.414213562373566
 10
131.9834127313009
 20
350.1753203387076
 42
0.0
 10
131.9834127313009
 20
330.7253203387086
 42
-0.9999999999999998
 10
130.6834127313003
 20
330.7253203387086
 42
0.0
 10
130.6834127313003
 20
349.4253203387112
 42
0.0
 97
        0
 75
     0
 76
     1
 98
        0
450
        0
451
        0
460
0.0
461
0.0
452
        1
462
0.0
453
        0
470

  0
HATCH
  5
1AF
330
1F
100
AcDbEntity
  8
Specialized_Fills
  6
Continuous
 62
     7
420
 16250871
370
     0
100
AcDbHatch
 10
0.0
 20
0.0
 30
0.0
210
0.0
220
0.0
230
1.0
  2
SOLID
 70
     1
 71
     0
 91
        1
 92
        2
 72
     0
 73
     1
 93
       18
 10
70.92298215474679
 20
359.2920090331373
 10
73.5330257891481
 20
358.3708171621719
 10
85.84575151843038
 20
361.108535538849
 10
84.13156815342551
 20
361.7207438834936
 10
82.9551360286352
 20
361.8972087022122
 10
79.70546126311346
 20
361.7291220764095
 10
77.67103348184473
 20
362.6898240842308
 10
76.29821971125285
 20
362.8957461498195
 10
75.17465216082094
 20
362.9706506531816
 10
70.37225955550295
 20
361.3290764613845
 10
62.14724369122172
 20
362.8957461498156
 10
45.30554454054948
 20
362.8957461498188
 10
36.68886125412058
 20
363.2874135719291
 10
32.0930291301595
 20
363.4712468568876
 10
38.09953561504244
 20
360.0033887209348
 10
48.35378131609309
 20
360.0033887209331
 10
51.57795286447257
 20
360.3667328825971
 10
58.98089982871385
 20
358.3831192219141
 97
        0
 75
     0
 76
     1
 98
        0
450
        0
451
        0
460
0.0
461
0.0
452
        1
462
0.0
453
        0
470

  0
HATCH
  5
1B0
330
1F
100
AcDbEntity
  8
Specialized_Fills
  6
Continuous
 62
   254
420
 14671839
370
    13
100
AcDbHatch
 10
0.0
 20
0.0
 30
0.0
210
0.0
220
0.0
230
1.0
  2
SOLID
 70
     1
 71
     1
 91
        1
 92
        1
 93
        4
 72
     1
 10
14.6834127313287
 20
309.8845473489009
 11
64.68341273132586
 21
309.8845473489009
 72
     1
 10
64.68341273132586
 20
309.8845473489009
 11
64.68341273132586
 21
349.4253203387103
 72
     1
 10
64.68341273132586
 20
349.4253203387103
 11
14.6834127313287
 21
349.4253203387103
 72
     1
 10
14.6834127313287
 20
349.4253203387103
 11
14.6834127313287
 21
309.8845473489009
 97
        1
330
1B1
 75
     0
 76
     1
 98
        0
450
        0
451
        0
460
0.0
461
0.0
452
        1
462
0.0
453
        0
470

  0
LWPOLYLINE
  5
1B1
102
{ACAD_REACTORS
330
1B0
102
}
330
1F
100
AcDbEntity
  8
Specialized_Fills
  6
Continuous
100
AcDbPolyline
 90
        4
 70
   129
 43
0.0
 10
14.6834127313287
 20
309.8845473489009
 10
64.68341273132586
 20
309.8845473489009
 10
64.68341273132586
 20
349.4253203387103
 10
14.6834127313287
 20
349.4253203387103
  0
HATCH
  5
1B2
330
1F
100
AcDbEntity
  8
Specialized_Fills
  6
Continuous
 62
   254
420
 14671839
370
    13
100
AcDbHatch
 10
0.0
 20
0.0
 30
0.0
210
0.0
220
0.0
230
1.0
  2
SOLID
 70
     1
 71
     1
 91
        1
 92
        1
 93
        4
 72
     1
 10
-25.31658736867251
 20
172.0559989623476
 11
64.68341263130247
 21
172.0559989623476
 72
     1
 10
64.68341263130247
 20
172.0559989623476
 11
64.6834126313025
 21
217.0559989623635
 72
     1
 10
64.6834126313025
 20
217.0559989623635
 11
-25.3165873686725
 21
217.0559989623635
 72
     1
 10
-25.3165873686725
 20
217.0559989623635
 11
-25.31658736867251
 21
172.0559989623476
 97
        1
330
1B3
 75
     0
 76
     1
 98
        0
450
        0
451
        0
460
0.0
461
0.0
452
        1
462
0.0
453
        0
470

  0
LWPOLYLINE
  5
1B3
102
{ACAD_REACTORS
330
1B2
102
}
330
1F
100
AcDbEntity
  8
Specialized_Fills
  6
Continuous
100
AcDbPolyline
 90
        4
 70
   129
 43
0.0
 10
-25.31658736867251
 20
172.0559989623476
 10
64.68341263130247
 20
172.0559989623476
 10
64.6834126313025
 20
217.0559989623635
 10
-25.3165873686725
 20
217.0559989623635
  0
HATCH
  5
1B4
330
1F
100
AcDbEntity
  8
Specialized_Fills
  6
Continuous
 62
   254
420
 14671839
370
    13
100
AcDbHatch
 10
0.0
 20
0.0
 30
0.0
210
0.0
220
0.0
230
1.0
  2
SOLID
 70
     1
 71
     1
 91
        1
 92
        1
 93
        9
 72
     1
 10
-35.3165873686887
 20
122.5661118257115
 11
-25.31658736868236
 21
122.5661118257115
 72
     1
 10
-25.31658736868236
 20
122.5661118257115
 11
-25.31658736868206
 21
124.2126271391622
 72
     2
 10
-2.829139833310229
 20
124.9640954035708
 40
22.50000002685587
 50
178.0860458429832
 51
181.9139541570373
 73
     0
 72
     1
 10
-25.31658736868179
 20
125.7155636679876
 11
-25.31658736867389
 21
169.2126258883462
 72
     2
 10
-2.829139871492884
 20
169.964095295537
 40
22.50000002685368
 50
178.086042931288
 51
181.9139570687329
 73
     0
 72
     1
 10
-25.31658736867361
 20
170.7155647027359
 11
-25.31658736866518
 21
217.0559989623634
 72
     1
 10
-25.31658736866518
 20
217.0559989623634
 11
-31.01265162731326
 21
217.0559989623634
 72
     1
 10
-31.01265162731326
 20
217.0559989623634
 11
-35.31658736867152
 21
217.0559989623635
 72
     1
 10
-35.31658736867152
 20
217.0559989623635
 11
-35.3165873686887
 21
122.5661118257115
 97
        1
330
1B5
 75
     0
 76
     1
 98
        0
450
        0
451
        0
460
0.0
461
0.0
452
        1
462
0.0
453
        0
470

  0
LWPOLYLINE
  5
1B5
102
{ACAD_REACTORS
330
1B4
102
}
330
1F
100
AcDbEntity
  8
Specialized_Fills
  6
Continuous
100
AcDbPolyline
 90
        9
 70
   129
 43
0.0
 10
-35.3165873686887
 20
122.5661118257115
 10
-25.31658736868236
 20
122.5661118257115
 10
-25.31658736868206
 20
124.2126271391622
 42
-0.0167039542168571
 10
-25.31658736868179
 20
125.7155636679876
 10
-25.31658736867389
 20
169.2126258883462
 42
-0.0167039796332824
 10
-25.31658736867361
 20
170.7155647027359
 10
-25.31658736866518
 20
217.0559989623634
 10
-31.01265162731326
 20
217.0559989623634
 10
-35.31658736867152
 20
217.0559989623635
  0
HATCH
  5
1B6
330
1F
100
AcDbEntity
  8
Specialized_Fills
  6
Continuous
 62
   254
420
 14671839
370
    13
100
AcDbHatch
 10
0.0
 20
0.0
 30
0.0
210
0.0
220
0.0
230
1.0
  2
SOLID
 70
     1
 71
     1
 91
        1
 92
        1
 93
        5
 72
     1
 10
-71.86152521030745
 20
207.0559989623587
 11
-35.31658736867334
 21
207.0559989623586
 72
     1
 10
-35.31658736867334
 20
207.0559989623586
 11
-35.31658736867152
 21
217.0559989623635
 72
     1
 10
-35.31658736867152
 20
217.0559989623635
 11
-45.52473947434864
 21
217.0559989623634
 72
     1
 10
-45.52473947434864
 20
217.0559989623634
 11
-71.86152521030745
 21
217.0559989623623
 72
     1
 10
-71.86152521030745
 20
217.0559989623623
 11
-71.86152521030745
 21
207.0559989623587
 97
        1
330
1B7
 75
     0
 76
     1
 98
        0
450
        0
451
        0
460
0.0
461
0.0
452
        1
462
0.0
453
        0
470

  0
LWPOLYLINE
  5
1B7
102
{ACAD_REACTORS
330
1B6
102
}
330
1F
100
AcDbEntity
  8
Specialized_Fills
  6
Continuous
100
AcDbPolyline
 90
        5
 70
   129
 43
0.0
 10
-71.86152521030745
 20
207.0559989623587
 10
-35.31658736867334
 20
207.0559989623586
 10
-35.31658736867152
 20
217.0559989623635
 10
-45.52473947434864
 20
217.0559989623634
 10
-71.86152521030745
 20
217.0559989623623
  0
HATCH
  5
1B8
330
1F
100
AcDbEntity
  8
Specialized_Fills
  6
Continuous
 62
   254
420
 14671839
370
    13
100
AcDbHatch
 10
0.0
 20
0.0
 30
0.0
210
0.0
220
0.0
230
1.0
  2
SOLID
 70
     1
 71
     1
 91
        1
 92
        1
 93
       54
 72
     1
 10
19.45549468137823
 20
491.7543280235666
 11
15.72059394348134
 21
477.8154887085397
 72
     1
 10
15.72059394348134
 20
477.8154887085397
 11
15.14715303818294
 21
468.2542826970474
 72
     1
 10
15.14715303818294
 20
468.2542826970474
 11
12.40548108342256
 21
458.85426456644
 72
     1
 10
12.40548108342256
 20
458.85426456644
 11
8.097139440227053
 21
448.6709115916144
 72
     1
 10
8.097139440227053
 20
448.6709115916144
 11
8.097139440227159
 21
443.5792351042017
 72
     1
 10
8.097139440227159
 20
443.5792351042017
 11
10.44714397287904
 21
436.9208889283547
 72
     1
 10
10.44714397287904
 20
436.9208889283547
 11
9.272141706553108
 21
428.3042056419643
 72
     1
 10
9.272141706553108
 20
428.3042056419643
 11
9.27214170653734
 21
415.7708481344872
 72
     1
 10
9.27214170653734
 20
415.7708481344872
 11
9.272141706553103
 21
407.1541648480968
 72
     1
 10
9.272141706553103
 20
407.1541648480968
 11
13.18881592763965
 21
395.4041421848373
 72
     1
 10
13.18881592763965
 20
395.4041421848373
 11
13.18881592763965
 21
385.2207892100123
 72
     1
 10
13.18881592763965
 20
385.2207892100123
 11
17.88882499294346
 21
372.6874317025351
 72
     1
 10
17.88882499294346
 20
372.6874317025351
 11
26.89717570144246
 21
363.6790809940362
 72
     1
 10
26.89717570144246
 20
363.6790809940362
 11
36.68886125412977
 21
363.2874135719285
 72
     1
 10
36.68886125412977
 20
363.2874135719285
 11
45.3055445405499
 21
362.8957461498188
 72
     1
 10
45.3055445405499
 20
362.8957461498188
 11
62.14724369122173
 21
362.8957461498156
 72
     1
 10
62.14724369122173
 20
362.8957461498156
 11
70.37225955550332
 21
361.3290764613844
 72
     1
 10
70.37225955550332
 20
361.3290764613844
 11
74.58858673680801
 21
363.009721681449
 72
     1
 10
74.58858673680801
 20
363.009721681449
 11
75.17465216082094
 21
362.9706506531815
 72
     1
 10
75.17465216082094
 20
362.9706506531815
 11
76.27780807403839
 21
363.3477360823614
 72
     1
 10
76.27780807403839
 20
363.3477360823614
 11
77.67103348184473
 21
362.6898240842307
 72
     1
 10
77.67103348184473
 20
362.6898240842307
 11
82.9551360286352
 21
361.8972087022123
 72
     1
 10
82.9551360286352
 20
361.8972087022123
 11
85.22779140106807
 21
362.0147598421656
 72
     1
 10
85.22779140106807
 20
362.0147598421656
 11
89.14597875861868
 21
359.9298829530675
 72
     1
 10
89.14597875861868
 20
359.9298829530675
 11
95.09825597246789
 21
357.8040696624071
 72
     1
 10
95.09825597246789
 20
357.8040696624071
 11
103.3232718367492
 21
359.3707393508417
 72
     1
 10
103.3232718367492
 20
359.3707393508417
 11
115.8566293442364
 21
359.3707393508418
 72
     1
 10
115.8566293442364
 20
359.3707393508418
 11
118.6703769617491
 21
359.5412695094794
 72
     1
 10
118.6703769617491
 20
359.5412695094794
 11
128.7816542738118
 21
360.154074195059
 72
     1
 10
128.7816542738118
 20
360.154074195059
 11
136.2233352938764
 21
367.5957552151235
 72
     1
 10
136.2233352938764
 20
367.5957552151235
 11
136.615002715985
 21
373.8624339688617
 72
     1
 10
136.615002715985
 20
373.8624339688617
 11
140.5911805357259
 21
388.7017316120709
 72
     1
 10
140.5911805357259
 20
388.7017316120709
 11
142.1677363800736
 21
397.1825150861185
 72
     1
 10
142.1677363800736
 20
397.1825150861185
 11
142.3052534319376
 21
396.2659899824036
 72
     1
 10
142.3052534319376
 20
396.2659899824036
 11
144.4047915007025
 21
405.5313184556473
 72
     1
 10
144.4047915007025
 20
405.5313184556473
 11
144.4047915006989
 21
421.5011844733223
 72
     1
 10
144.4047915006989
 20
421.5011844733223
 11
144.4047915006941
 21
433.0042147072688
 72
     1
 10
144.4047915006941
 20
433.0042147072688
 11
150.3233624897879
 21
443.5792351042025
 72
     1
 10
150.3233624897879
 20
443.5792351042025
 11
147.9733579571359
 21
454.9375903453534
 72
     1
 10
147.9733579571359
 20
454.9375903453534
 11
147.9733579571318
 21
474.5209614507858
 72
     1
 10
147.9733579571318
 20
474.5209614507858
 11
147.5816905350273
 21
483.9209795813942
 72
     1
 10
147.5816905350273
 20
483.9209795813942
 11
142.8816814697237
 21
490.9709931793496
 72
     1
 10
142.8816814697237
 20
490.9709931793496
 11
139.7483420928541
 21
502.7210158426095
 72
     1
 10
139.7483420928541
 20
502.7210158426095
 11
132.6983284948982
 21
510.554364284783
 72
     1
 10
132.6983284948982
 20
510.554364284783
 11
125.2566474748341
 21
517.2127104606297
 72
     1
 10
125.2566474748341
 20
517.2127104606297
 11
102.1482695704232
 21
519.9543824153903
 72
     1
 10
102.1482695704232
 20
519.9543824153903
 11
86.48157268607738
 21
519.9543824153903
 72
     1
 10
86.48157268607738
 20
519.9543824153903
 11
80.94727995244289
 21
518.3877127269564
 72
     1
 10
80.94727995244289
 20
518.3877127269564
 11
69.58892471128564
 21
515.2543733500858
 72
     1
 10
69.58892471128564
 20
515.2543733500858
 11
50.39722102796338
 21
517.9960453048461
 72
     1
 10
50.39722102796338
 20
517.9960453048461
 11
33.2674224507574
 21
522.5859610001152
 72
     1
 10
33.2674224507574
 20
522.5859610001152
 11
21.41383179192136
 21
519.9543824153896
 72
     1
 10
21.41383179192136
 20
519.9543824153896
 11
21.41383179191947
 21
505.0710203752609
 72
     1
 10
21.41383179191947
 20
505.0710203752609
 11
19.45549468137823
 21
491.7543280235666
 97
        1
330
1B9
 75
     0
 76
     1
 98
        0
450
        0
451
        0
460
0.0
461
0.0
452
        1
462
0.0
453
        0
470

  0
LWPOLYLINE
  5
1B9
102
{ACAD_REACTORS
330
1B8
102
}
330
1F
100
AcDbEntity
  8
Specialized_Fills
  6
Continuous
100
AcDbPolyline
 90
       54
 70
   129
 43
0.0
 10
19.45549468137823
 20
491.7543280235666
 10
15.72059394348134
 20
477.8154887085397
 10
15.14715303818294
 20
468.2542826970474
 10
12.40548108342256
 20
458.85426456644
 10
8.097139440227053
 20
448.6709115916144
 10
8.097139440227159
 20
443.5792351042017
 10
10.44714397287904
 20
436.9208889283547
 10
9.272141706553108
 20
428.3042056419643
 10
9.27214170653734
 20
415.7708481344872
 10
9.272141706553103
 20
407.1541648480968
 10
13.18881592763965
 20
395.4041421848373
 10
13.18881592763965
 20
385.2207892100123
 10
17.88882499294346
 20
372.6874317025351
 10
26.89717570144246
 20
363.6790809940362
 10
36.68886125412977
 20
363.2874135719285
 10
45.3055445405499
 20
362.8957461498188
 10
62.14724369122173
 20
362.8957461498156
 10
70.37225955550332
 20
361.3290764613844
 10
74.58858673680801
 20
363.009721681449
 10
75.17465216082094
 20
362.9706506531815
 10
76.27780807403839
 20
363.3477360823614
 10
77.67103348184473
 20
362.6898240842307
 10
82.9551360286352
 20
361.8972087022123
 10
85.22779140106807
 20
362.0147598421656
 10
89.14597875861868
 20
359.9298829530675
 10
95.09825597246789
 20
357.8040696624071
 10
103.3232718367492
 20
359.3707393508417
 10
115.8566293442364
 20
359.3707393508418
 10
118.6703769617491
 20
359.5412695094794
 10
128.7816542738118
 20
360.154074195059
 10
136.2233352938764
 20
367.5957552151235
 10
136.615002715985
 20
373.8624339688617
 10
140.5911805357259
 20
388.7017316120709
 10
142.1677363800736
 20
397.1825150861185
 10
142.3052534319376
 20
396.2659899824036
 10
144.4047915007025
 20
405.5313184556473
 10
144.4047915006989
 20
421.5011844733223
 10
144.4047915006941
 20
433.0042147072688
 10
150.3233624897879
 20
443.5792351042025
 10
147.9733579571359
 20
454.9375903453534
 10
147.9733579571318
 20
474.5209614507858
 10
147.5816905350273
 20
483.9209795813942
 10
142.8816814697237
 20
490.9709931793496
 10
139.7483420928541
 20
502.7210158426095
 10
132.6983284948982
 20
510.554364284783
 10
125.2566474748341
 20
517.2127104606297
 10
102.1482695704232
 20
519.9543824153903
 10
86.48157268607738
 20
519.9543824153903
 10
80.94727995244289
 20
518.3877127269564
 10
69.58892471128564
 20
515.2543733500858
 10
50.39722102796338
 20
517.9960453048461
 10
33.2674224507574
 20
522.5859610001152
 10
21.41383179192136
 20
519.9543824153896
 10
21.41383179191947
 20
505.0710203752609
  0
HATCH
  5
1BA
330
1F
100
AcDbEntity
  8
Specialized_Fills
  6
Continuous
 62
   254
420
 14671839
370
    13
100
AcDbHatch
 10
0.0
 20
0.0
 30
0.0
210
0.0
220
0.0
230
1.0
  2
SOLID
 70
     1
 71
     1
 91
        1
 92
        1
 93
       35
 72
     1
 10
15.53882046029164
 20
495.671002244653
 11
15.14715303818292
 21
506.6376900636956
 72
     1
 10
15.14715303818292
 20
506.6376900636956
 11
13.58048334974837
 21
518.7793801490637
 72
     1
 10
13.58048334974837
 20
518.7793801490637
 11
-0.519543846163101
 21
518.7793801490637
 72
     1
 10
-0.5195438461631005
 20
518.7793801490637
 11
-13.05290135364073
 21
521.1293846817154
 72
     1
 10
-13.05290135364073
 20
521.1293846817154
 11
-25.19459143900857
 21
519.1710475711722
 72
     1
 10
-25.19459143900857
 20
519.1710475711722
 11
-30.67793534852961
 21
514.8627059279772
 72
     1
 10
-30.67793534852961
 20
514.8627059279772
 11
-30.94586252415915
 21
513.1211792863836
 72
     1
 10
-30.94586252415915
 20
513.1211792863836
 11
-32.20656470437106
 21
503.9328890995088
 72
     1
 10
-32.20656470437106
 20
503.9328890995088
 11
-33.81127472539863
 21
491.3626606014584
 72
     1
 10
-33.81127472539863
 20
491.3626606014584
 11
-36.33674626315864
 21
476.8709659834377
 72
     1
 10
-36.33674626315864
 20
476.8709659834377
 11
-32.68800832022578
 21
463.2536905968747
 72
     1
 10
-32.68800832022578
 20
463.2536905968747
 11
-32.68800832023122
 21
448.6709115916143
 72
     1
 10
-32.68800832023122
 20
448.6709115916143
 11
-35.37794441383346
 21
438.4875586167892
 72
     1
 10
-35.37794441383346
 20
438.4875586167892
 11
-35.37794441383346
 21
426.3458685314209
 72
     1
 10
-35.37794441383346
 20
426.3458685314209
 11
-38.11961636859449
 21
405.9791625817665
 72
     1
 10
-38.11961636859449
 20
405.9791625817665
 11
-39.29461863492012
 21
395.7958096069459
 72
     1
 10
-39.29461863492012
 20
395.7958096069459
 11
-37.72794894648545
 21
388.3541285868816
 72
     1
 10
-37.72794894648545
 20
388.3541285868816
 11
-36.94461410226796
 21
378.9541104562734
 72
     1
 10
-36.94461410226796
 20
378.9541104562734
 11
-35.76961183594206
 21
369.5540923256659
 72
     1
 10
-35.76961183594206
 20
369.5540923256659
 11
-30.67793534852932
 21
366.4207529487967
 72
     1
 10
-30.67793534852932
 20
366.4207529487967
 11
-24.80292401689978
 21
365.2457506824708
 72
     1
 10
-24.80292401689978
 20
365.2457506824708
 11
-22.84458690635647
 21
362.8957461498188
 72
     1
 10
-22.84458690635647
 20
362.8957461498188
 11
-19.31958010737845
 21
361.3290764613842
 72
     1
 10
-19.31958010737845
 20
361.3290764613842
 11
-13.31495891159511
 21
363.8573380175037
 72
     1
 10
-13.31495891159511
 20
363.8573380175037
 11
-11.87789908731425
 21
364.4624158382537
 72
     1
 10
-11.87789908731425
 20
364.4624158382537
 11
-8.195471834170795
 21
378.2054214422325
 72
     1
 10
-8.195471834170795
 20
378.2054214422325
 11
-8.19547183417535
 21
399.7124838280324
 72
     1
 10
-8.19547183417535
 20
399.7124838280324
 11
-2.477880956709734
 21
409.8958368028518
 72
     1
 10
-2.477880956709734
 20
409.8958368028518
 11
4.180465219140667
 21
420.0791897776825
 72
     1
 10
4.180465219140667
 20
420.0791897776825
 11
8.032489440987781
 21
434.4551398856202
 72
     1
 10
8.032489440987781
 20
434.4551398856202
 11
4.351693531434944
 21
448.192057232337
 72
     1
 10
4.351693531434944
 20
448.192057232337
 11
10.05547655077042
 21
462.7709387875258
 72
     1
 10
10.05547655077042
 20
462.7709387875258
 11
11.6221462392052
 21
472.1709569181351
 72
     1
 10
11.6221462392052
 20
472.1709569181351
 11
13.18881592764428
 21
481.1793076266599
 72
     1
 10
13.18881592764428
 20
481.1793076266599
 11
15.53882046029164
 21
495.671002244653
 97
        1
330
1BB
 75
     0
 76
     1
 98
        0
450
        0
451
        0
460
0.0
461
0.0
452
        1
462
0.0
453
        0
470

  0
LWPOLYLINE
  5
1BB
102
{ACAD_REACTORS
330
1BA
102
}
330
1F
100
AcDbEntity
  8
Specialized_Fills
  6
Continuous
100
AcDbPolyline
 90
       35
 70
   129
 43
0.0
 10
15.53882046029164
 20
495.671002244653
 10
15.14715303818292
 20
506.6376900636956
 10
13.58048334974837
 20
518.7793801490637
 10
-0.5195438461631005
 20
518.7793801490637
 10
-13.05290135364073
 20
521.1293846817154
 10
-25.19459143900857
 20
519.1710475711722
 10
-30.67793534852961
 20
514.8627059279772
 10
-30.94586252415915
 20
513.1211792863836
 10
-32.20656470437106
 20
503.9328890995088
 10
-33.81127472539863
 20
491.3626606014584
 10
-36.33674626315864
 20
476.8709659834377
 10
-32.68800832022578
 20
463.2536905968747
 10
-32.68800832023122
 20
448.6709115916143
 10
-35.37794441383346
 20
438.4875586167892
 10
-35.37794441383346
 20
426.3458685314209
 10
-38.11961636859449
 20
405.9791625817665
 10
-39.29461863492012
 20
395.7958096069459
 10
-37.72794894648545
 20
388.3541285868816
 10
-36.94461410226796
 20
378.9541104562734
 10
-35.76961183594206
 20
369.5540923256659
 10
-30.67793534852932
 20
366.4207529487967
 10
-24.80292401689978
 20
365.2457506824708
 10
-22.84458690635647
 20
362.8957461498188
 10
-19.31958010737845
 20
361.3290764613842
 10
-13.31495891159511
 20
363.8573380175037
 10
-11.87789908731425
 20
364.4624158382537
 10
-8.195471834170795
 20
378.2054214422325
 10
-8.19547183417535
 20
399.7124838280324
 10
-2.477880956709734
 20
409.8958368028518
 10
4.180465219140667
 20
420.0791897776825
 10
8.032489440987781
 20
434.4551398856202
 10
4.351693531434944
 20
448.192057232337
 10
10.05547655077042
 20
462.7709387875258
 10
11.6221462392052
 20
472.1709569181351
 10
13.18881592764428
 20
481.1793076266599
  0
HATCH
  5
1BC
330
1F
100
AcDbEntity
  8
Specialized_Fills
  6
Continuous
 62
   254
420
 14671839
370
    13
100
AcDbHatch
 10
0.0
 20
0.0
 30
0.0
210
0.0
220
0.0
230
1.0
  2
SOLID
 70
     1
 71
     1
 91
        1
 92
        1
 93
       17
 72
     1
 10
-36.33674626315564
 20
503.3946838086357
 11
-36.72841368526426
 21
508.0946928739395
 72
     1
 10
-36.72841368526426
 20
508.0946928739395
 11
-39.47008564002487
 21
517.4947110045471
 72
     1
 10
-39.47008564002487
 20
517.4947110045471
 11
-39.98189412672136
 21
517.7506152478954
 72
     1
 10
-39.98189412672136
 20
517.7506152478954
 11
-58.27012190124086
 21
517.4947110045471
 72
     1
 10
-58.27012190124086
 20
517.4947110045471
 11
-71.86007235468188
 21
521.0076834378218
 72
     1
 10
-71.86007235468188
 20
521.0076834378218
 11
-71.85662640582241
 21
362.4307678254373
 72
     1
 10
-71.85662640582241
 20
362.4307678254373
 11
-62.24324464254074
 21
361.1354078050188
 72
     1
 10
-62.24324464254074
 20
361.1354078050188
 11
-49.88676754910248
 21
368.2694231811498
 72
     1
 10
-49.88676754910248
 20
368.2694231811498
 11
-43.77842728321986
 21
372.1860974022363
 72
     1
 10
-43.77842728321986
 20
372.1860974022363
 11
-39.47008564002498
 21
376.8861064675399
 72
     1
 10
-39.47008564002498
 20
376.8861064675399
 11
-42.21175759478946
 21
389.4194639750169
 72
     1
 10
-42.21175759478946
 20
389.4194639750169
 11
-42.21175759478557
 21
414.0945115678619
 72
     1
 10
-42.21175759478557
 20
414.0945115678619
 11
-38.29508337369891
 21
426.2362016532305
 72
     1
 10
-38.29508337369891
 20
426.2362016532305
 11
-41.82009017267673
 21
437.9862243164901
 72
     1
 10
-41.82009017267673
 20
437.9862243164901
 11
-36.33674626315565
 21
448.9529121355324
 72
     1
 10
-36.33674626315565
 20
448.9529121355324
 11
-36.3367462631602
 21
455.2195908892711
 72
     1
 10
-36.3367462631602
 20
455.2195908892711
 11
-36.33674626315564
 21
503.3946838086357
 97
        1
330
1BD
 75
     0
 76
     1
 98
        0
450
        0
451
        0
460
0.0
461
0.0
452
        1
462
0.0
453
        0
470

  0
LWPOLYLINE
  5
1BD
102
{ACAD_REACTORS
330
1BC
102
}
330
1F
100
AcDbEntity
  8
Specialized_Fills
  6
Continuous
100
AcDbPolyline
 90
       17
 70
   129
 43
0.0
 10
-36.33674626315564
 20
503.3946838086357
 10
-36.72841368526426
 20
508.0946928739395
 10
-39.47008564002487
 20
517.4947110045471
 10
-39.98189412672136
 20
517.7506152478954
 10
-58.27012190124086
 20
517.4947110045471
 10
-71.86007235468188
 20
521.0076834378218
 10
-71.85662640582241
 20
362.4307678254373
 10
-62.24324464254074
 20
361.1354078050188
 10
-49.88676754910248
 20
368.2694231811498
 10
-43.77842728321986
 20
372.1860974022363
 10
-39.47008564002498
 20
376.8861064675399
 10
-42.21175759478946
 20
389.4194639750169
 10
-42.21175759478557
 20
414.0945115678619
 10
-38.29508337369891
 20
426.2362016532305
 10
-41.82009017267673
 20
437.9862243164901
 10
-36.33674626315565
 20
448.9529121355324
 10
-36.3367462631602
 20
455.2195908892711
  0
HATCH
  5
1BE
330
1F
100
AcDbEntity
  8
Specialized_Fills
  6
Continuous
 62
   254
420
 14671839
370
    13
100
AcDbHatch
 10
0.0
 20
0.0
 30
0.0
210
0.0
220
0.0
230
1.0
  2
SOLID
 70
     1
 71
     1
 91
        1
 92
        1
 93
       17
 72
     1
 10
9.544644750671402
 20
392.7924759623111
 11
7.096723362492076
 21
401.2242051882616
 72
     1
 10
7.096723362492076
 20
401.2242051882616
 11
5.638368315829477
 21
402.9477156979537
 72
     1
 10
5.638368315829477
 20
402.9477156979537
 11
4.104819443606672
 21
404.7600916378534
 72
     1
 10
4.104819443606672
 20
404.7600916378534
 11
1.656898055427645
 21
405.0320829032068
 72
     1
 10
1.656898055427645
 20
405.0320829032068
 11
-1.335005863457188
 21
398.7762838000835
 72
     1
 10
-1.335005863457188
 20
398.7762838000835
 11
-5.958857374472326
 21
390.6165458394854
 72
     1
 10
-5.958857374472326
 20
390.6165458394854
 11
-5.958857374462889
 21
380.0088864907092
 72
     1
 10
-5.958857374462889
 20
380.0088864907092
 11
-5.958857374462889
 21
371.8491485301123
 72
     1
 10
-5.958857374462889
 20
371.8491485301123
 11
-5.958857374462889
 21
364.7773756309282
 72
     1
 10
-5.958857374462889
 20
364.7773756309282
 11
0.5689329940148618
 21
362.8734367734555
 72
     1
 10
0.568932994014862
 20
362.8734367734555
 11
6.280749566432605
 21
363.1454280388088
 72
     1
 10
6.280749566432605
 20
363.1454280388088
 11
11.72057487349854
 21
365.865340692342
 72
     1
 10
11.72057487349854
 20
365.865340692342
 11
14.44048752702953
 21
367.7692795498138
 72
     1
 10
14.44048752702953
 20
367.7692795498138
 11
14.44048752702953
 21
372.3931310608189
 72
     1
 10
14.44048752702953
 20
372.3931310608189
 11
11.17659234279073
 21
377.8329563678836
 72
     1
 10
11.17659234279073
 20
377.8329563678836
 11
9.544644750671405
 21
385.4487117977738
 72
     1
 10
9.544644750671405
 20
385.4487117977738
 11
9.544644750671402
 21
392.7924759623111
 97
        1
330
1BF
 75
     0
 76
     1
 98
        0
450
        0
451
        0
460
0.0
461
0.0
452
        1
462
0.0
453
        0
470

  0
LWPOLYLINE
  5
1BF
102
{ACAD_REACTORS
330
1BE
102
}
330
1F
100
AcDbEntity
  8
Specialized_Fills
  6
Continuous
100
AcDbPolyline
 90
       17
 70
   129
 43
0.0
 10
9.544644750671402
 20
392.7924759623111
 10
7.096723362492076
 20
401.2242051882616
 10
5.638368315829477
 20
402.9477156979537
 10
4.104819443606672
 20
404.7600916378534
 10
1.656898055427645
 20
405.0320829032068
 10
-1.335005863457188
 20
398.7762838000835
 10
-5.958857374472326
 20
390.6165458394854
 10
-5.958857374462889
 20
380.0088864907092
 10
-5.958857374462889
 20
371.8491485301123
 10
-5.958857374462889
 20
364.7773756309282
 10
0.568932994014862
 20
362.8734367734555
 10
6.280749566432605
 20
363.1454280388088
 10
11.72057487349854
 20
365.865340692342
 10
14.44048752702953
 20
367.7692795498138
 10
14.44048752702953
 20
372.3931310608189
 10
11.17659234279073
 20
377.8329563678836
 10
9.544644750671405
 20
385.4487117977738
  0
HATCH
  5
1C0
330
1F
100
AcDbEntity
  8
Specialized_Fills
  6
Continuous
 62
   254
420
 14671839
370
    13
100
AcDbHatch
 10
0.0
 20
0.0
 30
0.0
210
0.0
220
0.0
230
1.0
  2
SOLID
 70
     1
 71
     1
 91
        1
 92
        1
 93
       57
 72
     1
 10
15.14715303818293
 20
506.6376900636954
 11
15.53882046029164
 21
495.6710022446529
 72
     1
 10
15.53882046029164
 20
495.6710022446529
 11
13.18881592762962
 21
481.1793076265719
 72
     1
 10
13.18881592762962
 20
481.1793076265719
 11
11.62214623921185
 21
472.1709569181737
 72
     1
 10
11.62214623921185
 20
472.1709569181737
 11
10.0554765507704
 21
462.7709387875256
 72
     1
 10
10.0554765507704
 20
462.7709387875256
 11
4.351693531434962
 21
448.192057232337
 72
     1
 10
4.351693531434962
 20
448.192057232337
 11
8.032489440987784
 21
434.4551398856203
 72
     1
 10
8.032489440987784
 20
434.4551398856203
 11
4.180465219140393
 21
420.0791897776817
 72
     1
 10
4.180465219140393
 20
420.0791897776817
 11
4.106412212608325
 21
413.6758051573334
 72
     1
 10
4.106412212608325
 20
413.6758051573334
 11
6.653323497453627
 21
410.1738021406712
 72
     1
 10
6.653323497453627
 20
410.1738021406712
 11
5.638368315829479
 21
402.9477156979537
 72
     1
 10
5.638368315829479
 20
402.9477156979537
 11
7.096723362492114
 21
401.2242051882616
 72
     1
 10
7.096723362492114
 20
401.2242051882616
 11
9.544644750671405
 21
392.7924759623112
 72
     1
 10
9.544644750671405
 20
392.7924759623112
 11
9.544644750671405
 21
385.4487117977738
 72
     1
 10
9.544644750671405
 20
385.4487117977738
 11
11.17659234279071
 21
377.8329563678836
 72
     1
 10
11.17659234279071
 20
377.8329563678836
 11
14.44048752702953
 21
372.3931310608189
 72
     1
 10
14.44048752702953
 20
372.3931310608189
 11
14.44048752702953
 21
367.7692795498137
 72
     1
 10
14.44048752702953
 20
367.7692795498137
 11
11.72057487349514
 21
365.8653406923402
 72
     1
 10
11.72057487349514
 20
365.8653406923402
 11
6.280749566432652
 21
363.1454280388088
 72
     1
 10
6.280749566432652
 20
363.1454280388088
 11
2.683796609212477
 21
362.9741445646556
 72
     1
 10
2.683796609212477
 20
362.9741445646556
 11
15.54319013837714
 21
362.9741445646469
 72
     1
 10
15.54319013837714
 20
362.9741445646469
 11
22.39300034719283
 21
368.1832563482858
 72
     1
 10
22.39300034719283
 20
368.1832563482858
 11
17.88882499294335
 21
372.6874317025353
 72
     1
 10
17.88882499294335
 20
372.6874317025353
 11
13.18881592763965
 21
385.2207892100123
 72
     1
 10
13.18881592763965
 20
385.2207892100123
 11
13.18881592763965
 21
395.4041421848373
 72
     1
 10
13.18881592763965
 20
395.4041421848373
 11
9.272141706553103
 21
407.1541648480968
 72
     1
 10
9.272141706553103
 20
407.1541648480968
 11
9.27214170653734
 21
415.7708481344872
 72
     1
 10
9.27214170653734
 20
415.7708481344872
 11
9.272141706553108
 21
428.3042056419643
 72
     1
 10
9.272141706553108
 20
428.3042056419643
 11
10.44714397287904
 21
436.9208889283547
 72
     1
 10
10.44714397287904
 20
436.9208889283547
 11
8.097139440227159
 21
443.5792351042017
 72
     1
 10
8.097139440227159
 20
443.5792351042017
 11
8.097139440227053
 21
448.6709115916145
 72
     1
 10
8.097139440227053
 20
448.6709115916145
 11
12.40548108342204
 21
458.8542645664386
 72
     1
 10
12.40548108342204
 20
458.8542645664386
 11
15.14715303818291
 21
468.2542826970474
 72
     1
 10
15.14715303818291
 20
468.2542826970474
 11
15.72059394348136
 21
477.8154887085399
 72
     1
 10
15.72059394348136
 20
477.8154887085399
 11
19.45549468137819
 21
491.7543280235666
 72
     1
 10
19.45549468137819
 20
491.7543280235666
 11
20.91059759427317
 21
501.6490278312652
 72
     1
 10
20.91059759427317
 20
501.6490278312652
 11
21.24306907867622
 21
503.9098339252079
 72
     1
 10
21.24306907867622
 20
503.9098339252079
 11
19.68841241028078
 21
511.2626327093689
 72
     1
 10
19.68841241028078
 20
511.2626327093689
 11
19.15780589260665
 21
513.9156652977383
 72
     1
 10
19.15780589260665
 20
513.9156652977383
 11
17.83128959841651
 21
516.8340011449568
 72
     1
 10
17.83128959841651
 20
516.8340011449568
 11
17.03537982190239
 21
520.8135500275274
 72
     1
 10
17.03537982190239
 20
520.8135500275274
 11
13.32113419816828
 21
521.609459804042
 72
     1
 10
13.32113419816828
 20
521.609459804042
 11
8.015069021408875
 21
523.2012793570696
 72
     1
 10
8.015069021408875
 20
523.2012793570696
 11
3.770216880004958
 21
523.7318858747454
 72
     1
 10
3.770216880004958
 20
523.7318858747454
 11
-0.7399385202481277
 21
523.997189133584
 72
     1
 10
-0.7399385202481277
 20
523.997189133584
 11
-7.372519991197933
 21
523.997189133584
 72
     1
 10
-7.372519991197933
 20
523.997189133584
 11
-13.47449494447688
 21
524.7930989100987
 72
     1
 10
-13.47449494447688
 20
524.7930989100987
 11
-20.37237967426204
 21
525.8543119454503
 72
     1
 10
-20.37237967426204
 20
525.8543119454503
 11
-24.35192855683288
 21
523.2012793570698
 72
     1
 10
-24.35192855683288
 20
523.2012793570698
 11
-32.16050111374646
 21
520.7691166446955
 72
     1
 10
-32.16050111374646
 20
520.7691166446955
 11
-32.00696913525248
 21
518.9267329027646
 72
     1
 10
-32.00696913525248
 20
518.9267329027646
 11
-30.9458625241565
 21
513.1211792864022
 72
     1
 10
-30.9458625241565
 20
513.1211792864022
 11
-30.67793534852959
 21
514.8627059279772
 72
     1
 10
-30.67793534852959
 20
514.8627059279772
 11
-25.19459143900825
 21
519.1710475711724
 72
     1
 10
-25.19459143900825
 20
519.1710475711724
 11
-13.05290135364035
 21
521.1293846817155
 72
     1
 10
-13.05290135364035
 20
521.1293846817155
 11
-0.5195438461634155
 21
518.7793801490637
 72
     1
 10
-0.519543846163415
 20
518.7793801490637
 11
13.58048334974837
 21
518.7793801490637
 72
     1
 10
13.58048334974837
 20
518.7793801490637
 11
15.14715303818293
 21
506.6376900636954
 97
        1
330
1C1
 75
     0
 76
     1
 98
        0
450
        0
451
        0
460
0.0
461
0.0
452
        1
462
0.0
453
        0
470

  0
LWPOLYLINE
  5
1C1
102
{ACAD_REACTORS
330
1C0
102
}
330
1F
100
AcDbEntity
  8
Specialized_Fills
  6
Continuous
100
AcDbPolyline
 90
       57
 70
   129
 43
0.0
 10
15.14715303818293
 20
506.6376900636954
 10
15.53882046029164
 20
495.6710022446529
 10
13.18881592762962
 20
481.1793076265719
 10
11.62214623921185
 20
472.1709569181737
 10
10.0554765507704
 20
462.7709387875256
 10
4.351693531434962
 20
448.192057232337
 10
8.032489440987784
 20
434.4551398856203
 10
4.180465219140393
 20
420.0791897776817
 10
4.106412212608325
 20
413.6758051573334
 10
6.653323497453627
 20
410.1738021406712
 10
5.638368315829479
 20
402.9477156979537
 10
7.096723362492114
 20
401.2242051882616
 10
9.544644750671405
 20
392.7924759623112
 10
9.544644750671405
 20
385.4487117977738
 10
11.17659234279071
 20
377.8329563678836
 10
14.44048752702953
 20
372.3931310608189
 10
14.44048752702953
 20
367.7692795498137
 10
11.72057487349514
 20
365.8653406923402
 10
6.280749566432652
 20
363.1454280388088
 10
2.683796609212477
 20
362.9741445646556
 10
15.54319013837714
 20
362.9741445646469
 10
22.39300034719283
 20
368.1832563482858
 10
17.88882499294335
 20
372.6874317025353
 10
13.18881592763965
 20
385.2207892100123
 10
13.18881592763965
 20
395.4041421848373
 10
9.272141706553103
 20
407.1541648480968
 10
9.27214170653734
 20
415.7708481344872
 10
9.272141706553108
 20
428.3042056419643
 10
10.44714397287904
 20
436.9208889283547
 10
8.097139440227159
 20
443.5792351042017
 10
8.097139440227053
 20
448.6709115916145
 10
12.40548108342204
 20
458.8542645664386
 10
15.14715303818291
 20
468.2542826970474
 10
15.72059394348136
 20
477.8154887085399
 10
19.45549468137819
 20
491.7543280235666
 10
20.91059759427317
 20
501.6490278312652
 10
21.24306907867622
 20
503.9098339252079
 10
19.68841241028078
 20
511.2626327093689
 10
19.15780589260665
 20
513.9156652977383
 10
17.83128959841651
 20
516.8340011449568
 10
17.03537982190239
 20
520.8135500275274
 10
13.32113419816828
 20
521.609459804042
 10
8.015069021408875
 20
523.2012793570696
 10
3.770216880004958
 20
523.7318858747454
 10
-0.7399385202481277
 20
523.997189133584
 10
-7.372519991197933
 20
523.997189133584
 10
-13.47449494447688
 20
524.7930989100987
 10
-20.37237967426204
 20
525.8543119454503
 10
-24.35192855683288
 20
523.2012793570698
 10
-32.16050111374646
 20
520.7691166446955
 10
-32.00696913525248
 20
518.9267329027646
 10
-30.9458625241565
 20
513.1211792864022
 10
-30.67793534852959
 20
514.8627059279772
 10
-25.19459143900825
 20
519.1710475711724
 10
-13.05290135364035
 20
521.1293846817155
 10
-0.519543846163415
 20
518.7793801490637
 10
13.58048334974837
 20
518.7793801490637
  0
HATCH
  5
1C2
330
1F
100
AcDbEntity
  8
Specialized_Fills
  6
Continuous
 62
   254
420
 14671839
370
    13
100
AcDbHatch
 10
0.0
 20
0.0
 30
0.0
210
0.0
220
0.0
230
1.0
  2
SOLID
 70
     1
 71
     1
 91
        1
 92
        1
 93
        9
 72
     1
 10
-34.5247520874864
 20
510.6262114608012
 11
-35.00044451540724
 21
513.956058456247
 72
     1
 10
-35.00044451540724
 20
513.956058456247
 11
-38.65761786171203
 21
514.7091071931888
 72
     1
 10
-38.65761786171203
 20
514.7091071931888
 11
-36.72841368526425
 21
508.0946928739394
 72
     1
 10
-36.72841368526425
 20
508.0946928739394
 11
-36.33674626315564
 21
503.3946838086356
 72
     1
 10
-36.33674626315564
 20
503.3946838086356
 11
-36.33674626315814
 21
476.8709659834406
 72
     1
 10
-36.33674626315814
 20
476.8709659834406
 11
-33.81127472539882
 21
491.3626606014572
 72
     1
 10
-33.81127472539882
 20
491.3626606014572
 11
-32.20656470437389
 21
503.9328890994859
 72
     1
 10
-32.20656470437389
 20
503.9328890994859
 11
-34.15627533910016
 21
508.0468742220981
 72
     1
 10
-34.15627533910016
 20
508.0468742220981
 11
-34.5247520874864
 21
510.6262114608012
 97
        1
330
1C3
 75
     0
 76
     1
 98
        0
450
        0
451
        0
460
0.0
461
0.0
452
        1
462
0.0
453
        0
470

  0
LWPOLYLINE
  5
1C3
102
{ACAD_REACTORS
330
1C2
102
}
330
1F
100
AcDbEntity
  8
Specialized_Fills
  6
Continuous
100
AcDbPolyline
 90
        9
 70
   129
 43
0.0
 10
-34.5247520874864
 20
510.6262114608012
 10
-35.00044451540724
 20
513.956058456247
 10
-38.65761786171203
 20
514.7091071931888
 10
-36.72841368526425
 20
508.0946928739394
 10
-36.33674626315564
 20
503.3946838086356
 10
-36.33674626315814
 20
476.8709659834406
 10
-33.81127472539882
 20
491.3626606014572
 10
-32.20656470437389
 20
503.9328890994859
 10
-34.15627533910016
 20
508.0468742220981
  0
HATCH
  5
1C4
330
1F
100
AcDbEntity
  8
Specialized_Fills
  6
Continuous
 62
   254
420
 14671839
370
    13
100
AcDbHatch
 10
0.0
 20
0.0
 30
0.0
210
0.0
220
0.0
230
1.0
  2
SOLID
 70
     1
 71
     1
 91
        1
 92
        1
 93
       23
 72
     1
 10
-35.37794441383346
 20
426.3458685314209
 11
-35.37794441383346
 21
438.4875586167894
 72
     1
 10
-35.37794441383346
 20
438.4875586167894
 11
-32.68800832023122
 21
448.6709115916143
 72
     1
 10
-32.68800832023122
 20
448.6709115916143
 11
-32.68800832022578
 21
463.2536905968747
 72
     1
 10
-32.68800832022578
 20
463.2536905968747
 11
-36.33674626315815
 21
476.8709659834359
 72
     1
 10
-36.33674626315815
 20
476.8709659834359
 11
-36.3367462631602
 21
455.2195908892711
 72
     1
 10
-36.3367462631602
 20
455.2195908892711
 11
-36.33674626315565
 21
448.9529121355324
 72
     1
 10
-36.33674626315565
 20
448.9529121355324
 11
-41.82009017267675
 21
437.9862243164901
 72
     1
 10
-41.82009017267675
 20
437.9862243164901
 11
-38.29508337369892
 21
426.2362016532305
 72
     1
 10
-38.29508337369892
 20
426.2362016532305
 11
-42.21175759478557
 21
414.0945115678619
 72
     1
 10
-42.21175759478557
 20
414.0945115678619
 11
-42.21175759478945
 21
389.419463975017
 72
     1
 10
-42.21175759478945
 20
389.419463975017
 11
-39.47008564002497
 21
376.8861064675399
 72
     1
 10
-39.47008564002497
 20
376.8861064675399
 11
-43.77842728322002
 21
372.1860974022362
 72
     1
 10
-43.77842728322002
 20
372.1860974022362
 11
-39.94940816858054
 21
369.5055277909528
 72
     1
 10
-39.94940816858054
 20
369.5055277909528
 11
-37.7385476782634
 21
365.9681510064454
 72
     1
 10
-37.7385476782634
 20
365.9681510064454
 11
-32.21139645247077
 21
365.0838068103188
 72
     1
 10
-32.21139645247077
 20
365.0838068103188
 11
-27.72869045932167
 21
365.8309039709552
 72
     1
 10
-27.72869045932167
 20
365.8309039709552
 11
-30.67793534852965
 21
366.4207529487969
 72
     1
 10
-30.67793534852965
 20
366.4207529487969
 11
-35.76961183594208
 21
369.554092325666
 72
     1
 10
-35.76961183594208
 20
369.554092325666
 11
-36.94461410226808
 21
378.9541104562744
 72
     1
 10
-36.94461410226808
 20
378.9541104562744
 11
-37.72794894648547
 21
388.3541285868816
 72
     1
 10
-37.72794894648547
 20
388.3541285868816
 11
-39.29461863492011
 21
395.7958096069461
 72
     1
 10
-39.29461863492011
 20
395.7958096069461
 11
-38.11961636859327
 21
405.979162581777
 72
     1
 10
-38.11961636859327
 20
405.979162581777
 11
-35.37794441383346
 21
426.3458685314209
 97
        1
330
1C5
 75
     0
 76
     1
 98
        0
450
        0
451
        0
460
0.0
461
0.0
452
        1
462
0.0
453
        0
470

  0
LWPOLYLINE
  5
1C5
102
{ACAD_REACTORS
330
1C4
102
}
330
1F
100
AcDbEntity
  8
Specialized_Fills
  6
Continuous
100
AcDbPolyline
 90
       23
 70
   129
 43
0.0
 10
-35.37794441383346
 20
426.3458685314209
 10
-35.37794441383346
 20
438.4875586167894
 10
-32.68800832023122
 20
448.6709115916143
 10
-32.68800832022578
 20
463.2536905968747
 10
-36.33674626315815
 20
476.8709659834359
 10
-36.3367462631602
 20
455.2195908892711
 10
-36.33674626315565
 20
448.9529121355324
 10
-41.82009017267675
 20
437.9862243164901
 10
-38.29508337369892
 20
426.2362016532305
 10
-42.21175759478557
 20
414.0945115678619
 10
-42.21175759478945
 20
389.419463975017
 10
-39.47008564002497
 20
376.8861064675399
 10
-43.77842728322002
 20
372.1860974022362
 10
-39.94940816858054
 20
369.5055277909528
 10
-37.7385476782634
 20
365.9681510064454
 10
-32.21139645247077
 20
365.0838068103188
 10
-27.72869045932167
 20
365.8309039709552
 10
-30.67793534852965
 20
366.4207529487969
 10
-35.76961183594208
 20
369.554092325666
 10
-36.94461410226808
 20
378.9541104562744
 10
-37.72794894648547
 20
388.3541285868816
 10
-39.29461863492011
 20
395.7958096069461
 10
-38.11961636859327
 20
405.979162581777
  0
HATCH
  5
1C6
330
1F
100
AcDbEntity
  8
Specialized_Fills
  6
Continuous
 62
   254
420
 14671839
370
    13
100
AcDbHatch
 10
0.0
 20
0.0
 30
0.0
210
0.0
220
0.0
230
1.0
  2
SOLID
 70
     1
 71
     1
 91
        1
 92
        1
 93
       18
 72
     1
 10
-30.94586252415665
 20
513.121179286403
 11
-32.00696913525248
 21
518.9267329027646
 72
     1
 10
-32.00696913525248
 20
518.9267329027646
 11
-32.16050111374646
 21
520.7691166446952
 72
     1
 10
-32.16050111374646
 20
520.7691166446952
 11
-36.76646046857391
 21
522.4579684081319
 72
     1
 10
-36.76646046857391
 20
522.4579684081319
 11
-40.75829190942403
 21
524.1468201715687
 72
     1
 10
-40.75829190942403
 20
524.1468201715687
 11
-44.75012335027439
 21
525.2215440210277
 72
     1
 10
-44.75012335027439
 20
525.2215440210277
 11
-50.27727457606679
 21
525.2215440210282
 72
     1
 10
-50.27727457606679
 20
525.2215440210282
 11
-54.42263799541136
 21
524.4538841285568
 72
     1
 10
-54.42263799541136
 20
524.4538841285568
 11
-58.4144694362615
 21
522.4579684081319
 72
     1
 10
-58.4144694362615
 20
522.4579684081319
 11
-61.79217296313478
 21
522.4579684081319
 72
     1
 10
-61.79217296313478
 20
522.4579684081319
 11
-64.8628125330195
 21
524.1468201715687
 72
     1
 10
-64.8628125330195
 20
524.1468201715687
 11
-69.31523990935251
 21
524.1468201715685
 72
     1
 10
-69.31523990935251
 20
524.1468201715685
 11
-71.7717515652605
 21
524.1468201715685
 72
     1
 10
-71.7717515652605
 20
524.1468201715685
 11
-71.86007235468217
 21
521.0076834378219
 72
     1
 10
-71.86007235468217
 20
521.0076834378219
 11
-58.27012190124059
 21
517.4947110045471
 72
     1
 10
-58.27012190124059
 20
517.4947110045471
 11
-35.63018233264504
 21
517.8115080543316
 72
     1
 10
-35.63018233264504
 20
517.8115080543316
 11
-34.98578108159079
 21
507.2401013925206
 72
     1
 10
-34.98578108159079
 20
507.2401013925206
 11
-32.20656470437411
 21
503.9328890994859
 72
     1
 10
-32.20656470437411
 20
503.9328890994859
 11
-30.94586252415665
 21
513.121179286403
 97
        1
330
1C7
 75
     0
 76
     1
 98
        0
450
        0
451
        0
460
0.0
461
0.0
452
        1
462
0.0
453
        0
470

  0
LWPOLYLINE
  5
1C7
102
{ACAD_REACTORS
330
1C6
102
}
330
1F
100
AcDbEntity
  8
Specialized_Fills
  6
Continuous
100
AcDbPolyline
 90
       18
 70
   129
 43
0.0
 10
-30.94586252415665
 20
513.121179286403
 10
-32.00696913525248
 20
518.9267329027646
 10
-32.16050111374646
 20
520.7691166446952
 10
-36.76646046857391
 20
522.4579684081319
 10
-40.75829190942403
 20
524.1468201715687
 10
-44.75012335027439
 20
525.2215440210277
 10
-50.27727457606679
 20
525.2215440210282
 10
-54.42263799541136
 20
524.4538841285568
 10
-58.4144694362615
 20
522.4579684081319
 10
-61.79217296313478
 20
522.4579684081319
 10
-64.8628125330195
 20
524.1468201715687
 10
-69.31523990935251
 20
524.1468201715685
 10
-71.7717515652605
 20
524.1468201715685
 10
-71.86007235468217
 20
521.0076834378219
 10
-58.27012190124059
 20
517.4947110045471
 10
-35.63018233264504
 20
517.8115080543316
 10
-34.98578108159079
 20
507.2401013925206
 10
-32.20656470437411
 20
503.9328890994859
  0
HATCH
  5
1C8
330
1F
100
AcDbEntity
  8
Specialized_Fills
  6
Continuous
 62
   254
420
 14671839
370
    13
100
AcDbHatch
 10
0.0
 20
0.0
 30
0.0
210
0.0
220
0.0
230
1.0
  2
SOLID
 70
     1
 71
     1
 91
        1
 92
        1
 93
        5
 72
     1
 10
-35.40018306798399
 20
514.0383686405398
 11
-35.63018233264504
 21
517.8115080543316
 72
     1
 10
-35.63018233264504
 20
517.8115080543316
 11
-39.98189412672135
 21
517.7506152478956
 72
     1
 10
-39.98189412672135
 20
517.7506152478956
 11
-39.47008564002486
 21
517.4947110045471
 72
     1
 10
-39.47008564002486
 20
517.4947110045471
 11
-38.65761786171202
 21
514.7091071931888
 72
     1
 10
-38.65761786171202
 20
514.7091071931888
 11
-35.40018306798399
 21
514.0383686405398
 97
        1
330
1C9
 75
     0
 76
     1
 98
        0
450
        0
451
        0
460
0.0
461
0.0
452
        1
462
0.0
453
        0
470

  0
LWPOLYLINE
  5
1C9
102
{ACAD_REACTORS
330
1C8
102
}
330
1F
100
AcDbEntity
  8
Specialized_Fills
  6
Continuous
100
AcDbPolyline
 90
        5
 70
   129
 43
0.0
 10
-35.40018306798399
 20
514.0383686405398
 10
-35.63018233264504
 20
517.8115080543316
 10
-39.98189412672135
 20
517.7506152478956
 10
-39.47008564002486
 20
517.4947110045471
 10
-38.65761786171202
 20
514.7091071931888
  0
HATCH
  5
1CA
330
1F
100
AcDbEntity
  8
Specialized_Fills
  6
Continuous
 62
   254
420
 14671839
370
    13
100
AcDbHatch
 10
0.0
 20
0.0
 30
0.0
210
0.0
220
0.0
230
1.0
  2
SOLID
 70
     1
 71
     1
 91
        1
 92
        1
 93
       19
 72
     1
 10
1.656898055427666
 20
405.0320829032067
 11
4.104819443606747
 21
404.7600916378534
 72
     1
 10
4.104819443606747
 20
404.7600916378534
 11
5.638368315829481
 21
402.9477156979538
 72
     1
 10
5.638368315829481
 20
402.9477156979538
 11
6.653323497453629
 21
410.1738021406713
 72
     1
 10
6.653323497453629
 20
410.1738021406713
 11
4.106412212608323
 21
413.6758051573333
 72
     1
 10
4.106412212608323
 20
413.6758051573333
 11
4.180465219140391
 21
420.0791897776823
 72
     1
 10
4.180465219140391
 20
420.0791897776823
 11
-2.477880956707693
 21
409.8958368028547
 72
     1
 10
-2.477880956707693
 20
409.8958368028547
 11
-8.195471834175355
 21
399.7124838280325
 72
     1
 10
-8.195471834175355
 20
399.7124838280325
 11
-8.195471834170804
 21
378.2054214422325
 72
     1
 10
-8.195471834170804
 20
378.2054214422325
 11
-11.87789908731428
 21
364.4624158382535
 72
     1
 10
-11.87789908731428
 20
364.4624158382535
 11
-13.31495891159511
 21
363.8573380175037
 72
     1
 10
-13.31495891159511
 20
363.8573380175037
 11
-9.702175440082754
 21
362.0739659039177
 72
     1
 10
-9.702175440082754
 20
362.0739659039177
 11
-6.119762608550571
 21
362.4577958501531
 72
     1
 10
-6.119762608550571
 20
362.4577958501531
 11
-2.810959911498003
 21
363.8592388708967
 72
     1
 10
-2.810959911498003
 20
363.8592388708967
 11
-5.958857374462889
 21
364.7773756309282
 72
     1
 10
-5.958857374462889
 20
364.7773756309282
 11
-5.958857374462889
 21
371.8491485301123
 72
     1
 10
-5.958857374462889
 20
371.8491485301123
 11
-5.958857374462889
 21
380.0088864907092
 72
     1
 10
-5.958857374462889
 20
380.0088864907092
 11
-5.958857374472326
 21
390.6165458394855
 72
     1
 10
-5.958857374472326
 20
390.6165458394855
 11
-1.335005863456906
 21
398.7762838000842
 72
     1
 10
-1.335005863456906
 20
398.7762838000842
 11
1.656898055427666
 21
405.0320829032067
 97
        1
330
1CB
 75
     0
 76
     1
 98
        0
450
        0
451
        0
460
0.0
461
0.0
452
        1
462
0.0
453
        0
470

  0
LWPOLYLINE
  5
1CB
102
{ACAD_REACTORS
330
1CA
102
}
330
1F
100
AcDbEntity
  8
Specialized_Fills
  6
Continuous
100
AcDbPolyline
 90
       19
 70
   129
 43
0.0
 10
1.656898055427666
 20
405.0320829032067
 10
4.104819443606747
 20
404.7600916378534
 10
5.638368315829481
 20
402.9477156979538
 10
6.653323497453629
 20
410.1738021406713
 10
4.106412212608323
 20
413.6758051573333
 10
4.180465219140391
 20
420.0791897776823
 10
-2.477880956707693
 20
409.8958368028547
 10
-8.195471834175355
 20
399.7124838280325
 10
-8.195471834170804
 20
378.2054214422325
 10
-11.87789908731428
 20
364.4624158382535
 10
-13.31495891159511
 20
363.8573380175037
 10
-9.702175440082754
 20
362.0739659039177
 10
-6.119762608550571
 20
362.4577958501531
 10
-2.810959911498003
 20
363.8592388708967
 10
-5.958857374462889
 20
364.7773756309282
 10
-5.958857374462889
 20
371.8491485301123
 10
-5.958857374462889
 20
380.0088864907092
 10
-5.958857374472326
 20
390.6165458394855
 10
-1.335005863456906
 20
398.7762838000842
  0
HATCH
  5
1CC
330
1F
100
AcDbEntity
  8
Specialized_Fills
  6
Continuous
 62
   254
420
 14671839
370
    13
100
AcDbHatch
 10
0.0
 20
0.0
 30
0.0
210
0.0
220
0.0
230
1.0
  2
SOLID
 70
     1
 71
     1
 91
        1
 92
        1
 93
       23
 72
     1
 10
-39.84892839029638
 20
361.7003396144701
 11
-36.85420348213674
 21
362.4307742219384
 72
     1
 10
-36.85420348213674
 20
362.4307742219384
 11
-24.91555683442495
 21
362.4307742219328
 72
     1
 10
-24.91555683442495
 20
362.4307742219328
 11
-12.96238514191327
 21
359.2279315199327
 72
     1
 10
-12.96238514191327
 20
359.2279315199327
 11
-3.028037980286063
 21
359.2279315199231
 72
     1
 10
-3.028037980286063
 20
359.2279315199231
 11
2.68379660921684
 21
362.9741445646556
 72
     1
 10
2.68379660921684
 20
362.9741445646556
 11
0.5689329940148636
 21
362.8734367734555
 72
     1
 10
0.5689329940148637
 20
362.8734367734555
 11
-2.810959911497826
 21
363.8592388708967
 72
     1
 10
-2.810959911497826
 20
363.8592388708967
 11
-6.119762608550063
 21
362.4577958501533
 72
     1
 10
-6.119762608550063
 20
362.4577958501533
 11
-9.702175440082793
 21
362.0739659039178
 72
     1
 10
-9.702175440082793
 20
362.0739659039178
 11
-13.31495891159512
 21
363.8573380175038
 72
     1
 10
-13.31495891159512
 20
363.8573380175038
 11
-19.31958010737842
 21
361.3290764613842
 72
     1
 10
-19.31958010737842
 20
361.3290764613842
 11
-22.84458690635641
 21
362.8957461498188
 72
     1
 10
-22.84458690635641
 20
362.8957461498188
 11
-24.80292401689975
 21
365.2457506824708
 72
     1
 10
-24.80292401689975
 20
365.2457506824708
 11
-27.72869045932184
 21
365.8309039709552
 72
     1
 10
-27.72869045932184
 20
365.8309039709552
 11
-32.21139645247042
 21
365.0838068103188
 72
     1
 10
-32.21139645247042
 20
365.0838068103188
 11
-37.73854767826342
 21
365.9681510064454
 72
     1
 10
-37.73854767826342
 20
365.9681510064454
 11
-39.94940816858068
 21
369.5055277909529
 72
     1
 10
-39.94940816858068
 20
369.5055277909529
 11
-43.77842728322006
 21
372.1860974022362
 72
     1
 10
-43.77842728322006
 20
372.1860974022362
 11
-49.88676754909999
 21
368.2694231811511
 72
     1
 10
-49.88676754909999
 20
368.2694231811511
 11
-56.06500609582178
 21
364.7024154930842
 72
     1
 10
-56.06500609582178
 20
364.7024154930842
 11
-49.45610827694386
 21
365.525978908382
 72
     1
 10
-49.45610827694386
 20
365.525978908382
 11
-48.35067803178553
 21
363.9783765651602
 72
     1
 10
-48.35067803178553
 20
363.9783765651602
 11
-39.84892839029638
 21
361.7003396144701
 97
        1
330
1CD
 75
     0
 76
     1
 98
        0
450
        0
451
        0
460
0.0
461
0.0
452
        1
462
0.0
453
        0
470

  0
LWPOLYLINE
  5
1CD
102
{ACAD_REACTORS
330
1CC
102
}
330
1F
100
AcDbEntity
  8
Specialized_Fills
  6
Continuous
100
AcDbPolyline
 90
       23
 70
   129
 43
0.0
 10
-39.84892839029638
 20
361.7003396144701
 10
-36.85420348213674
 20
362.4307742219384
 10
-24.91555683442495
 20
362.4307742219328
 10
-12.96238514191327
 20
359.2279315199327
 10
-3.028037980286063
 20
359.2279315199231
 10
2.68379660921684
 20
362.9741445646556
 10
0.5689329940148637
 20
362.8734367734555
 10
-2.810959911497826
 20
363.8592388708967
 10
-6.119762608550063
 20
362.4577958501533
 10
-9.702175440082793
 20
362.0739659039178
 10
-13.31495891159512
 20
363.8573380175038
 10
-19.31958010737842
 20
361.3290764613842
 10
-22.84458690635641
 20
362.8957461498188
 10
-24.80292401689975
 20
365.2457506824708
 10
-27.72869045932184
 20
365.8309039709552
 10
-32.21139645247042
 20
365.0838068103188
 10
-37.73854767826342
 20
365.9681510064454
 10
-39.94940816858068
 20
369.5055277909529
 10
-43.77842728322006
 20
372.1860974022362
 10
-49.88676754909999
 20
368.2694231811511
 10
-56.06500609582178
 20
364.7024154930842
 10
-49.45610827694386
 20
365.525978908382
 10
-48.35067803178553
 20
363.9783765651602
  0
HATCH
  5
1CE
330
1F
100
AcDbEntity
  8
Specialized_Fills
  6
Continuous
 62
   254
420
 14671839
370
    13
100
AcDbHatch
 10
0.0
 20
0.0
 30
0.0
210
0.0
220
0.0
230
1.0
  2
SOLID
 70
     1
 71
     1
 91
        1
 92
        1
 93
       18
 72
     1
 10
70.92298215474682
 20
359.2920090331374
 11
73.53302578914806
 21
358.370817162172
 72
     1
 10
73.53302578914806
 20
358.370817162172
 11
85.84575151843031
 21
361.108535538849
 72
     1
 10
85.84575151843031
 20
361.108535538849
 11
84.1315681534254
 21
361.7207438834938
 72
     1
 10
84.1315681534254
 20
361.7207438834938
 11
82.9551360286352
 21
361.8972087022123
 72
     1
 10
82.9551360286352
 20
361.8972087022123
 11
79.70546126311346
 21
361.7291220764095
 72
     1
 10
79.70546126311346
 20
361.7291220764095
 11
77.67103348184473
 21
362.6898240842307
 72
     1
 10
77.67103348184473
 20
362.6898240842307
 11
76.29821971125284
 21
362.8957461498196
 72
     1
 10
76.29821971125284
 20
362.8957461498196
 11
75.17465216082084
 21
362.9706506531816
 72
     1
 10
75.17465216082084
 20
362.9706506531816
 11
70.37225955550301
 21
361.3290764613844
 72
     1
 10
70.37225955550301
 20
361.3290764613844
 11
62.14724369122143
 21
362.8957461498156
 72
     1
 10
62.14724369122143
 20
362.8957461498156
 11
45.30554454055137
 21
362.8957461498188
 72
     1
 10
45.30554454055137
 20
362.8957461498188
 11
36.68886125409383
 21
363.2874135719305
 72
     1
 10
36.68886125409383
 20
363.2874135719305
 11
32.09302913015943
 21
363.4712468568876
 72
     1
 10
32.09302913015943
 20
363.4712468568876
 11
38.09953561504252
 21
360.0033887209348
 72
     1
 10
38.09953561504252
 20
360.0033887209348
 11
48.3537813160931
 21
360.0033887209331
 72
     1
 10
48.3537813160931
 20
360.0033887209331
 11
51.57795286447248
 21
360.3667328825971
 72
     1
 10
51.57795286447248
 20
360.3667328825971
 11
58.9808998287138
 21
358.3831192219141
 72
     1
 10
58.9808998287138
 20
358.3831192219141
 11
70.92298215474682
 21
359.2920090331374
 97
        1
330
1CF
 75
     0
 76
     1
 98
        0
450
        0
451
        0
460
0.0
461
0.0
452
        1
462
0.0
453
        0
470

  0
LWPOLYLINE
  5
1CF
102
{ACAD_REACTORS
330
1CE
102
}
330
1F
100
AcDbEntity
  8
Specialized_Fills
  6
Continuous
100
AcDbPolyline
 90
       18
 70
   129
 43
0.0
 10
70.92298215474682
 20
359.2920090331374
 10
73.53302578914806
 20
358.370817162172
 10
85.84575151843031
 20
361.108535538849
 10
84.1315681534254
 20
361.7207438834938
 10
82.9551360286352
 20
361.8972087022123
 10
79.70546126311346
 20
361.7291220764095
 10
77.67103348184473
 20
362.6898240842307
 10
76.29821971125284
 20
362.8957461498196
 10
75.17465216082084
 20
362.9706506531816
 10
70.37225955550301
 20
361.3290764613844
 10
62.14724369122143
 20
362.8957461498156
 10
45.30554454055137
 20
362.8957461498188
 10
36.68886125409383
 20
363.2874135719305
 10
32.09302913015943
 20
363.4712468568876
 10
38.09953561504252
 20
360.0033887209348
 10
48.3537813160931
 20
360.0033887209331
 10
51.57795286447248
 20
360.3667328825971
 10
58.9808998287138
 20
358.3831192219141
  0
HATCH
  5
1D0
330
1F
100
AcDbEntity
  8
Specialized_Fills
  6
Continuous
 62
     9
370
    20
100
AcDbHatch
 10
0.0
 20
0.0
 30
0.0
210
0.0
220
0.0
230
1.0
  2
SOLID
 70
     1
 71
     1
 91
        1
 92
        1
 93
        8
 72
     1
 10
144.0347740864243
 20
384.7390624069201
 11
142.1677363800736
 21
397.1825150861186
 72
     1
 10
142.1677363800736
 20
397.1825150861186
 11
140.5911805357259
 21
388.701731612071
 72
     1
 10
140.5911805357259
 20
388.701731612071
 11
136.615002715985
 21
373.862433968862
 72
     1
 10
136.615002715985
 20
373.862433968862
 11
136.2233352938764
 21
367.5957552151235
 72
     1
 10
136.2233352938764
 20
367.5957552151235
 11
131.4604494073036
 21
360.8591928998899
 72
     1
 10
131.4604494073036
 20
360.8591928998899
 11
135.2078753259415
 21
361.9670439235131
 72
     1
 10
135.2078753259415
 20
361.9670439235131
 11
144.0347740864243
 21
372.3680837339621
 72
     1
 10
144.0347740864243
 20
372.3680837339621
 11
144.0347740864243
 21
384.7390624069201
 97
        1
330
1D1
 75
     0
 76
     1
 98
        0
450
        0
451
        0
460
0.0
461
0.0
452
        1
462
0.0
453
        0
470

  0
LWPOLYLINE
  5
1D1
102
{ACAD_REACTORS
330
1D0
102
}
330
1F
100
AcDbEntity
  8
Specialized_Fills
  6
Continuous
100
AcDbPolyline
 90
        8
 70
   129
 43
0.0
 10
144.0347740864243
 20
384.7390624069201
 10
142.1677363800736
 20
397.1825150861186
 10
140.5911805357259
 20
388.701731612071
 10
136.615002715985
 20
373.862433968862
 10
136.2233352938764
 20
367.5957552151235
 10
131.4604494073036
 20
360.8591928998899
 10
135.2078753259415
 20
361.9670439235131
 10
144.0347740864243
 20
372.3680837339621
  0
HATCH
  5
1D2
330
1F
100
AcDbEntity
  8
Specialized_Fills
  6
Continuous
 62
   254
420
 14671839
370
    13
100
AcDbHatch
 10
0.0
 20
0.0
 30
0.0
210
0.0
220
0.0
230
1.0
  2
SOLID
 70
     1
 71
     1
 91
        1
 92
        1
 93
       11
 72
     1
 10
142.6556521886157
 20
507.0614655861774
 11
137.1543238133503
 21
514.3965700865317
 72
     1
 10
137.1543238133503
 20
514.3965700865317
 11
132.569883500629
 21
518.0641223367088
 72
     1
 10
132.569883500629
 20
518.0641223367088
 11
124.7763349690024
 21
521.2732305556138
 72
     1
 10
124.7763349690024
 20
521.2732305556138
 11
112.8567901559273
 21
522.1901186181583
 72
     1
 10
112.8567901559273
 20
522.1901186181583
 11
99.26699317062642
 21
524.6661074287665
 72
     1
 10
99.26699317062642
 20
524.6661074287665
 11
81.68259602942191
 21
519.9543824153905
 72
     1
 10
81.68259602942191
 20
519.9543824153905
 11
86.48157268607725
 21
519.9543824153903
 72
     1
 10
86.48157268607725
 20
519.9543824153903
 11
102.1482695704232
 21
519.9543824153903
 72
     1
 10
102.1482695704232
 20
519.9543824153903
 11
125.256647474834
 21
517.2127104606297
 72
     1
 10
125.256647474834
 20
517.2127104606297
 11
132.6983284948983
 21
510.5543642847827
 72
     1
 10
132.6983284948983
 20
510.5543642847827
 11
142.6556521886157
 21
507.0614655861774
 97
        1
330
1D3
 75
     0
 76
     1
 98
        0
450
        0
451
        0
460
0.0
461
0.0
452
        1
462
0.0
453
        0
470

  0
LWPOLYLINE
  5
1D3
102
{ACAD_REACTORS
330
1D2
102
}
330
1F
100
AcDbEntity
  8
Specialized_Fills
  6
Continuous
100
AcDbPolyline
 90
       11
 70
   129
 43
0.0
 10
142.6556521886157
 20
507.0614655861774
 10
137.1543238133503
 20
514.3965700865317
 10
132.569883500629
 20
518.0641223367088
 10
124.7763349690024
 20
521.2732305556138
 10
112.8567901559273
 20
522.1901186181583
 10
99.26699317062642
 20
524.6661074287665
 10
81.68259602942191
 20
519.9543824153905
 10
86.48157268607725
 20
519.9543824153903
 10
102.1482695704232
 20
519.9543824153903
 10
125.256647474834
 20
517.2127104606297
 10
132.6983284948983
 20
510.5543642847827
  0
HATCH
  5
1D4
330
1F
100
AcDbEntity
  8
Specialized_Fills
  6
Continuous
 62
   254
420
 14671839
370
    13
100
AcDbHatch
 10
0.0
 20
0.0
 30
0.0
210
0.0
220
0.0
230
1.0
  2
SOLID
 70
     1
 71
     1
 91
        1
 92
        1
 93
        7
 72
     1
 10
146.8259550584555
 20
502.0586310193059
 11
142.655652188616
 21
507.0614655861775
 72
     1
 10
142.655652188616
 20
507.0614655861775
 11
132.6983284948983
 21
510.5543642847829
 72
     1
 10
132.6983284948983
 20
510.5543642847829
 11
139.7483420928543
 21
502.7210158426091
 72
     1
 10
139.7483420928543
 20
502.7210158426091
 11
142.8816814697235
 21
490.9709931793503
 72
     1
 10
142.8816814697235
 20
490.9709931793503
 11
147.5816905350272
 21
483.9209795813944
 72
     1
 10
147.5816905350272
 20
483.9209795813944
 11
147.2462616313157
 21
491.9712732705516
 72
     1
 10
147.2462616313157
 20
491.9712732705516
 11
146.8259550584555
 21
502.0586310193059
 97
        1
330
1D5
 75
     0
 76
     1
 98
        0
450
        0
451
        0
460
0.0
461
0.0
452
        1
462
0.0
453
        0
470

  0
LWPOLYLINE
  5
1D5
102
{ACAD_REACTORS
330
1D4
102
}
330
1F
100
AcDbEntity
  8
Specialized_Fills
  6
Continuous
100
AcDbPolyline
 90
        7
 70
   129
 43
0.0
 10
146.8259550584555
 20
502.0586310193059
 10
142.655652188616
 20
507.0614655861775
 10
132.6983284948983
 20
510.5543642847829
 10
139.7483420928543
 20
502.7210158426091
 10
142.8816814697235
 20
490.9709931793503
 10
147.5816905350272
 20
483.9209795813944
 10
147.2462616313157
 20
491.9712732705516
  0
HATCH
  5
1D6
330
1F
100
AcDbEntity
  8
Specialized_Fills
  6
Continuous
 62
   254
420
 14671839
370
    13
100
AcDbHatch
 10
0.0
 20
0.0
 30
0.0
210
0.0
220
0.0
230
1.0
  2
SOLID
 70
     1
 71
     1
 91
        1
 92
        1
 93
       23
 72
     1
 10
66.99703972224854
 20
518.3380748567031
 11
65.05526967158868
 21
518.6911239568233
 72
     1
 10
65.05526967158868
 20
518.6911239568233
 11
57.62677842412312
 21
520.5482467686892
 72
     1
 10
57.62677842412312
 20
520.5482467686892
 11
53.38192628271439
 21
521.6094598040415
 72
     1
 10
53.38192628271439
 20
521.6094598040415
 11
50.99419695317187
 21
521.6094598040412
 72
     1
 10
50.99419695317187
 20
521.6094598040412
 11
46.48973760593618
 21
520.6405925218851
 72
     1
 10
46.48973760593618
 20
520.6405925218851
 11
36.93312423475536
 21
523.2012793570695
 72
     1
 10
36.93312423475536
 20
523.2012793570695
 11
28.70872321077635
 21
524.5277956512602
 72
     1
 10
28.70872321077635
 20
524.5277956512602
 11
26.32099388123388
 21
524.5277956512602
 72
     1
 10
26.32099388123388
 20
524.5277956512602
 11
24.19856781052954
 21
524.5277956512602
 72
     1
 10
24.19856781052954
 20
524.5277956512602
 11
21.5455352221492
 21
521.8747630628797
 72
     1
 10
21.5455352221492
 20
521.8747630628797
 11
17.36190690970306
 21
519.1809145885242
 72
     1
 10
17.36190690970306
 20
519.1809145885242
 11
17.83128959841655
 21
516.8340011449565
 72
     1
 10
17.83128959841655
 20
516.8340011449565
 11
19.15780589260663
 21
513.9156652977383
 72
     1
 10
19.15780589260663
 20
513.9156652977383
 11
19.68841241028451
 21
511.2626327093488
 72
     1
 10
19.68841241028451
 20
511.2626327093488
 11
21.24306907867643
 21
503.9098339252071
 72
     1
 10
21.24306907867643
 20
503.9098339252071
 11
21.41383179191947
 21
505.0710203752607
 72
     1
 10
21.41383179191947
 20
505.0710203752607
 11
21.41383179192136
 21
519.9543824153896
 72
     1
 10
21.41383179192136
 20
519.9543824153896
 11
33.26742245075733
 21
522.5859610001154
 72
     1
 10
33.26742245075733
 20
522.5859610001154
 11
50.39722102796269
 21
517.9960453048461
 72
     1
 10
50.39722102796269
 20
517.9960453048461
 11
69.58892471128584
 21
515.2543733500858
 72
     1
 10
69.58892471128584
 20
515.2543733500858
 11
71.87635059089233
 21
515.8853873858394
 72
     1
 10
71.87635059089233
 20
515.8853873858394
 11
67.97360551880716
 21
518.160517439147
 72
     1
 10
67.97360551880716
 20
518.160517439147
 11
66.99703972224854
 21
518.3380748567031
 97
        1
330
1D7
 75
     0
 76
     1
 98
        0
450
        0
451
        0
460
0.0
461
0.0
452
        1
462
0.0
453
        0
470

  0
LWPOLYLINE
  5
1D7
102
{ACAD_REACTORS
330
1D6
102
}
330
1F
100
AcDbEntity
  8
Specialized_Fills
  6
Continuous
100
AcDbPolyline
 90
       23
 70
   129
 43
0.0
 10
66.99703972224854
 20
518.3380748567031
 10
65.05526967158868
 20
518.6911239568233
 10
57.62677842412312
 20
520.5482467686892
 10
53.38192628271439
 20
521.6094598040415
 10
50.99419695317187
 20
521.6094598040412
 10
46.48973760593618
 20
520.6405925218851
 10
36.93312423475536
 20
523.2012793570695
 10
28.70872321077635
 20
524.5277956512602
 10
26.32099388123388
 20
524.5277956512602
 10
24.19856781052954
 20
524.5277956512602
 10
21.5455352221492
 20
521.8747630628797
 10
17.36190690970306
 20
519.1809145885242
 10
17.83128959841655
 20
516.8340011449565
 10
19.15780589260663
 20
513.9156652977383
 10
19.68841241028451
 20
511.2626327093488
 10
21.24306907867643
 20
503.9098339252071
 10
21.41383179191947
 20
505.0710203752607
 10
21.41383179192136
 20
519.9543824153896
 10
33.26742245075733
 20
522.5859610001154
 10
50.39722102796269
 20
517.9960453048461
 10
69.58892471128584
 20
515.2543733500858
 10
71.87635059089233
 20
515.8853873858394
 10
67.97360551880716
 20
518.160517439147
  0
HATCH
  5
1D8
330
1F
100
AcDbEntity
  8
Specialized_Fills
  6
Continuous
 62
   254
420
 14671839
370
    13
100
AcDbHatch
 10
0.0
 20
0.0
 30
0.0
210
0.0
220
0.0
230
1.0
  2
SOLID
 70
     1
 71
     1
 91
        1
 92
        1
 93
        8
 72
     1
 10
144.0347740864243
 20
384.7390624069201
 11
142.1677363800736
 21
397.1825150861186
 72
     1
 10
142.1677363800736
 20
397.1825150861186
 11
140.5911805357259
 21
388.701731612071
 72
     1
 10
140.5911805357259
 20
388.701731612071
 11
136.615002715985
 21
373.862433968862
 72
     1
 10
136.615002715985
 20
373.862433968862
 11
136.2233352938764
 21
367.5957552151235
 72
     1
 10
136.2233352938764
 20
367.5957552151235
 11
131.4604494073036
 21
360.8591928998899
 72
     1
 10
131.4604494073036
 20
360.8591928998899
 11
135.2078753259415
 21
361.9670439235131
 72
     1
 10
135.2078753259415
 20
361.9670439235131
 11
144.0347740864243
 21
372.3680837339621
 72
     1
 10
144.0347740864243
 20
372.3680837339621
 11
144.0347740864243
 21
384.7390624069201
 97
        1
330
1D9
 75
     0
 76
     1
 98
        0
450
        0
451
        0
460
0.0
461
0.0
452
        1
462
0.0
453
        0
470

  0
LWPOLYLINE
  5
1D9
102
{ACAD_REACTORS
330
1D8
102
}
330
1F
100
AcDbEntity
  8
Specialized_Fills
  6
Continuous
100
AcDbPolyline
 90
        8
 70
   129
 43
0.0
 10
144.0347740864243
 20
384.7390624069201
 10
142.1677363800736
 20
397.1825150861186
 10
140.5911805357259
 20
388.701731612071
 10
136.615002715985
 20
373.862433968862
 10
136.2233352938764
 20
367.5957552151235
 10
131.4604494073036
 20
360.8591928998899
 10
135.2078753259415
 20
361.9670439235131
 10
144.0347740864243
 20
372.3680837339621
  0
HATCH
  5
1DA
330
1F
100
AcDbEntity
  8
Specialized_Fills
  6
Continuous
 62
   254
420
 14671839
370
    13
100
AcDbHatch
 10
0.0
 20
0.0
 30
0.0
210
0.0
220
0.0
230
1.0
  2
SOLID
 70
     1
 71
     1
 91
        1
 92
        1
 93
        4
 72
     1
 10
136.2233352938766
 20
367.5957552151237
 11
128.781654273812
 21
360.1540741950592
 72
     2
 10
135.1258302188132
 20
355.4396972668856
 40
7.904044423080358
 50
143.3838445291929
 51
144.3975815276512
 73
     1
 72
     1
 10
128.699239903708
 20
360.0410943551429
 11
130.9656797932766
 21
360.1593973524099
 72
     1
 10
130.9656797932766
 20
360.1593973524099
 11
136.2233352938766
 21
367.5957552151237
 97
        1
330
1DB
 75
     0
 76
     1
 98
        0
450
        0
451
        0
460
0.0
461
0.0
452
        1
462
0.0
453
        0
470

  0
LWPOLYLINE
  5
1DB
102
{ACAD_REACTORS
330
1DA
102
}
330
1F
100
AcDbEntity
  8
Specialized_Fills
  6
Continuous
100
AcDbPolyline
 90
        4
 70
   129
 43
0.0
 10
136.2233352938766
 20
367.5957552151237
 10
128.781654273812
 20
360.1540741950592
 42
0.0044232909407269
 10
128.699239903708
 20
360.0410943551429
 10
130.9656797932766
 20
360.1593973524099
  0
LINE
  5
1DC
330
1F
100
AcDbEntity
  8
Specialized_Lines
  6
Continuous
100
AcDbLine
 10
64.68341273133687
 20
217.0559989623633
 30
0.0
 11
64.68341273131969
 21
122.5661118257115
 31
0.0
  0
LINE
  5
1DE
330
1F
100
AcDbEntity
  8
Specialized_Lines
  6
Continuous
100
AcDbLine
 10
64.68341273132558
 20
172.0559989623618
 30
0.0
 11
-25.31658726867427
 21
217.0559989623635
 31
0.0
  0
LINE
  5
1DF
330
1F
100
AcDbEntity
  8
Specialized_Lines
  6
Continuous
100
AcDbLine
 10
64.6834127313256
 20
217.0559989623635
 30
0.0
 11
-25.31658726867428
 21
172.0559989623618
 31
0.0
  0
LINE
  5
1E0
330
1F
100
AcDbEntity
  8
Specialized_Lines
  6
Continuous
100
AcDbLine
 10
-35.31658736867152
 20
217.0559989623612
 30
0.0
 11
-35.3165873686887
 21
122.5661118257115
 31
0.0
  0
LINE
  5
1E1
330
1F
100
AcDbEntity
  8
Specialized_Lines
  6
Continuous
100
AcDbLine
 10
-25.31658736867271
 20
217.0559989623634
 30
0.0
 11
-31.01265162731326
 21
217.0559989623634
 31
0.0
  0
LINE
  5
1E2
330
1F
100
AcDbEntity
  8
Specialized_Lines
  6
Continuous
100
AcDbLine
 10
-25.31658736866518
 20
217.0559989623633
 30
0.0
 11
-25.31658736868236
 21
122.5661118257115
 31
0.0
  0
LINE
  5
1E4
330
1F
100
AcDbEntity
  8
Specialized_Lines
  6
DASHEDX2
100
AcDbLine
 10
66.18341273110584
 20
308.8845473489035
 30
0.0
 11
66.18341273110175
 21
122.5661118257115
 31
0.0
  0
LINE
  5
1E5
330
1F
100
AcDbEntity
  8
Specialized_Lines
  6
Continuous
100
AcDbLine
 10
64.68341273130431
 20
307.0559990623616
 30
0.0
 11
19.68341273130972
 21
217.0559990623653
 31
0.0
  0
LINE
  5
1E6
330
1F
100
AcDbEntity
  8
Specialized_Lines
  6
Continuous
100
AcDbLine
 10
19.68341273130972
 20
307.0559990623616
 30
0.0
 11
64.68341273131142
 21
217.0559990623653
 31
0.0
  0
LINE
  5
1E7
330
1F
100
AcDbEntity
  8
Specialized_Lines
  6
Continuous
100
AcDbLine
 10
-0.5247394743467804
 20
307.0559990623616
 30
0.0
 11
-45.52473947434848
 21
217.0559990623617
 31
0.0
  0
LINE
  5
1E8
330
1F
100
AcDbEntity
  8
Specialized_Lines
  6
Continuous
100
AcDbLine
 10
-45.52473947434848
 20
307.0559990623616
 30
0.0
 11
-0.5247394743467804
 21
217.0559990623617
 31
0.0
  0
LINE
  5
1E9
330
1F
100
AcDbEntity
  8
Specialized_Lines
  6
DASHEDX2
100
AcDbLine
 10
66.18341273110562
 20
308.8845473489034
 30
0.0
 11
-71.86152521030783
 21
308.8845473489032
 31
0.0
  0
LINE
  5
1EA
330
1F
100
AcDbEntity
  8
Specialized_Lines
  6
Continuous
100
AcDbLine
 10
19.68341273130972
 20
307.0559989623388
 30
0.0
 11
-71.86152521030781
 21
307.0559989623383
 31
0.0
  0
LINE
  5
1EB
330
1F
100
AcDbEntity
  8
Specialized_Lines
  6
Continuous
100
AcDbLine
 10
-35.31658736867171
 20
207.0559989623586
 30
0.0
 11
-71.86152521030746
 21
207.0559989623587
 31
0.0
  0
LINE
  5
1EC
330
1F
100
AcDbEntity
  8
Specialized_Lines
  6
Continuous
100
AcDbLine
 10
-45.52473947434864
 20
217.0559989623634
 30
0.0
 11
-71.86152521030746
 21
217.0559989623623
 31
0.0
  0
LINE
  5
1ED
330
1F
100
AcDbEntity
  8
Specialized_Lines
  6
DASHEDX2
100
AcDbLine
 10
133.2554228121686
 20
122.5476493471873
 30
0.0
 11
133.2554228121548
 21
348.4415652592427
 31
0.0
  0
LINE
  5
1EE
330
1F
100
AcDbEntity
  8
Specialized_Lines
  6
Continuous
100
AcDbLine
 10
14.68341273132856
 20
349.4253203387103
 30
0.0
 11
64.68341273132566
 21
309.8845473489007
 31
0.0
  0
LINE
  5
1EF
330
1F
100
AcDbEntity
  8
Specialized_Lines
  6
Continuous
100
AcDbLine
 10
64.6834127313256
 20
349.4253203387103
 30
0.0
 11
14.68341273132845
 21
309.8845473489008
 31
0.0
  0
LWPOLYLINE
  5
1F0
330
1F
100
AcDbEntity
  8
Specialized_Lines
  6
Continuous
100
AcDbPolyline
 90
        4
 70
   129
 43
0.0
 10
64.68341273132306
 20
350.42532033871
 10
64.68341273132306
 20
357.92532033871
 10
-71.86152521030769
 20
357.92532033871
 10
-71.86152521030769
 20
350.42532033871
  0
LWPOLYLINE
  5
1F3
330
1F
100
AcDbEntity
  8
Specialized_Lines
  6
Sketch
100
AcDbPolyline
 90
        4
 70
   128
 43
0.0
 10
-13.31495891159518
 20
363.8573380175038
 10
-9.702175440082783
 20
362.0739659039177
 10
-6.119762608550627
 20
362.4577958501532
 10
-2.810959911498378
 20
363.8592388708965
  0
LWPOLYLINE
  5
1F5
330
1F
100
AcDbEntity
  8
Specialized_Fills
  6
DASHEDX2
 62
   253
420
 10461087
370
    20
100
AcDbPolyline
 90
        2
 70
   128
 43
0.0
 10
52.27823090520934
 20
122.5661118257115
 42
0.2372509901895031
 10
32.06348972302655
 20
122.5661118257115
  0
LWPOLYLINE
  5
1F6
330
1F
100
AcDbEntity
  8
Specialized_Fills
  6
DASHEDX2
 62
   253
420
 10461087
370
    20
100
AcDbPolyline
 90
        6
 70
   128
 43
0.0
 10
-25.20098991256901
 20
122.5661118257115
 42
-0.65555344310985
 10
10.67086021144903
 20
142.9640954035706
 10
28.67086015184939
 20
129.4640953241758
 42
2.000000011029643
 10
28.67086015184939
 20
165.4640953241754
 10
10.67086017326446
 20
151.9640952955382
 42
-0.6439562055307875
 10
-25.26729384135862
 20
171.6312028604571
  0
LWPOLYLINE
  5
1F7
330
1F
100
AcDbEntity
  8
Specialized_Lines
  6
Continuous
100
AcDbPolyline
 90
        4
 70
   129
 43
0.0
 10
87.68341273133316
 20
257.0559989623429
 10
87.68341273133316
 20
307.0559989623399
 10
67.68341273133244
 20
307.0559989623399
 10
67.68341273133244
 20
257.0559989623429
  0
LWPOLYLINE
  5
1F8
330
1F
100
AcDbEntity
  8
Specialized_Lines
  6
Sketch
100
AcDbPolyline
 90
       48
 70
   129
 43
0.0
 10
21.41383179192136
 20
519.9543824153896
 10
21.41383179191947
 20
505.0710203752609
 10
19.45549468137819
 20
491.7543280235666
 10
15.72059394348135
 20
477.8154887085397
 10
15.14715303818292
 20
468.2542826970474
 10
12.40548108342232
 20
458.8542645664394
 10
8.097139440227053
 20
448.6709115916144
 10
8.097139440227163
 20
443.5792351042018
 10
10.44714397287904
 20
436.9208889283547
 10
9.272141706553105
 20
428.3042056419642
 10
9.27214170653734
 20
415.7708481344872
 10
9.272141706553105
 20
407.1541648480968
 10
13.18881592763965
 20
395.4041421848373
 10
13.18881592763965
 20
385.2207892100123
 10
17.88882499294342
 20
372.6874317025352
 10
26.89717570144246
 20
363.6790809940361
 10
36.68886125415894
 20
363.2874135719276
 10
45.30554454054924
 20
362.8957461498188
 10
62.14724369122127
 20
362.8957461498156
 10
70.37225955550287
 20
361.3290764613842
 10
74.58858673680812
 20
363.0097216814491
 10
76.29821971125233
 20
362.8957461498196
 10
84.13156815342549
 20
361.7207438834937
 10
95.09825597246779
 20
357.804069662407
 10
103.3232718367495
 20
359.3707393508417
 10
115.8566293442263
 20
359.3707393508418
 10
130.9656797932767
 20
360.1593973524099
 10
136.2233352938764
 20
367.5957552151235
 10
136.615002715985
 20
373.8624339688619
 10
140.5911805357259
 20
388.701731612071
 10
144.4047915007025
 20
405.5313184556472
 10
144.4047915006989
 20
421.5011844733223
 10
144.4047915006941
 20
433.0042147072688
 10
150.3233624897879
 20
443.5792351042025
 10
147.9733579571359
 20
454.9375903453536
 10
147.9733579571318
 20
474.5209614507864
 10
147.5816905350273
 20
483.9209795813941
 10
142.8816814697235
 20
490.9709931793498
 10
139.7483420928542
 20
502.7210158426094
 10
132.6983284948985
 20
510.5543642847826
 10
125.256647474834
 20
517.2127104606297
 10
102.1482695704235
 20
519.9543824153903
 10
86.48157268607702
 20
519.9543824153903
 10
81.86025450037625
 20
519.2468192060789
 10
80.94727995243673
 20
518.387712726955
 10
69.58892471128575
 20
515.2543733500858
 10
50.39722102796185
 20
517.9960453048463
 10
33.26742245075731
 20
522.5859610001154
  0
LWPOLYLINE
  5
1F9
330
1F
100
AcDbEntity
  8
Specialized_Lines
  6
Sketch
100
AcDbPolyline
 90
        5
 70
   128
 43
0.0
 10
132.6983284948981
 20
510.5543642847829
 10
142.6556521886161
 20
507.0614655861774
 10
146.8259550584554
 20
502.0586310193059
 10
147.2462616313157
 20
491.9712732705516
 10
147.5816905350272
 20
483.9209795813941
  0
LWPOLYLINE
  5
1FA
330
1F
100
AcDbEntity
  8
Specialized_Lines
  6
Sketch
100
AcDbPolyline
 90
        7
 70
   128
 43
0.0
 10
81.68259602942118
 20
519.95438241539
 10
99.26699317062638
 20
524.6661074287665
 10
112.8567901559268
 20
522.1901186181582
 10
124.7763349690025
 20
521.2732305556138
 10
132.5698835006289
 20
518.0641223367088
 10
137.1543238133503
 20
514.3965700865317
 10
142.6556521886158
 20
507.0614655861774
  0
LWPOLYLINE
  5
1FB
330
1F
100
AcDbEntity
  8
Specialized_Lines
  6
Sketch
100
AcDbPolyline
 90
       13
 70
   128
 43
0.0
 10
17.36190690970274
 20
519.180914588524
 10
21.54553522214908
 20
521.8747630628797
 10
24.19856781052954
 20
524.5277956512602
 10
26.32099388123388
 20
524.5277956512602
 10
28.70872321077622
 20
524.5277956512602
 10
36.9331242347557
 20
523.2012793570698
 10
46.48973760593633
 20
520.6405925218851
 10
50.99419695317198
 20
521.6094598040415
 10
53.38192628271443
 20
521.6094598040415
 10
57.62677842412312
 20
520.5482467686892
 10
65.05526967158836
 20
518.691123956823
 10
67.97360551880693
 20
518.160517439147
 10
71.87635059089237
 20
515.8853873858394
  0
LWPOLYLINE
  5
1FC
330
1F
100
AcDbEntity
  8
Specialized_Lines
  6
Sketch
100
AcDbPolyline
 90
        4
 70
   128
 43
0.0
 10
8.015069021408471
 20
523.2012793570698
 10
15.45690797060772
 20
523.7666818710493
 10
20.32080104930511
 20
523.7666818710492
 10
22.87205151633909
 20
523.2012793570699
  0
LWPOLYLINE
  5
1FD
330
1F
100
AcDbEntity
  8
Specialized_Lines
  6
Sketch
100
AcDbPolyline
 90
       14
 70
   128
 43
0.0
 10
21.24306907867623
 20
503.9098339252078
 10
19.68841241028274
 20
511.2626327093577
 10
19.15780589260663
 20
513.9156652977383
 10
17.83128959841651
 20
516.8340011449568
 10
17.03537982190239
 20
520.8135500275274
 10
13.32113419816971
 20
521.6094598040415
 10
8.015069021408693
 20
523.2012793570698
 10
3.770216880000121
 20
523.7318858747459
 10
-0.7399385202467857
 20
523.997189133584
 10
-7.372519991197701
 20
523.997189133584
 10
-13.47449494447272
 20
524.7930989100982
 10
-20.37237967426209
 20
525.8543119454505
 10
-24.35192855683266
 20
523.2012793570698
 10
-32.16050111374646
 20
520.7691166446952
  0
LWPOLYLINE
  5
1FE
330
1F
100
AcDbEntity
  8
Specialized_Lines
  6
Sketch
100
AcDbPolyline
 90
       33
 70
   129
 43
0.0
 10
-25.19459143900848
 20
519.1710475711724
 10
-30.67793534852958
 20
514.8627059279772
 10
-31.4612701927468
 20
509.7710294405647
 10
-33.8112747253988
 20
491.3626606014578
 10
-36.33674626315864
 20
476.8709659834377
 10
-32.68800832022578
 20
463.2536905968746
 10
-32.68800832023122
 20
448.6709115916144
 10
-35.37794441383346
 20
438.4875586167892
 10
-35.37794441383346
 20
426.3458685314209
 10
-38.11961636859395
 20
405.979162581771
 10
-39.29461863492012
 20
395.7958096069461
 10
-37.72794894648546
 20
388.3541285868816
 10
-36.94461410226801
 20
378.9541104562738
 10
-35.76961183594207
 20
369.554092325666
 10
-30.67793534852958
 20
366.4207529487968
 10
-24.80292401689976
 20
365.2457506824708
 10
-22.84458690635649
 20
362.8957461498188
 10
-19.31958010737855
 20
361.3290764613843
 10
-11.87789908731429
 20
364.4624158382536
 10
-8.195471834170797
 20
378.2054214422325
 10
-8.19547183417535
 20
399.7124838280324
 10
-2.477880956706424
 20
409.8958368028575
 10
4.180465219140616
 20
420.0791897776825
 10
8.032489440987777
 20
434.4551398856202
 10
4.351693531434941
 20
448.1920572323369
 10
10.05547655077043
 20
462.7709387875259
 10
11.6221462392051
 20
472.1709569181337
 10
13.18881592763965
 20
481.1793076266327
 10
15.53882046029164
 20
495.671002244653
 10
15.14715303818292
 20
506.6376900636954
 10
13.58048334974837
 20
518.7793801490637
 10
-0.5195438461632618
 20
518.7793801490637
 10
-13.05290135364012
 20
521.1293846817155
  0
LWPOLYLINE
  5
1FF
330
1F
100
AcDbEntity
  8
Specialized_Lines
  6
Sketch
100
AcDbPolyline
 90
       12
 70
   128
 43
0.0
 10
-30.94586252415665
 20
513.121179286403
 10
-32.00696913525248
 20
518.9267329027646
 10
-32.16050111374646
 20
520.7691166446952
 10
-36.76646046857391
 20
522.4579684081319
 10
-40.75829190942403
 20
524.1468201715687
 10
-44.75012335027439
 20
525.2215440210277
 10
-50.27727457606679
 20
525.2215440210282
 10
-54.42263799541136
 20
524.4538841285568
 10
-58.4144694362615
 20
522.4579684081319
 10
-61.79217296313478
 20
522.4579684081319
 10
-64.8628125330195
 20
524.1468201715687
 10
-71.77175156526073
 20
524.1468201715685
  0
LWPOLYLINE
  5
200
330
1F
100
AcDbEntity
  8
Specialized_Lines
  6
Sketch
100
AcDbPolyline
 90
       11
 70
   128
 43
0.0
 10
-62.88627564660965
 20
519.1327010432265
 10
-57.92302561000828
 20
519.8381301704553
 10
-53.86978137776043
 20
520.9435604156139
 10
-49.8165371455126
 20
522.0489906607724
 10
-45.02633941649225
 20
521.8647522865794
 10
-40.23614168747214
 20
519.6538917962623
 10
-35.63018233264481
 20
517.8115080543316
 10
-35.07746721006566
 20
514.495217318856
 10
-34.5247520874864
 20
510.6262114608012
 10
-34.15627533910015
 20
508.0468742220979
 10
-32.20656470437411
 20
503.9328890994864
  0
LWPOLYLINE
  5
201
330
1F
100
AcDbEntity
  8
Specialized_Lines
  6
Sketch
100
AcDbPolyline
 90
       19
 70
   128
 43
0.0
 10
-71.86152521030836
 20
362.3944118495196
 10
-71.58681425293444
 20
362.3944118495197
 10
-62.24324464254071
 20
361.1354078050188
 10
-49.88676754910271
 20
368.2694231811496
 10
-43.77842728322001
 20
372.1860974022362
 10
-39.47008564002496
 20
376.8861064675399
 10
-42.21175759478945
 20
389.4194639750169
 10
-42.21175759478557
 20
414.094511567862
 10
-38.29508337369892
 20
426.2362016532306
 10
-41.82009017267673
 20
437.9862243164901
 10
-36.33674626315564
 20
448.9529121355324
 10
-36.3367462631602
 20
455.2195908892711
 10
-36.33674626315564
 20
503.3946838086356
 10
-36.72841368526425
 20
508.0946928739394
 10
-39.47008564002486
 20
517.4947110045471
 10
-46.5200992379805
 20
521.019717803525
 10
-58.27012190124026
 20
517.4947110045471
 10
-70.41181198660851
 20
521.8030526477424
 10
-71.86152521030978
 20
521.8509967112691
  0
LWPOLYLINE
  5
202
330
1F
100
AcDbEntity
  8
Specialized_Lines
  6
Sketch
100
AcDbPolyline
 90
        5
 70
   128
 43
0.0
 10
-43.77842728322012
 20
372.1860974022362
 10
-39.94940816858061
 20
369.5055277909528
 10
-37.73854767826346
 20
365.9681510064455
 10
-32.21139645247085
 20
365.0838068103188
 10
-27.72869045932225
 20
365.8309039709552
  0
LWPOLYLINE
  5
203
330
1F
100
AcDbEntity
  8
Specialized_Lines
  6
Sketch
100
AcDbPolyline
 90
       11
 70
   128
 43
0.0
 10
-56.06500609582177
 20
364.7024154930842
 10
-49.4561082769438
 20
365.5259789083822
 10
-48.35067803178549
 20
363.9783765651602
 10
-39.8489283902963
 20
361.7003396144701
 10
-36.85420348213664
 20
362.4307742219383
 10
-24.91555683442481
 20
362.4307742219327
 10
-12.96238514191317
 20
359.2279315199326
 10
-3.028037980286057
 20
359.227931519923
 10
2.683796609216804
 20
362.9741445646555
 10
15.54319013837712
 20
362.9741445646469
 10
22.39300034719271
 20
368.1832563482857
  0
LWPOLYLINE
  5
204
330
1F
100
AcDbEntity
  8
Specialized_Lines
  6
Sketch
100
AcDbPolyline
 90
       16
 70
   129
 43
0.0
 10
-5.958857374462889
 20
364.7773756309282
 10
-5.958857374462889
 20
371.8491485301123
 10
-5.958857374462889
 20
380.0088864907092
 10
-5.958857374472326
 20
390.6165458394853
 10
-1.335005863457916
 20
398.7762838000822
 10
1.65689805542768
 20
405.0320829032067
 10
4.104819443606744
 20
404.7600916378534
 10
7.096723362492118
 20
401.2242051882615
 10
9.544644750671405
 20
392.7924759623112
 10
9.544644750671405
 20
385.4487117977738
 10
11.17659234279078
 20
377.8329563678834
 10
14.44048752702953
 20
372.3931310608188
 10
14.44048752702953
 20
367.7692795498138
 10
11.7205748734972
 20
365.8653406923412
 10
6.280749566432541
 20
363.1454280388088
 10
0.5689329940146149
 20
362.8734367734555
  0
LWPOLYLINE
  5
205
330
1F
100
AcDbEntity
  8
Specialized_Lines
  6
Sketch
100
AcDbPolyline
 90
        4
 70
   128
 43
0.0
 10
4.180465219140394
 20
420.0791897776826
 10
4.106412212608323
 20
413.6758051573334
 10
6.653323497453622
 20
410.1738021406713
 10
5.638368315829422
 20
402.9477156979533
  0
LWPOLYLINE
  5
206
330
1F
100
AcDbEntity
  8
Specialized_Lines
  6
Sketch
100
AcDbPolyline
 90
        8
 70
   128
 43
0.0
 10
32.09302913015988
 20
363.4712468568873
 10
38.09953561504232
 20
360.0033887209348
 10
48.35378131609336
 20
360.0033887209331
 10
51.57795286447253
 20
360.3667328825971
 10
58.98089982871368
 20
358.3831192219141
 10
70.92298215474667
 20
359.2920090331373
 10
73.53302578914794
 20
358.3708171621719
 10
85.84575151843049
 20
361.1085355388491
  0
LWPOLYLINE
  5
207
330
1F
100
AcDbEntity
  8
Specialized_Lines
  6
Sketch
100
AcDbPolyline
 90
        6
 70
   128
 43
0.0
 10
130.9656797932764
 20
360.1593973524099
 10
134.5647585722539
 20
361.3239271698238
 10
139.9282698588043
 20
366.6874384563866
 10
144.0347740864243
 20
374.424071703297
 10
144.0347740864243
 20
384.7390624069202
 10
142.1677363800735
 20
397.1825150861193
  0
LWPOLYLINE
  5
208
330
1F
100
AcDbEntity
  8
Specialized_Lines
  6
Continuous
100
AcDbPolyline
 90
        4
 70
   129
 43
0.0
 10
64.68341273132586
 20
349.4253203387103
 10
14.6834127313287
 20
349.4253203387103
 10
14.6834127313287
 20
309.8845473489009
 10
64.68341273132586
 20
309.8845473489009
  0
LWPOLYLINE
  5
209
330
1F
100
AcDbEntity
  8
Specialized_Fills
  6
DASHEDX2
 62
   253
420
 10461087
370
    20
100
AcDbPolyline
 90
        2
 70
   128
 43
0.0
 10
-71.86152521030745
 20
229.9035284518036
 42
0.1877520465235314
 10
-70.69411282430348
 20
246.1840360405435
  0
LWPOLYLINE
  5
20A
330
1F
100
AcDbEntity
  8
Specialized_Fills
  6
DASHEDX2
 62
   253
420
 10461087
370
    20
100
AcDbPolyline
 90
        4
 70
   128
 43
0.0
 10
-71.86152521030784
 20
306.938591166897
 42
-0.6519137890132493
 10
-51.69184701063017
 20
271.0434464828854
 10
-65.19184703926732
 20
253.0434465043005
 42
0.6439562055307875
 10
-45.52473947434848
 20
217.1052924896774
  0
LWPOLYLINE
  5
20C
330
1F
100
AcDbEntity
  8
0
  6
Continuous
100
AcDbPolyline
 90
        6
 70
   128
 43
0.0
 10
145.4001989856442
 20
122.5661118257115
 10
21.95154141321944
 20
122.5661118257115
 10
19.95154141322055
 20
128.0610666646204
 10
15.95154141321922
 20
117.0711569868026
 10
13.95154141322033
 20
122.5661118257115
 10
-48.49106475461806
 20
122.5661118257115
  0
LWPOLYLINE
  5
20D
330
1F
100
AcDbEntity
  8
0
  6
Continuous
100
AcDbPolyline
 90
        6
 70
   128
 43
0.0
 10
-71.86152521030741
 20
192.0506270390262
 10
-71.86152521030741
 20
274.4231461265774
 10
-66.36657037139848
 20
276.4231461265763
 10
-77.35648004921635
 20
280.4231461265776
 10
-71.86152521030741
 20
282.4231461265765
 10
-71.86152521030741
 20
532.1473819561155
  0
MTEXT
  5
20F
102
{ACAD_REACTORS
330
211
102
}
330
1F
100
AcDbEntity
  8
Specialized_Text
  6
Continuous
100
AcDbMText
 10
155.6490027012403
 20
344.5683052888846
 30
0.0
 40
5.5
 41
69.5718
 46
0.0
 71
     4
 72
     1
  1
{50mm x 20mm PVC L-bead}
  7
GENERATED_STYLE_1
 73
     1
 44
1.0
  0
LEADER
  5
211
330
1F
100
AcDbEntity
  8
Specialized_Text
  6
Continuous
 62
   251
420
  6250335
370
    13
100
AcDbLeader
  3
GENERATED_STYLE__1
 73
     0
 40
14.85425193269668
 41
68.11596180081855
 76
     2
 10
130.6834127313289
 20
344.7824335100418
 30
0.0
 10
155.5590027012403
 20
344.5683052888846
 30
0.0
340
20F
  0
MTEXT
  5
218
102
{ACAD_REACTORS
330
219
102
}
330
1F
100
AcDbEntity
  8
Specialized_Text
  6
Continuous
100
AcDbMText
 10
155.6490027012399
 20
241.4517644414141
 30
0.0
 40
5.5
 41
71.07779999999999
 46
0.0
 71
     4
 72
     1
  1
{Mesh reinforcing and plaster}
  7
GENERATED_STYLE_1
 73
     1
 44
1.0
  0
LEADER
  5
219
330
1F
100
AcDbEntity
  8
Specialized_Text
  6
Continuous
 62
   251
420
  6250335
370
    13
100
AcDbLeader
  3
GENERATED_STYLE__1
 73
     0
 40
16.29115507048658
 41
70.62585266030014
 76
     2
 10
132.4444631225587
 20
242.2242676736792
 30
0.0
 10
155.5590027012399
 20
241.4517644414141
 30
0.0
340
218
  0
MTEXT
  5
21A
102
{ACAD_REACTORS
330
21B
102
}
330
1F
100
AcDbEntity
  8
Specialized_Text
  6
Continuous
100
AcDbMText
 10
155.6490027011532
 20
386.104213972201
 30
0.0
 40
5.5
 41
84.89277880494048
 46
0.0
 71
     4
 72
     1
  1
{8-10mm MS sealant and PEF backing rod supplied and installed by others}
  7
GENERATED_STYLE_1
 73
     1
 44
1.13414590095175
  0
LEADER
  5
21B
330
1F
100
AcDbEntity
  8
Specialized_Text
  6
Continuous
 62
   251
420
  6250335
370
    13
100
AcDbLeader
  3
GENERATED_STYLE__1
 73
     0
 40
36.88917943946159
 41
83.85436562073669
 76
     3
 10
108.033644680359
 20
355.9429565037286
 30
0.0
 10
108.033644680359
 20
386.104213972201
 30
0.0
 10
155.5590027011532
 20
386.104213972201
 30
0.0
340
21A
  0
MTEXT
  5
21C
102
{ACAD_REACTORS
330
21D
102
}
330
1F
100
AcDbEntity
  8
Specialized_Text
  6
Continuous
100
AcDbMText
 10
155.6490027012402
 20
276.5624778070107
 30
0.0
 40
5.5
 41
113.4684
 46
0.0
 71
     4
 72
     1
  1
{Vertical 50mm x 20mm ventilated EPS batten}
  7
GENERATED_STYLE_1
 73
     1
 44
1.0
  0
LEADER
  5
21D
330
1F
100
AcDbEntity
  8
Specialized_Text
  6
Continuous
 62
   251
420
  6250335
370
    13
100
AcDbLeader
  3
GENERATED_STYLE__1
 73
     0
 40
14.88051386994088
 41
113.0013642564802
 76
     2
 10
78.92641540930373
 20
276.7766060281763
 30
0.0
 10
155.5590027012402
 20
276.5624778070107
 30
0.0
340
21C
  0
MTEXT
  5
21E
102
{ACAD_REACTORS
330
21F
102
}
330
1F
100
AcDbEntity
  8
Specialized_Text
  6
Continuous
100
AcDbMText
 10
155.6490027012407
 20
444.6872493726059
 30
0.0
 40
5.5
 41
98.08516451695204
 46
0.0
 71
     4
 72
     1
  1
{Proprietary schist cladding system}
  7
GENERATED_STYLE_1
 73
     1
 44
1.0
  0
LEADER
  5
21F
330
1F
100
AcDbEntity
  8
Specialized_Text
  6
Continuous
 62
   251
420
  6250335
370
    13
100
AcDbLeader
  3
GENERATED_STYLE__1
 73
     0
 40
16.27989995452478
 41
89.01671214188267
 76
     3
 10
-17.21804313370034
 20
357.9253203387099
 30
0.0
 10
62.81628513561393
 20
444.6872493726059
 30
0.0
 10
155.5590027012407
 20
444.6872493726059
 30
0.0
340
21E
  0
MTEXT
  5
220
102
{ACAD_REACTORS
330
221
102
}
330
1F
100
AcDbEntity
  8
Specialized_Text
  6
Continuous
100
AcDbMText
 10
155.6557626217803
 20
178.852311930574
 30
0.0
 40
5.5
 41
113.1930539586519
 46
0.0
 71
     4
 72
     1
  1
{Breather type building wrap continuous around corner as installed by builder}
  7
GENERATED_STYLE_1
 73
     1
 44
1.138766967802711
  0
LEADER
  5
221
330
1F
100
AcDbEntity
  8
Specialized_Text
  6
Continuous
 62
   251
420
  6250335
370
    13
100
AcDbLeader
  3
GENERATED_STYLE__1
 73
     0
 40
27.9906276975745
 41
96.78649386084586
 76
     2
 10
66.19017265164649
 20
179.659288973914
 30
0.0
 10
155.5657626217803
 20
178.852311930574
 30
0.0
340
220
  0
MTEXT
  5
222
102
{ACAD_REACTORS
330
223
102
}
330
1F
100
AcDbEntity
  8
Specialized_Text
  6
Continuous
100
AcDbMText
 10
155.6490027012395
 20
144.7912413795784
 30
0.0
 40
5.5
 41
42.579
 46
0.0
 71
     4
 72
     1
  1
{Cavity insulation }
  7
GENERATED_STYLE_1
 73
     1
 44
1.0
  0
LEADER
  5
223
330
1F
100
AcDbEntity
  8
Specialized_Text
  6
Continuous
 62
   251
420
  6250335
370
    13
100
AcDbLeader
  3
GENERATED_STYLE__1
 73
     0
 40
14.85425193269668
 41
31.44304229195089
 76
     2
 10
47.7905293030303
 20
145.5637446118428
 30
0.0
 10
155.5590027012395
 20
144.7912413795784
 30
0.0
340
222
  0
MTEXT
  5
224
102
{ACAD_REACTORS
330
225
102
}
330
1F
100
AcDbEntity
  8
Specialized_Text
  6
Continuous
100
AcDbMText
 10
155.6490027012407
 20
473.2797857409662
 30
0.0
 40
5.5
 41
34.146
 46
0.0
 71
     4
 72
     1
  1
{Schist veneer}
  7
GENERATED_STYLE_1
 73
     1
 44
1.0
  0
LEADER
  5
225
330
1F
100
AcDbEntity
  8
Specialized_Text
  6
Continuous
 62
   251
420
  6250335
370
    13
100
AcDbLeader
  3
GENERATED_STYLE__1
 73
     0
 40
14.85425193269668
 41
23.49317871759891
 76
     2
 10
85.38907674661677
 20
473.4939139621233
 30
0.0
 10
155.5590027012407
 20
473.2797857409662
 30
0.0
340
224
  0
MTEXT
  5
226
102
{ACAD_REACTORS
330
227
102
}
330
1F
100
AcDbEntity
  8
Specialized_Text
  6
Continuous
100
AcDbMText
 10
155.6490027012399
 20
215.1648374181906
 30
0.0
 40
5.5
 41
128.4166443211731
 46
17.69840043868718
 71
     4
 72
     1
  1
50mm EPS OR {\C30;\c30975;75mm Neopor® EPS}
  7
GENERATED_STYLE_1
 73
     1
 44
1.127211339394292
  0
LEADER
  5
227
330
1F
100
AcDbEntity
  8
Specialized_Text
  6
Continuous
 62
   251
420
  6250335
370
    13
100
AcDbLeader
  3
GENERATED_STYLE__1
 73
     0
 40
7.124488403819918
 41
125.7834242837653
 76
     2
 10
102.0779404550353
 20
215.8392969878875
 30
0.0
 10
155.5590027012399
 20
215.1648374181906
 30
0.0
340
226
  0
LINE
  5
28F
330
1F
100
AcDbEntity
  8
Viewport
 62
     7
420
 16777215
100
AcDbLine
 10
289.3443150419407
 20
589.2317904606036
 30
0.0
 11
289.3443150419407
 21
49.1821748218074
 31
0.0
  0
LINE
  5
290
330
1F
100
AcDbEntity
  8
Viewport
 62
     7
420
 16777215
100
AcDbLine
 10
289.3443150419407
 20
49.1821748218074
 30
0.0
 11
-83.79741204404309
 21
49.1821748218074
 31
0.0
  0
MTEXT
  5
293
330
1F
100
AcDbEntity
  8
Specialized_Lines
 62
    30
420
 16742400
100
AcDbMText
 10
-5.501047253565047
 20
90.51504095639149
 30
0.0
 40
7.0
 41
63.23088711380842
 46
0.0
 71
     1
 72
     5
  1
CAVITECLAD
  7
GENERATED_STYLE_2
 73
     1
 44
1.0
1001
ACAD
1000
ACAD_MTEXT_COLUMN_INFO_BEGIN
1070
    75
1070
     2
1070
    79
1070
     0
1070
    76
1070
     1
1070
    78
1070
     0
1070
    48
1040
63.23088711380842
1070
    49
1040
12.5
1070
    50
1070
     1
1040
0.0
1000
ACAD_MTEXT_COLUMN_INFO_END
  0
LINE
  5
294
330
1F
100
AcDbEntity
  8
Viewport
 62
     7
420
 16777215
100
AcDbLine
 10
-83.79741204404309
 20
49.1821748218074
 30
0.0
 11
-83.79741204404309
 21
589.2317904606036
 31
0.0
  0
LINE
  5
295
330
1F
100
AcDbEntity
  8
Viewport
 62
     7
420
 16777215
100
AcDbLine
 10
289.3443150419407
 20
589.2317904606036
 30
0.0
 11
-83.79741204404309
 21
589.2317904606036
 31
0.0
  0
MTEXT
  5
296
330
1F
100
AcDbEntity
  8
Specialized_Lines
100
AcDbMText
 10
-6.968012239114614
 20
106.1103279355623
 30
0.0
 40
10.0
 41
269.9222624581334
 46
0.0
 71
     1
 72
     5
  1
{\fArial|b1|i0|c0|p34;Wall: External Corner - SCHIST}
 73
     1
 44
1.0
1001
ACAD
1000
ACAD_MTEXT_COLUMN_INFO_BEGIN
1070
    75
1070
     2
1070
    79
1070
     0
1070
    76
1070
     1
1070
    78
1070
     0
1070
    48
1040
269.9222624581334
1070
    49
1040
12.5
1070
    50
1070
     1
1040
0.0
1000
ACAD_MTEXT_COLUMN_INFO_END
  0
MTEXT
  5
297
330
1F
100
AcDbEntity
  8
Specialized_Lines
 62
    30
420
 16742400
100
AcDbMText
 10
-35.75286772048276
 20
86.56735641590723
 30
0.0
 40
4.0
 41
34.37092666967328
 46
0.0
 71
     5
 72
     5
  1
SCALE: 1:2
  7
GENERATED_STYLE_2
 73
     1
 44
1.0
1001
ACAD
1000
ACAD_MTEXT_COLUMN_INFO_BEGIN
1070
    75
1070
     2
1070
    79
1070
     0
1070
    76
1070
     1
1070
    78
1070
     0
1070
    48
1040
34.37092666967328
1070
    49
1040
12.5
1070
    50
1070
     1
1040
0.0
1000
ACAD_MTEXT_COLUMN_INFO_END
  0
HATCH
  5
298
330
1F
100
AcDbEntity
  8
0
 62
    30
420
 16742400
370
     5
100
AcDbHatch
 10
0.0
 20
0.0
 30
0.0
210
0.0
220
0.0
230
1.0
  2
SOLID
 70
     1
 71
     0
 91
        1
 92
        1
 93
        4
 72
     1
 10
-12.59888233896709
 20
91.59031591629839
 11
-12.59888233896709
 21
111.5903159162983
 72
     1
 10
-12.59888233896709
 20
111.5903159162983
 11
-57.59888233896709
 21
111.5903159162983
 72
     1
 10
-57.59888233896709
 20
111.5903159162983
 11
-57.59888233896709
 21
91.59031591629839
 72
     1
 10
-57.59888233896709
 20
91.59031591629839
 11
-12.59888233896709
 21
91.59031591629839
 97
        0
 75
     1
 76
     1
 98
        1
 10
-27.18370914943808
 20
97.72399641942257
450
        0
451
        0
460
0.0
461
0.0
452
        0
462
1.0
453
        2
463
0.0
 63
     5
421
      255
463
1.0
 63
     2
421
 16776960
470
LINEAR
1001
GradientColor1ACI
1070
     5
1001
GradientColor2ACI
1070
     2
1001
ACAD
1010
0.0
1020
0.0
1030
0.0
  0
LWPOLYLINE
  5
299
330
1F
100
AcDbEntity
  8
0
370
     5
100
AcDbPolyline
 90
        5
 70
     0
 43
0.0
 10
-57.59888233896709
 20
111.5903159162983
 10
-57.59888233896709
 20
91.59031591629839
 10
-12.59888233896709
 20
91.59031591629839
 10
-12.59888233896709
 20
111.5903159162983
 10
-57.59888233896709
 20
111.5903159162983
  0
MTEXT
  5
29A
330
1F
100
AcDbEntity
  8
Specialized_Lines
100
AcDbMText
 10
-34.89406725007939
 20
101.3954712699099
 30
0.0
 40
10.0
 41
90.34063603881987
 46
0.0
 71
     5
 72
     5
  1
{\fArial|b1|i0|c0|p34;04J}
 73
     1
 44
1.0
1001
ACAD
1000
ACAD_MTEXT_COLUMN_INFO_BEGIN
1070
    75
1070
     2
1070
    79
1070
     0
1070
    76
1070
     1
1070
    78
1070
     0
1070
    48
1040
90.34063603881987
1070
    49
1040
12.5
1070
    50
1070
     1
1040
0.0
1000
ACAD_MTEXT_COLUMN_INFO_END
  0
LWPOLYLINE
  5
29B
330
1F
100
AcDbEntity
  8
0
370
     5
100
AcDbPolyline
 90
        4
 70
     0
 43
0.0
 10
-57.59888233896709
 20
91.59031591629839
 10
-57.59888233896709
 20
81.59031591629839
 10
-12.59888233896709
 20
81.59031591629839
 10
-12.59888233896709
 20
91.59031591629839
  0
MTEXT
  5
3BA
330
1F
100
AcDbEntity
  8
Specialized_Text
  6
Continuous
100
AcDbMText
 10
-54.76774373647732
 20
538.1564660574624
 30
0.0
 40
3.0
 41
48.87340123734884
 46
0.0
 71
     4
 72
     1
  1
Appraisal No.510 [2013]
  7
GENERATED_STYLE_2
 73
     1
 44
1.0
  0
IMAGE
  5
3BB
330
1F
100
AcDbEntity
  8
0
 62
     7
420
 16777215
160
               140
310
8C0000000100000084000000060000000500000000022E2DA8CC4CC0A25F1E8DA6EB8040000000000000000000022E2DA8CC4CC0291EE4B4DA6982400000000000000000F8A34B6215CB1BC0291EE4B4DA6982400000000000000000F8A34B6215CB1BC0A25F1E8DA6EB8040000000000000000000022E2DA8CC4CC0A25F1E
310
8DA6EB80400000000000000000
100
AcDbRasterImage
 90
        0
 10
-57.59888233896709
 20
541.4563238499579
 30
0.0
 11
0.0611721721957824
 21
0.0
 31
0.0
 12
0.0
 22
0.0611721721957824
 32
0.0
 13
828.0
 23
781.0
340
39D
 70
     7
280
     0
281
    50
282
    50
283
     0
290
     0
360
3BC
 71
     1
 91
        2
 14
-0.5
 24
-0.5
 14
827.5
 24
780.5
  0
IMAGE
  5
3BD
330
1F
100
AcDbEntity
  8
0
 62
     7
420
 16777215
160
               140
310
8C00000001000000840000000600000005000000E263F6E80F776640D273C022621B81400000000000000000E263F6E80F776640E92F553CD15482400000000000000000844A7D5082157240E92F553CD15482400000000000000000844A7D5082157240D273C022621B81400000000000000000E263F6E80F776640D273C0
310
22621B81400000000000000000
100
AcDbRasterImage
 90
        0
 10
179.7206921398456
 20
547.4229178462358
 30
0.0
 11
0.0434841820317712
 21
0.0
 31
0.0
 12
0.0
 22
0.0434841820317712
 32
0.0
 13
2521.0
 23
901.0
340
39E
 70
     7
280
     0
281
    50
282
    50
283
     0
290
     0
360
3BE
 71
     1
 91
        2
 14
-0.5
 24
-0.5
 14
2520.5
 24
900.5
  0
HATCH
  5
3C6
330
1F
100
AcDbEntity
  8
0
 62
    30
420
 16742400
100
AcDbHatch
 10
0.0
 20
0.0
 30
0.0
210
0.0
220
0.0
230
1.0
  2
SOLID
 70
     1
 71
     1
 91
        1
 92
        7
 72
     0
 73
     1
 93
        4
 10
-57.67780537912313
 20
67.76871531417396
 10
-57.67780537912313
 20
62.76871531417396
 10
-52.67780537911949
 20
62.76871531417441
 10
-52.67780537912677
 20
67.76871531417441
 97
        1
330
3C7
 75
     1
 76
     1
 47
0.0321901215665183
 98
        1
 10
-55.88835725042191
 20
66.34573472393071
450
        0
451
        0
460
0.0
461
0.0
452
        0
462
1.0
453
        2
463
0.0
 63
     5
421
      255
463
1.0
 63
     2
421
 16776960
470
LINEAR
1001
GradientColor1ACI
1070
     5
1001
GradientColor2ACI
1070
     2
1001
ACAD
1010
0.0
1020
0.0
1030
0.0
  0
LWPOLYLINE
  5
3C7
102
{ACAD_REACTORS
330
3C6
102
}
330
1F
100
AcDbEntity
  8
0
 62
    30
420
 16742400
100
AcDbPolyline
 90
        4
 70
     1
 43
0.0
 10
-57.67780537912313
 20
67.76871531417396
 10
-52.67780537912677
 20
67.76871531417441
 10
-52.67780537911949
 20
62.76871531417441
 10
-57.67780537912313
 20
62.76871531417396
  0
LINE
  5
3C8
330
1F
100
AcDbEntity
  8
0
 62
    30
420
 16742400
100
AcDbLine
 10
-57.67780537912313
 20
67.76871531417396
 30
0.0
 11
-52.67780537912313
 21
67.76871531417396
 31
0.0
  0
LWPOLYLINE
  5
3C9
330
1F
100
AcDbEntity
  8
0
370
     5
100
AcDbPolyline
 90
        2
 70
     0
 43
0.0
 10
-52.67780537912313
 20
65.26871531417396
 10
268.4762525445568
 20
65.26871531417396
  0
MTEXT
  5
3CA
330
1F
100
AcDbEntity
  8
Specialized_Text
  6
Continuous
100
AcDbMText
 10
-49.1141260639888
 20
67.79518234776583
 30
0.0
 40
3.0
 41
163.0041735515597
 46
0.0
 71
     4
 72
     1
  1
© copyright 2013 Specialized Building Products Ltd
  7
GENERATED_STYLE_2
 73
     1
 44
1.0
  0
MTEXT
  5
3CB
330
1F
100
AcDbEntity
  8
Specialized_Text
  6
Continuous
100
AcDbMText
 10
128.786874609692
 20
67.79518234776583
 30
0.0
 40
3.0
 41
163.0041735515597
 46
0.0
 71
     4
 72
     1
  1
All Dimensions to be site checked before construction & installation
  7
GENERATED_STYLE_2
 73
     1
 44
1.0
  0
MTEXT
  5
3CC
330
1F
100
AcDbEntity
  8
Specialized_Text
  6
Continuous
 62
    30
420
 16742400
370
    20
100
AcDbMText
 10
167.3422483989016
 20
54.67127852765248
 30
0.0
 40
5.5
 41
111.9228601720179
 46
0.0
 71
     7
 72
     1
  1
{\fArial Unicode MS|b1|i0|c0|p34;web \fArial Unicode MS|b0|i0|c0|p34;\C256;www.specialized.co.nz}
  7
GENERATED_STYLE_2
 73
     1
 44
1.12662050634974
  0
LWPOLYLINE
  5
3CD
330
1F
100
AcDbEntity
  8
0
  6
PLASTER
 48
3.0
100
AcDbPolyline
 90
        3
 70
     0
 43
0.0
 10
135.5490665915369
 20
122.5647779812092
 10
135.5490665915371
 20
348.7075856627888
 10
131.9108354395755
 20
350.4163401649752
  0
ENDSEC
  0
SECTION
  2
OBJECTS
  0
DICTIONARY
  5
C
330
0
100
AcDbDictionary
281
     1
  3
ACAD_CIP_PREVIOUS_PRODUCT_INFO
350
269
  3
ACAD_COLOR
350
25D
  3
ACAD_DETAILVIEWSTYLE
350
262
  3
ACAD_GROUP
350
D
  3
ACAD_IMAGE_DICT
350
28A
  3
ACAD_IMAGE_VARS
350
28E
  3
ACAD_LAYOUT
350
1A
  3
ACAD_MATERIAL
350
3B
  3
ACAD_MLEADERSTYLE
350
250
  3
ACAD_MLINESTYLE
350
17
  3
ACAD_PLOTSETTINGS
350
19
  3
ACAD_PLOTSTYLENAME
350
E
  3
ACAD_SCALELIST
350
187
  3
ACAD_SECTIONVIEWSTYLE
350
260
  3
ACAD_TABLESTYLE
350
24F
  3
ACAD_VISUALSTYLE
350
2A
  3
ACDB_RECOMPOSE_DATA
350
47D
  3
AcDbVariableDictionary
350
22D
  3
WATERMARKS
350
22B
  0
DICTIONARY
  5
276
330
2
100
AcDbDictionary
280
     1
281
     1
  3
ACAD_LAYERSTATES
360
277
  0
DICTIONARY
  5
29E
330
10
100
AcDbDictionary
280
     1
281
     1
  3
ADSK_XREC_LAYER_RECONCILED
360
29F
  0
DICTIONARY
  5
2A0
330
40
100
AcDbDictionary
280
     1
281
     1
  3
ADSK_XREC_LAYER_RECONCILED
360
2A1
  0
DICTIONARY
  5
2A2
330
1DD
100
AcDbDictionary
280
     1
281
     1
  3
ADSK_XREC_LAYER_RECONCILED
360
2A3
  0
DICTIONARY
  5
2A4
330
210
100
AcDbDictionary
280
     1
281
     1
  3
ADSK_XREC_LAYER_RECONCILED
360
2A5
  0
DICTIONARY
  5
26E
330
26D
100
AcDbDictionary
280
     1
281
     1
  3
ADSK_XREC_LAYER_RECONCILED
360
2A6
  0
DICTIONARY
  5
3FC
330
1F
100
AcDbDictionary
280
     1
281
     1
  3
ACAD_SORTENTS
360
3FD
  0
DICTIONARY
  5
2C2
330
61
100
AcDbDictionary
280
     1
281
     1
  3
ACAD_SORTENTS
360
2CD
  0
IMAGEDEF_REACTOR
  5
3BC
330
3BB
100
AcDbRasterImageDefReactor
 90
        2
330
3BB
  0
IMAGEDEF_REACTOR
  5
3BE
330
3BD
100
AcDbRasterImageDefReactor
 90
        2
330
3BD
  0
XRECORD
  5
269
102
{ACAD_REACTORS
330
C
102
}
330
C
100
AcDbXrecord
280
     1
300
ACD
300
2014
300
BDSPRM_F_S
  0
DICTIONARY
  5
25D
102
{ACAD_REACTORS
330
C
102
}
330
C
100
AcDbDictionary
281
     1
  0
DICTIONARY
  5
262
102
{ACAD_REACTORS
330
C
102
}
330
C
100
AcDbDictionary
281
     1
  3
Imperial24
350
263
  0
DICTIONARY
  5
D
102
{ACAD_REACTORS
330
C
102
}
330
C
100
AcDbDictionary
281
     1
  0
DICTIONARY
  5
28A
102
{ACAD_REACTORS
330
C
102
}
330
C
100
AcDbDictionary
281
     1
  3
BRANZ logo. Do not place on drawing without number 510-
350
39D
  3
logo sharp
350
39E
  0
RASTERVARIABLES
  5
28E
102
{ACAD_REACTORS
330
C
102
}
330
C
100
AcDbRasterVariables
 90
        0
 70
     1
 71
     1
 72
     0
  0
DICTIONARY
  5
1A
102
{ACAD_REACTORS
330
C
102
}
330
C
100
AcDbDictionary
281
     1
  3
Layout1
350
1E
  3
Layout2
350
26
  3
Model
350
22
  0
DICTIONARY
  5
3B
102
{ACAD_REACTORS
330
C
102
}
330
C
100
AcDbDictionary
281
     1
  3
ByBlock
350
3D
  3
ByLayer
350
3C
  3
Global
350
3E
  0
DICTIONARY
  5
250
102
{ACAD_REACTORS
330
C
102
}
330
C
100
AcDbDictionary
281
     1
  3
Standard
350
25F
  0
DICTIONARY
  5
17
102
{ACAD_REACTORS
330
C
102
}
330
C
100
AcDbDictionary
281
     1
  3
Standard
350
18
  0
DICTIONARY
  5
19
102
{ACAD_REACTORS
330
C
102
}
330
C
100
AcDbDictionary
281
     1
  0
ACDBDICTIONARYWDFLT
  5
E
102
{ACAD_REACTORS
330
C
102
}
330
C
100
AcDbDictionary
281
     1
  3
Normal
350
F
100
AcDbDictionaryWithDefault
340
F
  0
DICTIONARY
  5
187
102
{ACAD_REACTORS
330
C
102
}
330
C
100
AcDbDictionary
281
     1
  3
A0
350
188
  3
A1
350
189
  3
A2
350
18A
  3
A3
350
18B
  3
A4
350
18C
  3
A5
350
18D
  3
A6
350
18E
  3
A7
350
18F
  3
A8
350
190
  3
A9
350
191
  3
B0
350
192
  3
B1
350
193
  3
B2
350
194
  3
B3
350
195
  3
B4
350
196
  3
B5
350
197
  3
B6
350
198
  3
B7
350
199
  3
B8
350
19A
  3
B9
350
19B
  3
C0
350
19C
  3
C1
350
19D
  3
C2
350
19E
  3
C3
350
19F
  3
C4
350
1A0
  3
C5
350
1A1
  3
C6
350
1A2
  3
C7
350
1A3
  3
C8
350
1A4
  3
C9
350
1A5
  3
D0
350
1A6
  3
D1
350
1A7
  3
D2
350
1A8
  0
DICTIONARY
  5
260
102
{ACAD_REACTORS
330
C
102
}
330
C
100
AcDbDictionary
281
     1
  3
Imperial24
350
261
  0
DICTIONARY
  5
24F
102
{ACAD_REACTORS
330
C
102
}
330
C
100
AcDbDictionary
281
     1
  3
Standard
350
25E
  0
DICTIONARY
  5
2A
102
{ACAD_REACTORS
330
C
102
}
330
C
100
AcDbDictionary
281
     1
  3
2dWireframe
350
2F
  3
3D Hidden
350
31
  3
3dWireframe
350
30
  3
Basic
350
32
  3
Brighten
350
36
  3
ColorChange
350
3A
  3
Conceptual
350
34
  3
Dim
350
35
  3
EdgeColorOff
350
25C
  3
Facepattern
350
39
  3
Flat
350
2B
  3
FlatWithEdges
350
2C
  3
Gouraud
350
2D
  3
GouraudWithEdges
350
2E
  3
Hidden
350
254
  3
JitterOff
350
25A
  3
Linepattern
350
38
  3
OverhangOff
350
25B
  3
Realistic
350
33
  3
Shaded
350
259
  3
Shaded with edges
350
258
  3
Shades of Gray
350
255
  3
Sketchy
350
256
  3
Thicken
350
37
  3
Wireframe
350
253
  3
X-Ray
350
257
  0
XRECORD
  5
47D
102
{ACAD_REACTORS
330
C
102
}
330
C
100
AcDbXrecord
280
     1
 90
        1
330
25E
330
261
330
263
330
293
330
296
330
297
330
29A
  0
DICTIONARY
  5
22D
102
{ACAD_REACTORS
330
C
102
}
330
C
100
AcDbDictionary
281
     1
  3
CANNOSCALE
350
22E
  3
CMLEADERSTYLE
350
2F2
  3
CTABLESTYLE
350
2F1
  3
CVIEWDETAILSTYLE
350
2F3
  3
CVIEWSECTIONSTYLE
350
2F4
  3
HPCOLOR
350
2C8
  3
LAYEREVAL
350
2F5
  3
LAYERNOTIFY
350
2F6
  0
DICTIONARY
  5
22B
102
{ACAD_REACTORS
330
C
102
}
330
C
100
AcDbDictionary
281
     1
  3
AC_WATERMARK
350
22C
  0
DICTIONARY
  5
277
102
{ACAD_REACTORS
330
276
102
}
330
276
100
AcDbDictionary
281
     1
  0
XRECORD
  5
29F
102
{ACAD_REACTORS
330
29E
102
}
330
29E
100
AcDbXrecord
280
     1
290
     1
  0
XRECORD
  5
2A1
102
{ACAD_REACTORS
330
2A0
102
}
330
2A0
100
AcDbXrecord
280
     1
290
     1
  0
XRECORD
  5
2A3
102
{ACAD_REACTORS
330
2A2
102
}
330
2A2
100
AcDbXrecord
280
     1
290
     1
  0
XRECORD
  5
2A5
102
{ACAD_REACTORS
330
2A4
102
}
330
2A4
100
AcDbXrecord
280
     1
290
     1
  0
XRECORD
  5
2A6
102
{ACAD_REACTORS
330
26E
102
}
330
26E
100
AcDbXrecord
280
     1
290
     1
  0
SORTENTSTABLE
  5
3FD
102
{ACAD_REACTORS
330
3FC
102
}
330
3FC
100
AcDbSortentsTable
330
1F
331
48
  5
49
331
1D6
  5
1D6
331
20D
  5
20D
331
50
  5
51
331
1DE
  5
1DE
331
1E6
  5
1E6
331
21D
  5
21D
331
3BA
  5
3BA
331
58
  5
59
331
1EE
  5
1EE
331
225
  5
225
331
1AF
  5
1AF
331
60
  5
1AD
331
294
  5
294
331
1B7
  5
1B7
331
1F6
  5
1F6
331
3CA
  5
3CA
331
1BF
  5
1BF
331
1FE
  5
1FE
331
1C7
  5
1C7
331
206
  5
206
331
1CF
  5
1CF
331
41
  5
43
331
49
  5
4A
331
1D7
  5
1D7
331
51
  5
52
331
1DF
  5
1DF
331
59
  5
5A
331
1E7
  5
1E7
331
21E
  5
21E
331
3BB
  5
3BB
331
226
  5
226
331
1EF
  5
1EF
331
1B0
  5
1B0
331
3CB
  5
3CB
331
1F7
  5
1F7
331
1B8
  5
1B8
331
295
  5
295
331
1FF
  5
1FF
331
1C0
  5
1C0
331
1C8
  5
1C8
331
207
  5
207
331
1D0
  5
1D0
331
4A
  5
4B
331
1D8
  5
1D8
331
20F
  5
20F
331
52
  5
53
331
1E0
  5
1E0
331
5A
  5
5B
331
1E8
  5
1E8
331
21F
  5
21F
331
227
  5
227
331
1F0
  5
1F0
331
1B1
  5
1B1
331
296
  5
296
331
1B9
  5
1B9
331
1F8
  5
1F8
331
3CC
  5
3CC
331
1C1
  5
1C1
331
200
  5
200
331
1C9
  5
1C9
331
208
  5
208
331
43
  5
44
331
1D1
  5
1D1
331
4B
  5
4C
331
1D9
  5
1D9
331
53
  5
54
331
1E1
  5
1E1
331
218
  5
218
331
3BD
  5
3BD
331
5B
  5
5C
331
1E9
  5
1E9
331
220
  5
220
331
28F
  5
28F
331
1B2
  5
1B2
331
3CD
  5
3CD
331
1F9
  5
1F9
331
1BA
  5
1BA
331
297
  5
297
331
201
  5
201
331
1C2
  5
1C2
331
1CA
  5
1CA
331
44
  5
45
331
1D2
  5
1D2
331
209
  5
209
331
211
  5
211
331
4C
  5
4D
331
1DA
  5
1DA
331
219
  5
219
331
54
  5
55
331
1E2
  5
1E2
331
5C
  5
5D
331
1EA
  5
1EA
331
221
  5
221
331
3C6
  5
3C6
331
1B3
  5
1B3
331
290
  5
290
331
298
  5
298
331
1BB
  5
1BB
331
1FA
  5
1FA
331
1C3
  5
1C3
331
202
  5
202
331
1CB
  5
1CB
331
20A
  5
20A
331
45
  5
46
331
1D3
  5
1D3
331
4D
  5
4E
331
1DB
  5
1DB
331
55
  5
56
331
21A
  5
21A
331
222
  5
222
331
5D
  5
5E
331
1EB
  5
1EB
331
3C7
  5
3C7
331
1B4
  5
1B4
331
1F3
  5
1F3
331
1FB
  5
1FB
331
1BC
  5
1BC
331
299
  5
299
331
1C4
  5
1C4
331
203
  5
203
331
1CC
  5
1CC
331
46
  5
47
331
1D4
  5
1D4
331
4E
  5
4F
331
1DC
  5
1DC
331
21B
  5
21B
331
56
  5
57
331
1E4
  5
1E4
331
1EC
  5
1EC
331
223
  5
223
331
5E
  5
5F
331
1AD
  5
1AE
331
1B5
  5
1B5
331
3C8
  5
3C8
331
29A
  5
29A
331
1BD
  5
1BD
331
1FC
  5
1FC
331
1C5
  5
1C5
331
204
  5
204
331
3F
  5
41
331
1CD
  5
1CD
331
1D5
  5
1D5
331
20C
  5
20C
331
47
  5
48
331
4F
  5
50
331
57
  5
58
331
1E5
  5
1E5
331
21C
  5
21C
331
224
  5
224
331
1AE
  5
3F
331
5F
  5
60
331
1ED
  5
1ED
331
3C9
  5
3C9
331
293
  5
293
331
1B6
  5
1B6
331
1F5
  5
1F5
331
1FD
  5
1FD
331
1BE
  5
1BE
331
29B
  5
29B
331
1C6
  5
1C6
331
205
  5
205
331
1CE
  5
1CE
  0
SORTENTSTABLE
  5
2CD
102
{ACAD_REACTORS
330
2C2
102
}
330
2C2
100
AcDbSortentsTable
330
61
331
2BF
  5
2C6
331
2BD
  5
2BF
331
2C0
  5
2C9
331
2CF
  5
2BE
331
2BE
  5
2C0
  0
ACDBDETAILVIEWSTYLE
  5
263
102
{ACAD_XDICTIONARY
360
2EE
102
}
102
{ACAD_REACTORS
330
262
102
}
330
262
100
AcDbModelDocViewStyle
 70
     0
  3
Imperial24
290
     0
100
AcDbDetailViewStyle
 70
     0
 71
     0
 90
        3
 71
     1
340
11
 62
   256
 40
0.24
340
0
 62
   256
 40
0.24
300

 40
0.36
280
     3
 71
     2
340
16
 90
       25
 62
   256
 71
     3
340
11
 62
   256
 40
0.24
 90
        1
 40
0.75
 90
        1
300
%<\AcVar ViewType \f "%tc1">% %<\AcVar ViewDetailId>%\PSCALE %<\AcVar ViewScale \f "%sn">%
 71
     4
340
16
 90
       25
 62
   256
340
16
 90
       25
 62
   256
280
     0
  0
IMAGEDEF
  5
39D
102
{ACAD_REACTORS
330
28A
330
3BC
102
}
330
28A
100
AcDbRasterImageDef
 90
        0
  1
P:\VERT-X CONSULTING LTD\2013\10 Oct\1310-015- Specialized Construction Products - Contract draughting\Drawings\BRANZ logo. Do not place on drawing without number 510-.jpg
 10
828.0
 20
781.0
 11
0.0846666666666667
 21
0.0846666666666667
280
     1
281
     5
  0
IMAGEDEF
  5
39E
102
{ACAD_REACTORS
330
28A
330
3BE
102
}
330
28A
100
AcDbRasterImageDef
 90
        0
  1
P:\VERT-X CONSULTING LTD\2013\10 Oct\1310-015- Specialized Construction Products - Contract draughting\Drawings\logo sharp.JPG
 10
2521.0
 20
901.0
 11
0.2645833333333333
 21
0.2645833333333333
280
     1
281
     5
  0
LAYOUT
  5
1E
102
{ACAD_REACTORS
330
1A
102
}
330
1A
100
AcDbPlotSettings
  1

  2
none_device
  4

  6

 40
0.0
 41
0.0
 42
0.0
 43
0.0
 44
0.0
 45
0.0
 46
0.0
 47
0.0
 48
0.0
 49
0.0
140
0.0
141
0.0
142
1.0
143
1.0
 70
   688
 72
     0
 73
     0
 74
     5
  7

 75
    16
147
1.0
 76
     0
 77
     2
 78
   300
148
0.0
149
0.0
100
AcDbLayout
  1
Layout1
 70
     1
 71
     1
 10
0.0
 20
0.0
 11
12.0
 21
9.0
 12
0.0
 22
0.0
 32
0.0
 14
1.000000000000000E+20
 24
1.000000000000000E+20
 34
1.000000000000000E+20
 15
-1.000000000000000E+20
 25
-1.000000000000000E+20
 35
-1.000000000000000E+20
146
0.0
 13
0.0
 23
0.0
 33
0.0
 16
1.0
 26
0.0
 36
0.0
 17
0.0
 27
1.0
 37
0.0
 76
     0
330
1B
  0
LAYOUT
  5
26
102
{ACAD_REACTORS
330
1A
102
}
330
1A
100
AcDbPlotSettings
  1

  2
none_device
  4

  6

 40
0.0
 41
0.0
 42
0.0
 43
0.0
 44
0.0
 45
0.0
 46
0.0
 47
0.0
 48
0.0
 49
0.0
140
0.0
141
0.0
142
1.0
143
1.0
 70
   688
 72
     0
 73
     0
 74
     5
  7

 75
    16
147
1.0
 76
     0
 77
     2
 78
   300
148
0.0
149
0.0
100
AcDbLayout
  1
Layout2
 70
     1
 71
     2
 10
0.0
 20
0.0
 11
0.0
 21
0.0
 12
0.0
 22
0.0
 32
0.0
 14
0.0
 24
0.0
 34
0.0
 15
0.0
 25
0.0
 35
0.0
146
0.0
 13
0.0
 23
0.0
 33
0.0
 16
1.0
 26
0.0
 36
0.0
 17
0.0
 27
1.0
 37
0.0
 76
     0
330
23
  0
LAYOUT
  5
22
102
{ACAD_REACTORS
330
1A
102
}
330
1A
100
AcDbPlotSettings
  1

  2
none_device
  4

  6

 40
0.0
 41
0.0
 42
0.0
 43
0.0
 44
0.0
 45
0.0
 46
0.0
 47
0.0
 48
0.0
 49
0.0
140
0.0
141
0.0
142
1.0
143
1.0
 70
  1712
 72
     0
 73
     0
 74
     0
  7

 75
     0
147
1.0
 76
     0
 77
     2
 78
   300
148
0.0
149
0.0
100
AcDbLayout
  1
Model
 70
     1
 71
     0
 10
0.0
 20
0.0
 11
12.0
 21
9.0
 12
0.0
 22
0.0
 32
0.0
 14
1.000000000000000E+20
 24
1.000000000000000E+20
 34
1.000000000000000E+20
 15
-1.000000000000000E+20
 25
-1.000000000000000E+20
 35
-1.000000000000000E+20
146
0.0
 13
0.0
 23
0.0
 33
0.0
 16
1.0
 26
0.0
 36
0.0
 17
0.0
 27
1.0
 37
0.0
 76
     0
330
1F
331
29
  0
MATERIAL
  5
3D
102
{ACAD_REACTORS
330
3B
102
}
330
3B
100
AcDbMaterial
  1
ByBlock
 73
     1
 78
     1
172
     1
176
     1
270
     1
274
     1
  0
MATERIAL
  5
3C
102
{ACAD_REACTORS
330
3B
102
}
330
3B
100
AcDbMaterial
  1
ByLayer
 73
     1
 78
     1
172
     1
176
     1
270
     1
274
     1
  0
MATERIAL
  5
3E
102
{ACAD_REACTORS
330
3B
102
}
330
3B
100
AcDbMaterial
  1
Global
 73
     1
 78
     1
172
     1
176
     1
270
     1
274
     1
  0
MLEADERSTYLE
  5
25F
102
{ACAD_REACTORS
330
250
102
}
330
250
100
AcDbMLeaderStyle
179
     2
170
     2
171
     1
172
     0
 90
        2
 40
0.0
 41
0.0
173
     1
 91
-1056964608
340
14
 92
       -2
290
     1
 42
0.09
291
     1
 43
0.36
  3
Standard
 44
0.18
300

342
11
174
     1
178
     6
175
     1
176
     0
 93
-1056964608
 45
0.18
292
     0
297
     0
 46
0.18
 94
-1056964608
 47
1.0
 49
1.0
140
1.0
293
     1
141
0.0
294
     1
177
     0
142
1.0
295
     0
296
     0
143
0.125
271
     0
272
     9
273
     9
298
     1
  0
MLINESTYLE
  5
18
102
{ACAD_REACTORS
330
17
102
}
330
17
100
AcDbMlineStyle
  2
STANDARD
 70
     0
  3

 62
   256
 51
90.0
 52
90.0
 71
     2
 49
0.5
 62
   256
  6
BYLAYER
 49
-0.5
 62
   256
  6
BYLAYER
  0
ACDBPLACEHOLDER
  5
F
102
{ACAD_REACTORS
330
E
102
}
330
E
  0
SCALE
  5
188
102
{ACAD_REACTORS
330
187
102
}
330
187
100
AcDbScale
 70
     0
300
1:1
140
1.0
141
1.0
290
     1
  0
SCALE
  5
189
102
{ACAD_REACTORS
330
187
102
}
330
187
100
AcDbScale
 70
     0
300
1:2
140
1.0
141
2.0
290
     0
  0
SCALE
  5
18A
102
{ACAD_REACTORS
330
187
102
}
330
187
100
AcDbScale
 70
     0
300
1:4
140
1.0
141
4.0
290
     0
  0
SCALE
  5
18B
102
{ACAD_REACTORS
330
187
102
}
330
187
100
AcDbScale
 70
     0
300
1:5
140
1.0
141
5.0
290
     0
  0
SCALE
  5
18C
102
{ACAD_REACTORS
330
187
102
}
330
187
100
AcDbScale
 70
     0
300
1:8
140
1.0
141
8.0
290
     0
  0
SCALE
  5
18D
102
{ACAD_REACTORS
330
187
102
}
330
187
100
AcDbScale
 70
     0
300
1:10
140
1.0
141
10.0
290
     0
  0
SCALE
  5
18E
102
{ACAD_REACTORS
330
187
102
}
330
187
100
AcDbScale
 70
     0
300
1:16
140
1.0
141
16.0
290
     0
  0
SCALE
  5
18F
102
{ACAD_REACTORS
330
187
102
}
330
187
100
AcDbScale
 70
     0
300
1:20
140
1.0
141
20.0
290
     0
  0
SCALE
  5
190
102
{ACAD_REACTORS
330
187
102
}
330
187
100
AcDbScale
 70
     0
300
1:30
140
1.0
141
30.0
290
     0
  0
SCALE
  5
191
102
{ACAD_REACTORS
330
187
102
}
330
187
100
AcDbScale
 70
     0
300
1:40
140
1.0
141
40.0
290
     0
  0
SCALE
  5
192
102
{ACAD_REACTORS
330
187
102
}
330
187
100
AcDbScale
 70
     0
300
1:50
140
1.0
141
50.0
290
     0
  0
SCALE
  5
193
102
{ACAD_REACTORS
330
187
102
}
330
187
100
AcDbScale
 70
     0
300
1:100
140
1.0
141
100.0
290
     0
  0
SCALE
  5
194
102
{ACAD_REACTORS
330
187
102
}
330
187
100
AcDbScale
 70
     0
300
2:1
140
2.0
141
1.0
290
     0
  0
SCALE
  5
195
102
{ACAD_REACTORS
330
187
102
}
330
187
100
AcDbScale
 70
     0
300
4:1
140
4.0
141
1.0
290
     0
  0
SCALE
  5
196
102
{ACAD_REACTORS
330
187
102
}
330
187
100
AcDbScale
 70
     0
300
8:1
140
8.0
141
1.0
290
     0
  0
SCALE
  5
197
102
{ACAD_REACTORS
330
187
102
}
330
187
100
AcDbScale
 70
     0
300
10:1
140
10.0
141
1.0
290
     0
  0
SCALE
  5
198
102
{ACAD_REACTORS
330
187
102
}
330
187
100
AcDbScale
 70
     0
300
100:1
140
100.0
141
1.0
290
     0
  0
SCALE
  5
199
102
{ACAD_REACTORS
330
187
102
}
330
187
100
AcDbScale
 70
     0
300
1/128" = 1'-0"
140
0.0078125
141
12.0
290
     0
  0
SCALE
  5
19A
102
{ACAD_REACTORS
330
187
102
}
330
187
100
AcDbScale
 70
     0
300
1/64" = 1'-0"
140
0.015625
141
12.0
290
     0
  0
SCALE
  5
19B
102
{ACAD_REACTORS
330
187
102
}
330
187
100
AcDbScale
 70
     0
300
1/32" = 1'-0"
140
0.03125
141
12.0
290
     0
  0
SCALE
  5
19C
102
{ACAD_REACTORS
330
187
102
}
330
187
100
AcDbScale
 70
     0
300
1/16" = 1'-0"
140
0.0625
141
12.0
290
     0
  0
SCALE
  5
19D
102
{ACAD_REACTORS
330
187
102
}
330
187
100
AcDbScale
 70
     0
300
3/32" = 1'-0"
140
0.09375
141
12.0
290
     0
  0
SCALE
  5
19E
102
{ACAD_REACTORS
330
187
102
}
330
187
100
AcDbScale
 70
     0
300
1/8" = 1'-0"
140
0.125
141
12.0
290
     0
  0
SCALE
  5
19F
102
{ACAD_REACTORS
330
187
102
}
330
187
100
AcDbScale
 70
     0
300
3/16" = 1'-0"
140
0.1875
141
12.0
290
     0
  0
SCALE
  5
1A0
102
{ACAD_REACTORS
330
187
102
}
330
187
100
AcDbScale
 70
     0
300
1/4" = 1'-0"
140
0.25
141
12.0
290
     0
  0
SCALE
  5
1A1
102
{ACAD_REACTORS
330
187
102
}
330
187
100
AcDbScale
 70
     0
300
3/8" = 1'-0"
140
0.375
141
12.0
290
     0
  0
SCALE
  5
1A2
102
{ACAD_REACTORS
330
187
102
}
330
187
100
AcDbScale
 70
     0
300
1/2" = 1'-0"
140
0.5
141
12.0
290
     0
  0
SCALE
  5
1A3
102
{ACAD_REACTORS
330
187
102
}
330
187
100
AcDbScale
 70
     0
300
3/4" = 1'-0"
140
0.75
141
12.0
290
     0
  0
SCALE
  5
1A4
102
{ACAD_REACTORS
330
187
102
}
330
187
100
AcDbScale
 70
     0
300
1" = 1'-0"
140
1.0
141
12.0
290
     0
  0
SCALE
  5
1A5
102
{ACAD_REACTORS
330
187
102
}
330
187
100
AcDbScale
 70
     0
300
1-1/2" = 1'-0"
140
1.5
141
12.0
290
     0
  0
SCALE
  5
1A6
102
{ACAD_REACTORS
330
187
102
}
330
187
100
AcDbScale
 70
     0
300
3" = 1'-0"
140
3.0
141
12.0
290
     0
  0
SCALE
  5
1A7
102
{ACAD_REACTORS
330
187
102
}
330
187
100
AcDbScale
 70
     0
300
6" = 1'-0"
140
6.0
141
12.0
290
     0
  0
SCALE
  5
1A8
102
{ACAD_REACTORS
330
187
102
}
330
187
100
AcDbScale
 70
     0
300
1'-0" = 1'-0"
140
12.0
141
12.0
290
     0
  0
ACDBSECTIONVIEWSTYLE
  5
261
102
{ACAD_XDICTIONARY
360
2EC
102
}
102
{ACAD_REACTORS
330
260
102
}
330
260
100
AcDbModelDocViewStyle
 70
     0
  3
Imperial24
290
     0
100
AcDbSectionViewStyle
 70
     0
 71
     0
 90
       78
 71
     1
340
11
 62
   256
 40
0.24
340
0
340
0
 62
   256
 40
0.24
300
I, O, Q, S, X, Z
 40
0.48
 90
        3
 40
0.18
 90
        1
 71
     2
340
16
 90
       25
 62
   256
340
16
 90
       50
 62
   256
 40
0.24
 40
0.0
 40
0.24
 71
     3
340
11
 62
   256
 40
0.24
 90
        1
 40
0.75
 90
        1
300
%<\AcVar ViewType \f "%tc1">% %<\AcVar ViewSectionStartId>%-%<\AcVar ViewSectionEndId>%\PSCALE %<\AcVar ViewScale \f "%sn">%
 71
     4
 62
   256
 62
   257
300
ANSI31
 40
1.0
 90
        0
290
     0
290
     0
 90
        6
 40
0.0
 40
1.570796326794896
 40
0.2617993877991494
 40
1.308996938995747
 40
-0.2617993877991494
 40
1.832595714594046
  0
TABLESTYLE
  5
25E
102
{ACAD_XDICTIONARY
360
479
102
}
102
{ACAD_REACTORS
330
24F
102
}
330
24F
100
AcDbTableStyle
280
     0
  3
Standard
 70
     0
 71
     0
 40
0.06
 41
0.06
280
     0
281
     0
  7
Standard
140
0.18
170
     2
 62
     0
 63
     7
283
     0
 90
      512
 91
        0
  1

274
    -2
284
     1
 64
     0
275
    -2
285
     1
 65
     0
276
    -2
286
     1
 66
     0
277
    -2
287
     1
 67
     0
278
    -2
288
     1
 68
     0
279
    -2
289
     1
 69
     0
  7
Standard
140
0.25
170
     5
 62
     0
 63
     7
283
     0
 90
      512
 91
        0
  1

274
    -2
284
     1
 64
     0
275
    -2
285
     1
 65
     0
276
    -2
286
     1
 66
     0
277
    -2
287
     1
 67
     0
278
    -2
288
     1
 68
     0
279
    -2
289
     1
 69
     0
  7
Standard
140
0.18
170
     5
 62
     0
 63
     7
283
     0
 90
      512
 91
        0
  1

274
    -2
284
     1
 64
     0
275
    -2
285
     1
 65
     0
276
    -2
286
     1
 66
     0
277
    -2
287
     1
 67
     0
278
    -2
288
     1
 68
     0
279
    -2
289
     1
 69
     0
  0
VISUALSTYLE
  5
2F
102
{ACAD_REACTORS
330
2A
102
}
330
2A
100
AcDbVisualStyle
  2
2dWireframe
 70
     4
177
     3
291
     0
 70
    58
 90
        0
176
     1
 90
        2
176
     1
 90
        0
176
     1
 90
        0
176
     1
 40
0.6
176
     1
 40
30.0
176
     1
 62
     7
420
 16777215
176
     1
 90
        1
176
     1
 90
        4
176
     1
 62
     7
176
     1
 62
   257
176
     1
 90
        1
176
     1
 90
        1
176
     1
 40
1.0
176
     1
 90
        0
176
     1
 62
   257
176
     1
 40
1.0
176
     1
 90
        1
176
     1
 90
        6
176
     1
 90
        2
176
     1
 62
     7
176
     1
 90
        5
176
     1
 90
        0
176
     1
 90
        0
176
     1
290
     0
176
     1
 90
        1
176
     1
 40
0.0
176
     1
 90
        0
176
     1
290
     1
176
     1
290
     1
176
     1
290
     0
176
     1
290
     0
176
     1
290
     0
176
     1
290
     0
176
     1
290
     0
176
     1
290
     0
176
     1
290
     0
176
     1
 90
       50
176
     1
 40
0.0
176
     1
 40
1.0
176
     1
 90
        0
176
     1
 62
    18
420
        0
176
     1
 90
       50
176
     1
 90
        3
176
     1
 62
     5
420
      255
176
     1
290
     0
176
     1
 90
       50
176
     1
 90
       50
176
     1
 90
       50
176
     1
290
     0
176
     1
 90
       50
176
     1
 62
   256
176
     0
 40
1.0
176
     0
 90
        2
176
     1
  1
strokes_ogs.tif
176
     1
290
     0
176
     1
 40
1.0
176
     1
 40
1.0
176
     1
  0
VISUALSTYLE
  5
31
102
{ACAD_REACTORS
330
2A
102
}
330
2A
100
AcDbVisualStyle
  2
3D Hidden
 70
     6
177
     3
291
     0
 70
    58
 90
        1
176
     1
 90
        2
176
     1
 90
        2
176
     1
 90
        0
176
     1
 40
0.6
176
     1
 40
30.0
176
     1
 62
     7
420
 16777215
176
     1
 90
        2
176
     1
 90
        2
176
     1
 62
     7
176
     1
 62
   257
176
     1
 90
        2
176
     1
 90
        1
176
     1
 40
40.0
176
     1
 90
        0
176
     1
 62
   257
176
     1
 40
1.0
176
     1
 90
        1
176
     1
 90
        6
176
     1
 90
        2
176
     1
 62
     7
176
     1
 90
        3
176
     1
 90
        0
176
     1
 90
        0
176
     1
290
     0
176
     1
 90
        1
176
     1
 40
0.0
176
     1
 90
        0
176
     1
290
     0
176
     1
290
     1
176
     1
290
     1
176
     1
290
     0
176
     1
290
     0
176
     1
290
     0
176
     1
290
     0
176
     1
290
     0
176
     1
290
     0
176
     1
 90
       50
176
     1
 40
0.0
176
     1
 40
1.0
176
     1
 90
        0
176
     1
 62
    18
420
        0
176
     1
 90
       50
176
     1
 90
        3
176
     1
 62
     5
420
      255
176
     1
290
     0
176
     1
 90
       50
176
     1
 90
       50
176
     1
 90
       50
176
     1
290
     0
176
     1
 90
       50
176
     1
 62
   256
176
     0
 40
1.0
176
     0
 90
        2
176
     1
  1
strokes_ogs.tif
176
     1
290
     0
176
     1
 40
1.0
176
     1
 40
1.0
176
     1
  0
VISUALSTYLE
  5
30
102
{ACAD_REACTORS
330
2A
102
}
330
2A
100
AcDbVisualStyle
  2
3dWireframe
 70
     5
177
     3
291
     0
 70
    58
 90
        0
176
     1
 90
        2
176
     1
 90
        0
176
     1
 90
        0
176
     1
 40
0.6
176
     1
 40
30.0
176
     1
 62
     7
420
 16777215
176
     1
 90
        1
176
     1
 90
        4
176
     1
 62
     7
176
     1
 62
   257
176
     1
 90
        1
176
     1
 90
        1
176
     1
 40
1.0
176
     1
 90
        0
176
     1
 62
   257
176
     1
 40
1.0
176
     1
 90
        1
176
     1
 90
        6
176
     1
 90
        2
176
     1
 62
     7
176
     1
 90
        5
176
     1
 90
        0
176
     1
 90
        0
176
     1
290
     0
176
     1
 90
        1
176
     1
 40
0.0
176
     1
 90
        0
176
     1
290
     0
176
     1
290
     1
176
     1
290
     1
176
     1
290
     0
176
     1
290
     0
176
     1
290
     0
176
     1
290
     0
176
     1
290
     0
176
     1
290
     0
176
     1
 90
       50
176
     1
 40
0.0
176
     1
 40
1.0
176
     1
 90
        0
176
     1
 62
    18
420
        0
176
     1
 90
       50
176
     1
 90
        3
176
     1
 62
     5
420
      255
176
     1
290
     0
176
     1
 90
       50
176
     1
 90
       50
176
     1
 90
       50
176
     1
290
     0
176
     1
 90
       50
176
     1
 62
   256
176
     0
 40
1.0
176
     0
 90
        2
176
     1
  1
strokes_ogs.tif
176
     1
290
     0
176
     1
 40
1.0
176
     1
 40
1.0
176
     1
  0
VISUALSTYLE
  5
32
102
{ACAD_REACTORS
330
2A
102
}
330
2A
100
AcDbVisualStyle
  2
Basic
 70
     7
177
     3
291
     1
 70
    58
 90
        1
176
     1
 90
        0
176
     1
 90
        1
176
     1
 90
        0
176
     1
 40
0.6
176
     1
 40
30.0
176
     1
 62
     7
420
 16777215
176
     1
 90
        0
176
     1
 90
        4
176
     1
 62
     7
176
     1
 62
   257
176
     1
 90
        1
176
     1
 90
        1
176
     1
 40
1.0
176
     1
 90
        8
176
     1
 62
     7
176
     1
 40
1.0
176
     1
 90
        1
176
     1
 90
        6
176
     1
 90
        2
176
     1
 62
     7
176
     1
 90
        5
176
     1
 90
        0
176
     1
 90
        0
176
     1
290
     0
176
     1
 90
        1
176
     1
 40
0.0
176
     1
 90
        0
176
     1
290
     0
176
     1
290
     1
176
     1
290
     1
176
     1
290
     0
176
     1
290
     0
176
     1
290
     0
176
     1
290
     0
176
     1
290
     0
176
     1
290
     0
176
     1
 90
       50
176
     1
 40
0.0
176
     1
 40
1.0
176
     1
 90
        0
176
     1
 62
    18
420
        0
176
     1
 90
       50
176
     1
 90
        3
176
     1
 62
     5
420
      255
176
     1
290
     0
176
     1
 90
       50
176
     1
 90
       50
176
     1
 90
       50
176
     1
290
     0
176
     1
 90
       50
176
     1
 62
   256
176
     0
 40
1.0
176
     0
 90
        2
176
     1
  1
strokes_ogs.tif
176
     1
290
     0
176
     1
 40
1.0
176
     1
 40
1.0
176
     1
  0
VISUALSTYLE
  5
36
102
{ACAD_REACTORS
330
2A
102
}
330
2A
100
AcDbVisualStyle
  2
Brighten
 70
    12
177
     3
291
     1
 70
    58
 90
        2
176
     1
 90
        2
176
     1
 90
        0
176
     1
 90
        0
176
     1
 40
0.6
176
     1
 40
30.0
176
     1
 62
     7
420
 16777215
176
     1
 90
        1
176
     1
 90
        4
176
     1
 62
     7
176
     1
 62
   257
176
     1
 90
        1
176
     1
 90
        1
176
     1
 40
1.0
176
     1
 90
        8
176
     1
 62
     7
176
     1
 40
1.0
176
     1
 90
        1
176
     1
 90
        6
176
     1
 90
        2
176
     1
 62
     7
176
     1
 90
        5
176
     1
 90
        0
176
     1
 90
        0
176
     1
290
     0
176
     1
 90
        1
176
     1
 40
50.0
176
     1
 90
        0
176
     1
290
     0
176
     1
290
     1
176
     1
290
     1
176
     1
290
     0
176
     1
290
     0
176
     1
290
     0
176
     1
290
     0
176
     1
290
     0
176
     1
290
     0
176
     1
 90
       50
176
     1
 40
0.0
176
     1
 40
1.0
176
     1
 90
        0
176
     1
 62
    18
420
        0
176
     1
 90
       50
176
     1
 90
        3
176
     1
 62
     5
420
      255
176
     1
290
     0
176
     1
 90
       50
176
     1
 90
       50
176
     1
 90
       50
176
     1
290
     0
176
     1
 90
       50
176
     1
 62
   256
176
     0
 40
1.0
176
     0
 90
        2
176
     1
  1
strokes_ogs.tif
176
     1
290
     0
176
     1
 40
1.0
176
     1
 40
1.0
176
     1
  0
VISUALSTYLE
  5
3A
102
{ACAD_REACTORS
330
2A
102
}
330
2A
100
AcDbVisualStyle
  2
ColorChange
 70
    16
177
     3
291
     1
 70
    58
 90
        2
176
     1
 90
        2
176
     1
 90
        3
176
     1
 90
        0
176
     1
 40
0.6
176
     1
 40
30.0
176
     1
 62
     8
420
  8421504
176
     1
 90
        1
176
     1
 90
        4
176
     1
 62
     7
176
     1
 62
   257
176
     1
 90
        1
176
     1
 90
        1
176
     1
 40
1.0
176
     1
 90
        8
176
     1
 62
     8
420
  8421504
176
     1
 40
1.0
176
     1
 90
        1
176
     1
 90
        6
176
     1
 90
        2
176
     1
 62
     7
176
     1
 90
        5
176
     1
 90
        0
176
     1
 90
        0
176
     1
290
     0
176
     1
 90
        1
176
     1
 40
0.0
176
     1
 90
        0
176
     1
290
     0
176
     1
290
     1
176
     1
290
     1
176
     1
290
     0
176
     1
290
     0
176
     1
290
     0
176
     1
290
     0
176
     1
290
     0
176
     1
290
     0
176
     1
 90
       50
176
     1
 40
0.0
176
     1
 40
1.0
176
     1
 90
        0
176
     1
 62
    18
420
        0
176
     1
 90
       50
176
     1
 90
        3
176
     1
 62
     5
420
      255
176
     1
290
     0
176
     1
 90
       50
176
     1
 90
       50
176
     1
 90
       50
176
     1
290
     0
176
     1
 90
       50
176
     1
 62
   256
176
     0
 40
1.0
176
     0
 90
        2
176
     1
  1
strokes_ogs.tif
176
     1
290
     0
176
     1
 40
1.0
176
     1
 40
1.0
176
     1
  0
VISUALSTYLE
  5
34
102
{ACAD_REACTORS
330
2A
102
}
330
2A
100
AcDbVisualStyle
  2
Conceptual
 70
     9
177
     3
291
     0
 70
    58
 90
        3
176
     1
 90
        2
176
     1
 90
        0
176
     1
 90
        0
176
     1
 40
0.6
176
     1
 40
30.0
176
     1
 62
     7
420
 16777215
176
     1
 90
        2
176
     1
 90
        2
176
     1
 62
     7
176
     1
 62
   257
176
     1
 90
        1
176
     1
 90
        1
176
     1
 40
40.0
176
     1
 90
        8
176
     1
 62
     7
176
     1
 40
1.0
176
     1
 90
        1
176
     1
 90
        6
176
     1
 90
        2
176
     1
 62
     7
176
     1
 90
        3
176
     1
 90
        0
176
     1
 90
        0
176
     1
290
     0
176
     1
 90
        1
176
     1
 40
0.0
176
     1
 90
        0
176
     1
290
     0
176
     1
290
     1
176
     1
290
     1
176
     1
290
     0
176
     1
290
     0
176
     1
290
     0
176
     1
290
     0
176
     1
290
     0
176
     1
290
     0
176
     1
 90
       50
176
     1
 40
0.0
176
     1
 40
1.0
176
     1
 90
        0
176
     1
 62
    18
420
        0
176
     1
 90
       50
176
     1
 90
        3
176
     1
 62
     5
420
      255
176
     1
290
     0
176
     1
 90
       50
176
     1
 90
       50
176
     1
 90
       50
176
     1
290
     0
176
     1
 90
       50
176
     1
 62
   256
176
     0
 40
1.0
176
     0
 90
        2
176
     1
  1
strokes_ogs.tif
176
     1
290
     0
176
     1
 40
1.0
176
     1
 40
1.0
176
     1
  0
VISUALSTYLE
  5
35
102
{ACAD_REACTORS
330
2A
102
}
330
2A
100
AcDbVisualStyle
  2
Dim
 70
    11
177
     3
291
     1
 70
    58
 90
        2
176
     1
 90
        2
176
     1
 90
        0
176
     1
 90
        0
176
     1
 40
0.6
176
     1
 40
30.0
176
     1
 62
     7
420
 16777215
176
     1
 90
        1
176
     1
 90
        4
176
     1
 62
     7
176
     1
 62
   257
176
     1
 90
        1
176
     1
 90
        1
176
     1
 40
1.0
176
     1
 90
        8
176
     1
 62
     7
176
     1
 40
1.0
176
     1
 90
        1
176
     1
 90
        6
176
     1
 90
        2
176
     1
 62
     7
176
     1
 90
        5
176
     1
 90
        0
176
     1
 90
        0
176
     1
290
     0
176
     1
 90
        1
176
     1
 40
-50.0
176
     1
 90
        0
176
     1
290
     0
176
     1
290
     1
176
     1
290
     1
176
     1
290
     0
176
     1
290
     0
176
     1
290
     0
176
     1
290
     0
176
     1
290
     0
176
     1
290
     0
176
     1
 90
       50
176
     1
 40
0.0
176
     1
 40
1.0
176
     1
 90
        0
176
     1
 62
    18
420
        0
176
     1
 90
       50
176
     1
 90
        3
176
     1
 62
     5
420
      255
176
     1
290
     0
176
     1
 90
       50
176
     1
 90
       50
176
     1
 90
       50
176
     1
290
     0
176
     1
 90
       50
176
     1
 62
   256
176
     0
 40
1.0
176
     0
 90
        2
176
     1
  1
strokes_ogs.tif
176
     1
290
     0
176
     1
 40
1.0
176
     1
 40
1.0
176
     1
  0
VISUALSTYLE
  5
25C
102
{ACAD_REACTORS
330
2A
102
}
330
2A
100
AcDbVisualStyle
  2
EdgeColorOff
 70
    22
177
     3
291
     1
 70
    58
 90
        2
176
     0
 90
        2
176
     0
 90
        0
176
     0
 90
        0
176
     0
 40
0.6
176
     0
 40
30.0
176
     0
 62
     7
420
 16777215
176
     0
 90
        1
176
     0
 90
        4
176
     0
 62
     7
176
     0
 62
   257
176
     0
 90
        1
176
     0
 90
        1
176
     0
 40
1.0
176
     0
 90
        8
176
     2
 62
     7
176
     0
 40
1.0
176
     0
 90
        1
176
     0
 90
        6
176
     0
 90
        2
176
     0
 62
     7
176
     0
 90
        5
176
     0
 90
        0
176
     0
 90
        0
176
     0
290
     0
176
     0
 90
        1
176
     0
 40
0.0
176
     0
 90
        0
176
     0
290
     0
176
     0
290
     1
176
     0
290
     1
176
     0
290
     0
176
     0
290
     0
176
     0
290
     0
176
     0
290
     0
176
     0
290
     0
176
     0
290
     0
176
     0
 90
       50
176
     0
 40
0.0
176
     0
 40
1.0
176
     0
 90
        0
176
     0
 62
    18
420
        0
176
     0
 90
       50
176
     0
 90
        3
176
     0
 62
     5
420
      255
176
     0
290
     0
176
     0
 90
       50
176
     0
 90
       50
176
     0
 90
       50
176
     0
290
     0
176
     0
 90
       50
176
     0
 62
   256
176
     0
 40
1.0
176
     0
 90
        2
176
     0
  1
strokes_ogs.tif
176
     0
290
     0
176
     0
 40
1.0
176
     0
 40
1.0
176
     0
  0
VISUALSTYLE
  5
39
102
{ACAD_REACTORS
330
2A
102
}
330
2A
100
AcDbVisualStyle
  2
Facepattern
 70
    15
177
     3
291
     1
 70
    58
 90
        2
176
     1
 90
        2
176
     1
 90
        0
176
     1
 90
        0
176
     1
 40
0.6
176
     1
 40
30.0
176
     1
 62
     7
420
 16777215
176
     1
 90
        1
176
     1
 90
        4
176
     1
 62
     7
176
     1
 62
   257
176
     1
 90
        1
176
     1
 90
        1
176
     1
 40
1.0
176
     1
 90
        8
176
     1
 62
     7
176
     1
 40
1.0
176
     1
 90
        1
176
     1
 90
        6
176
     1
 90
        2
176
     1
 62
     7
176
     1
 90
        5
176
     1
 90
        0
176
     1
 90
        0
176
     1
290
     0
176
     1
 90
        1
176
     1
 40
0.0
176
     1
 90
        0
176
     1
290
     0
176
     1
290
     1
176
     1
290
     1
176
     1
290
     0
176
     1
290
     0
176
     1
290
     0
176
     1
290
     0
176
     1
290
     0
176
     1
290
     0
176
     1
 90
       50
176
     1
 40
0.0
176
     1
 40
1.0
176
     1
 90
        0
176
     1
 62
    18
420
        0
176
     1
 90
       50
176
     1
 90
        3
176
     1
 62
     5
420
      255
176
     1
290
     0
176
     1
 90
       50
176
     1
 90
       50
176
     1
 90
       50
176
     1
290
     0
176
     1
 90
       50
176
     1
 62
   256
176
     0
 40
1.0
176
     0
 90
        2
176
     1
  1
strokes_ogs.tif
176
     1
290
     0
176
     1
 40
1.0
176
     1
 40
1.0
176
     1
  0
VISUALSTYLE
  5
2B
102
{ACAD_REACTORS
330
2A
102
}
330
2A
100
AcDbVisualStyle
  2
Flat
 70
     0
177
     3
291
     1
 70
    58
 90
        2
176
     1
 90
        1
176
     1
 90
        1
176
     1
 90
        2
176
     1
 40
0.6
176
     1
 40
30.0
176
     1
 62
     7
420
 16777215
176
     1
 90
        0
176
     1
 90
        4
176
     1
 62
     7
176
     1
 62
   257
176
     1
 90
        1
176
     1
 90
        1
176
     1
 40
1.0
176
     1
 90
        8
176
     1
 62
     7
176
     1
 40
1.0
176
     1
 90
        1
176
     1
 90
        6
176
     1
 90
        2
176
     1
 62
     7
176
     1
 90
        5
176
     1
 90
        0
176
     1
 90
        0
176
     1
290
     0
176
     1
 90
       13
176
     1
 40
0.0
176
     1
 90
        0
176
     1
290
     0
176
     1
290
     1
176
     1
290
     1
176
     1
290
     0
176
     1
290
     0
176
     1
290
     0
176
     1
290
     0
176
     1
290
     0
176
     1
290
     0
176
     1
 90
       50
176
     1
 40
0.0
176
     1
 40
1.0
176
     1
 90
        0
176
     1
 62
    18
420
        0
176
     1
 90
       50
176
     1
 90
        3
176
     1
 62
     5
420
      255
176
     1
290
     0
176
     1
 90
       50
176
     1
 90
       50
176
     1
 90
       50
176
     1
290
     0
176
     1
 90
       50
176
     1
 62
   256
176
     0
 40
1.0
176
     0
 90
        2
176
     1
  1
strokes_ogs.tif
176
     1
290
     0
176
     1
 40
1.0
176
     1
 40
1.0
176
     1
  0
VISUALSTYLE
  5
2C
102
{ACAD_REACTORS
330
2A
102
}
330
2A
100
AcDbVisualStyle
  2
FlatWithEdges
 70
     1
177
     3
291
     1
 70
    58
 90
        2
176
     1
 90
        1
176
     1
 90
        1
176
     1
 90
        2
176
     1
 40
0.6
176
     1
 40
30.0
176
     1
 62
     7
420
 16777215
176
     1
 90
        1
176
     1
 90
        4
176
     1
 62
     7
176
     1
 62
   257
176
     1
 90
        1
176
     1
 90
        1
176
     1
 40
1.0
176
     1
 90
        0
176
     1
 62
   257
176
     1
 40
1.0
176
     1
 90
        1
176
     1
 90
        6
176
     1
 90
        2
176
     1
 62
     7
176
     1
 90
        5
176
     1
 90
        0
176
     1
 90
        0
176
     1
290
     0
176
     1
 90
       13
176
     1
 40
0.0
176
     1
 90
        0
176
     1
290
     0
176
     1
290
     1
176
     1
290
     1
176
     1
290
     0
176
     1
290
     0
176
     1
290
     0
176
     1
290
     0
176
     1
290
     0
176
     1
290
     0
176
     1
 90
       50
176
     1
 40
0.0
176
     1
 40
1.0
176
     1
 90
        0
176
     1
 62
    18
420
        0
176
     1
 90
       50
176
     1
 90
        3
176
     1
 62
     5
420
      255
176
     1
290
     0
176
     1
 90
       50
176
     1
 90
       50
176
     1
 90
       50
176
     1
290
     0
176
     1
 90
       50
176
     1
 62
   256
176
     0
 40
1.0
176
     0
 90
        2
176
     1
  1
strokes_ogs.tif
176
     1
290
     0
176
     1
 40
1.0
176
     1
 40
1.0
176
     1
  0
VISUALSTYLE
  5
2D
102
{ACAD_REACTORS
330
2A
102
}
330
2A
100
AcDbVisualStyle
  2
Gouraud
 70
     2
177
     3
291
     1
 70
    58
 90
        2
176
     1
 90
        2
176
     1
 90
        1
176
     1
 90
        2
176
     1
 40
0.6
176
     1
 40
30.0
176
     1
 62
     7
420
 16777215
176
     1
 90
        0
176
     1
 90
        4
176
     1
 62
     7
176
     1
 62
   257
176
     1
 90
        1
176
     1
 90
        1
176
     1
 40
1.0
176
     1
 90
        0
176
     1
 62
     7
176
     1
 40
1.0
176
     1
 90
        1
176
     1
 90
        6
176
     1
 90
        2
176
     1
 62
     7
176
     1
 90
        5
176
     1
 90
        0
176
     1
 90
        0
176
     1
290
     0
176
     1
 90
       13
176
     1
 40
0.0
176
     1
 90
        0
176
     1
290
     0
176
     1
290
     1
176
     1
290
     1
176
     1
290
     0
176
     1
290
     0
176
     1
290
     0
176
     1
290
     0
176
     1
290
     0
176
     1
290
     0
176
     1
 90
       50
176
     1
 40
0.0
176
     1
 40
1.0
176
     1
 90
        0
176
     1
 62
    18
420
        0
176
     1
 90
       50
176
     1
 90
        3
176
     1
 62
     5
420
      255
176
     1
290
     0
176
     1
 90
       50
176
     1
 90
       50
176
     1
 90
       50
176
     1
290
     0
176
     1
 90
       50
176
     1
 62
   256
176
     0
 40
1.0
176
     0
 90
        2
176
     1
  1
strokes_ogs.tif
176
     1
290
     0
176
     1
 40
1.0
176
     1
 40
1.0
176
     1
  0
VISUALSTYLE
  5
2E
102
{ACAD_REACTORS
330
2A
102
}
330
2A
100
AcDbVisualStyle
  2
GouraudWithEdges
 70
     3
177
     3
291
     1
 70
    58
 90
        2
176
     1
 90
        2
176
     1
 90
        1
176
     1
 90
        2
176
     1
 40
0.6
176
     1
 40
30.0
176
     1
 62
     7
420
 16777215
176
     1
 90
        1
176
     1
 90
        4
176
     1
 62
     7
176
     1
 62
   257
176
     1
 90
        1
176
     1
 90
        1
176
     1
 40
1.0
176
     1
 90
        0
176
     1
 62
   257
176
     1
 40
1.0
176
     1
 90
        1
176
     1
 90
        6
176
     1
 90
        2
176
     1
 62
     7
176
     1
 90
        5
176
     1
 90
        0
176
     1
 90
        0
176
     1
290
     0
176
     1
 90
       13
176
     1
 40
0.0
176
     1
 90
        0
176
     1
290
     0
176
     1
290
     1
176
     1
290
     1
176
     1
290
     0
176
     1
290
     0
176
     1
290
     0
176
     1
290
     0
176
     1
290
     0
176
     1
290
     0
176
     1
 90
       50
176
     1
 40
0.0
176
     1
 40
1.0
176
     1
 90
        0
176
     1
 62
    18
420
        0
176
     1
 90
       50
176
     1
 90
        3
176
     1
 62
     5
420
      255
176
     1
290
     0
176
     1
 90
       50
176
     1
 90
       50
176
     1
 90
       50
176
     1
290
     0
176
     1
 90
       50
176
     1
 62
   256
176
     0
 40
1.0
176
     0
 90
        2
176
     1
  1
strokes_ogs.tif
176
     1
290
     0
176
     1
 40
1.0
176
     1
 40
1.0
176
     1
  0
VISUALSTYLE
  5
254
102
{ACAD_REACTORS
330
2A
102
}
330
2A
100
AcDbVisualStyle
  2
Hidden
 70
     6
177
     3
291
     0
 70
    58
 90
        1
176
     1
 90
        2
176
     1
 90
        2
176
     1
 90
        0
176
     1
 40
0.6
176
     1
 40
30.0
176
     1
 62
     7
420
 16777215
176
     1
 90
        2
176
     1
 90
        2
176
     1
 62
     7
176
     1
 62
   257
176
     1
 90
        2
176
     1
 90
        1
176
     1
 40
40.0
176
     1
 90
        0
176
     1
 62
   257
176
     1
 40
1.0
176
     1
 90
        1
176
     1
 90
        6
176
     1
 90
        2
176
     1
 62
     7
176
     1
 90
        3
176
     1
 90
        0
176
     1
 90
        0
176
     1
290
     0
176
     1
 90
        1
176
     1
 40
0.0
176
     1
 90
        0
176
     1
290
     0
176
     1
290
     1
176
     1
290
     1
176
     1
290
     0
176
     1
290
     0
176
     1
290
     0
176
     1
290
     0
176
     1
290
     0
176
     1
290
     0
176
     1
 90
       50
176
     1
 40
0.0
176
     1
 40
1.0
176
     1
 90
        0
176
     1
 62
    18
420
        0
176
     1
 90
       50
176
     1
 90
        3
176
     1
 62
     5
420
      255
176
     1
290
     0
176
     1
 90
       50
176
     1
 90
       50
176
     1
 90
       50
176
     1
290
     0
176
     1
 90
       50
176
     1
 62
   256
176
     0
 40
1.0
176
     0
 90
        2
176
     1
  1
strokes_ogs.tif
176
     1
290
     0
176
     1
 40
1.0
176
     1
 40
1.0
176
     1
  0
VISUALSTYLE
  5
25A
102
{ACAD_REACTORS
330
2A
102
}
330
2A
100
AcDbVisualStyle
  2
JitterOff
 70
    20
177
     3
291
     1
 70
    58
 90
        2
176
     0
 90
        2
176
     0
 90
        0
176
     0
 90
        0
176
     0
 40
0.6
176
     0
 40
30.0
176
     0
 62
     7
420
 16777215
176
     0
 90
        1
176
     0
 90
        4
176
     0
 62
     7
176
     0
 62
   257
176
     0
 90
        1
176
     0
 90
        1
176
     0
 40
1.0
176
     0
 90
       10
176
     2
 62
     7
176
     0
 40
1.0
176
     0
 90
        1
176
     0
 90
        6
176
     0
 90
        2
176
     0
 62
     7
176
     0
 90
        5
176
     0
 90
        0
176
     0
 90
        0
176
     0
290
     0
176
     0
 90
        1
176
     0
 40
0.0
176
     0
 90
        0
176
     0
290
     0
176
     0
290
     1
176
     0
290
     1
176
     0
290
     0
176
     0
290
     0
176
     0
290
     0
176
     0
290
     0
176
     0
290
     0
176
     0
290
     0
176
     0
 90
       50
176
     0
 40
0.0
176
     0
 40
1.0
176
     0
 90
        0
176
     0
 62
    18
420
        0
176
     0
 90
       50
176
     0
 90
        3
176
     0
 62
     5
420
      255
176
     0
290
     0
176
     0
 90
       50
176
     0
 90
       50
176
     0
 90
       50
176
     0
290
     0
176
     0
 90
       50
176
     0
 62
   256
176
     0
 40
1.0
176
     0
 90
        2
176
     0
  1
strokes_ogs.tif
176
     0
290
     0
176
     0
 40
1.0
176
     0
 40
1.0
176
     0
  0
VISUALSTYLE
  5
38
102
{ACAD_REACTORS
330
2A
102
}
330
2A
100
AcDbVisualStyle
  2
Linepattern
 70
    14
177
     3
291
     1
 70
    58
 90
        2
176
     1
 90
        2
176
     1
 90
        0
176
     1
 90
        0
176
     1
 40
0.6
176
     1
 40
30.0
176
     1
 62
     7
420
 16777215
176
     1
 90
        1
176
     1
 90
        4
176
     1
 62
     7
176
     1
 62
   257
176
     1
 90
        7
176
     1
 90
        7
176
     1
 40
1.0
176
     1
 90
        8
176
     1
 62
     7
176
     1
 40
1.0
176
     1
 90
        1
176
     1
 90
        6
176
     1
 90
        2
176
     1
 62
     7
176
     1
 90
        5
176
     1
 90
        0
176
     1
 90
        0
176
     1
290
     0
176
     1
 90
        1
176
     1
 40
0.0
176
     1
 90
        0
176
     1
290
     0
176
     1
290
     1
176
     1
290
     1
176
     1
290
     0
176
     1
290
     0
176
     1
290
     0
176
     1
290
     0
176
     1
290
     0
176
     1
290
     0
176
     1
 90
       50
176
     1
 40
0.0
176
     1
 40
1.0
176
     1
 90
        0
176
     1
 62
    18
420
        0
176
     1
 90
       50
176
     1
 90
        3
176
     1
 62
     5
420
      255
176
     1
290
     0
176
     1
 90
       50
176
     1
 90
       50
176
     1
 90
       50
176
     1
290
     0
176
     1
 90
       50
176
     1
 62
   256
176
     0
 40
1.0
176
     0
 90
        2
176
     1
  1
strokes_ogs.tif
176
     1
290
     0
176
     1
 40
1.0
176
     1
 40
1.0
176
     1
  0
VISUALSTYLE
  5
25B
102
{ACAD_REACTORS
330
2A
102
}
330
2A
100
AcDbVisualStyle
  2
OverhangOff
 70
    21
177
     3
291
     1
 70
    58
 90
        2
176
     0
 90
        2
176
     0
 90
        0
176
     0
 90
        0
176
     0
 40
0.6
176
     0
 40
30.0
176
     0
 62
     7
420
 16777215
176
     0
 90
        1
176
     0
 90
        4
176
     0
 62
     7
176
     0
 62
   257
176
     0
 90
        1
176
     0
 90
        1
176
     0
 40
1.0
176
     0
 90
        9
176
     2
 62
     7
176
     0
 40
1.0
176
     0
 90
        1
176
     0
 90
        6
176
     0
 90
        2
176
     0
 62
     7
176
     0
 90
        5
176
     0
 90
        0
176
     0
 90
        0
176
     0
290
     0
176
     0
 90
        1
176
     0
 40
0.0
176
     0
 90
        0
176
     0
290
     0
176
     0
290
     1
176
     0
290
     1
176
     0
290
     0
176
     0
290
     0
176
     0
290
     0
176
     0
290
     0
176
     0
290
     0
176
     0
290
     0
176
     0
 90
       50
176
     0
 40
0.0
176
     0
 40
1.0
176
     0
 90
        0
176
     0
 62
    18
420
        0
176
     0
 90
       50
176
     0
 90
        3
176
     0
 62
     5
420
      255
176
     0
290
     0
176
     0
 90
       50
176
     0
 90
       50
176
     0
 90
       50
176
     0
290
     0
176
     0
 90
       50
176
     0
 62
   256
176
     0
 40
1.0
176
     0
 90
        2
176
     0
  1
strokes_ogs.tif
176
     0
290
     0
176
     0
 40
1.0
176
     0
 40
1.0
176
     0
  0
VISUALSTYLE
  5
33
102
{ACAD_REACTORS
330
2A
102
}
330
2A
100
AcDbVisualStyle
  2
Realistic
 70
     8
177
     3
291
     0
 70
    58
 90
        2
176
     1
 90
        2
176
     1
 90
        0
176
     1
 90
        0
176
     1
 40
0.6
176
     1
 40
30.0
176
     1
 62
     7
420
 16777215
176
     1
 90
        1
176
     1
 90
        0
176
     1
 62
     7
176
     1
 62
   257
176
     1
 90
        1
176
     1
 90
        1
176
     1
 40
1.0
176
     1
 90
        8
176
     1
 62
     8
420
  7895160
176
     1
 40
1.0
176
     1
 90
        1
176
     1
 90
        6
176
     1
 90
        2
176
     1
 62
     7
176
     1
 90
        5
176
     1
 90
        0
176
     1
 90
        0
176
     1
290
     0
176
     1
 90
       13
176
     1
 40
0.0
176
     1
 90
        0
176
     1
290
     0
176
     1
290
     1
176
     1
290
     1
176
     1
290
     0
176
     1
290
     0
176
     1
290
     0
176
     1
290
     0
176
     1
290
     0
176
     1
290
     0
176
     1
 90
       50
176
     1
 40
0.0
176
     1
 40
1.0
176
     1
 90
        0
176
     1
 62
    18
420
        0
176
     1
 90
       50
176
     1
 90
        3
176
     1
 62
     5
420
      255
176
     1
290
     0
176
     1
 90
       50
176
     1
 90
       50
176
     1
 90
       50
176
     1
290
     0
176
     1
 90
       50
176
     1
 62
   256
176
     0
 40
1.0
176
     0
 90
        2
176
     1
  1
strokes_ogs.tif
176
     1
290
     0
176
     1
 40
1.0
176
     1
 40
1.0
176
     1
  0
VISUALSTYLE
  5
259
102
{ACAD_REACTORS
330
2A
102
}
330
2A
100
AcDbVisualStyle
  2
Shaded
 70
    27
177
     3
291
     0
 70
    58
 90
        2
176
     1
 90
        2
176
     1
 90
        1
176
     1
 90
        2
176
     1
 40
0.6
176
     1
 40
30.0
176
     1
 62
     7
420
 16777215
176
     1
 90
        0
176
     1
 90
        4
176
     1
 62
     7
176
     1
 62
   257
176
     1
 90
        1
176
     1
 90
        1
176
     1
 40
1.0
176
     1
 90
        8
176
     1
 62
   257
176
     1
 40
1.0
176
     1
 90
        1
176
     1
 90
        6
176
     1
 90
        2
176
     1
 62
     8
420
  7895160
176
     1
 90
        3
176
     1
 90
        0
176
     1
 90
        0
176
     1
290
     0
176
     1
 90
        5
176
     1
 40
0.0
176
     1
 90
        0
176
     1
290
     0
176
     1
290
     1
176
     1
290
     1
176
     1
290
     0
176
     1
290
     0
176
     1
290
     0
176
     1
290
     0
176
     1
290
     0
176
     1
290
     0
176
     1
 90
       50
176
     1
 40
0.0
176
     1
 40
1.0
176
     1
 90
        0
176
     1
 62
    18
420
        0
176
     1
 90
       50
176
     1
 90
        3
176
     1
 62
     5
420
      255
176
     1
290
     0
176
     1
 90
       50
176
     1
 90
       50
176
     1
 90
       50
176
     1
290
     0
176
     1
 90
       50
176
     1
 62
   256
176
     0
 40
1.0
176
     0
 90
        2
176
     1
  1
strokes_ogs.tif
176
     1
290
     0
176
     1
 40
1.0
176
     1
 40
1.0
176
     1
  0
VISUALSTYLE
  5
258
102
{ACAD_REACTORS
330
2A
102
}
330
2A
100
AcDbVisualStyle
  2
Shaded with edges
 70
    26
177
     3
291
     0
 70
    58
 90
        2
176
     1
 90
        2
176
     1
 90
        1
176
     1
 90
        2
176
     1
 40
0.6
176
     1
 40
30.0
176
     1
 62
     7
420
 16777215
176
     1
 90
        1
176
     1
 90
       10
176
     1
 62
     7
176
     1
 62
   257
176
     1
 90
        2
176
     1
 90
        1
176
     1
 40
1.0
176
     1
 90
        8
176
     1
 62
   257
176
     1
 40
1.0
176
     1
 90
        1
176
     1
 90
        6
176
     1
 90
        2
176
     1
 62
     7
176
     1
 90
        3
176
     1
 90
        0
176
     1
 90
        0
176
     1
290
     0
176
     1
 90
        5
176
     1
 40
0.0
176
     1
 90
        0
176
     1
290
     0
176
     1
290
     1
176
     1
290
     1
176
     1
290
     0
176
     1
290
     0
176
     1
290
     0
176
     1
290
     0
176
     1
290
     0
176
     1
290
     0
176
     1
 90
       50
176
     1
 40
0.0
176
     1
 40
1.0
176
     1
 90
        0
176
     1
 62
    18
420
        0
176
     1
 90
       50
176
     1
 90
        3
176
     1
 62
     5
420
      255
176
     1
290
     0
176
     1
 90
       50
176
     1
 90
       50
176
     1
 90
       50
176
     1
290
     0
176
     1
 90
       50
176
     1
 62
   256
176
     0
 40
1.0
176
     0
 90
        2
176
     1
  1
strokes_ogs.tif
176
     1
290
     0
176
     1
 40
1.0
176
     1
 40
1.0
176
     1
  0
VISUALSTYLE
  5
255
102
{ACAD_REACTORS
330
2A
102
}
330
2A
100
AcDbVisualStyle
  2
Shades of Gray
 70
    23
177
     3
291
     0
 70
    58
 90
        2
176
     1
 90
        2
176
     1
 90
        3
176
     1
 90
        0
176
     1
 40
0.6
176
     1
 40
30.0
176
     1
 62
     7
420
 16777215
176
     1
 90
        2
176
     1
 90
        2
176
     1
 62
     7
176
     1
 62
     7
176
     1
 90
        1
176
     1
 90
        1
176
     1
 40
40.0
176
     1
 90
        8
176
     1
 62
     7
176
     1
 40
1.0
176
     1
 90
        1
176
     1
 90
        6
176
     1
 90
        2
176
     1
 62
     7
176
     1
 90
        3
176
     1
 90
        0
176
     1
 90
        0
176
     1
290
     0
176
     1
 90
        1
176
     1
 40
0.0
176
     1
 90
        0
176
     1
290
     0
176
     1
290
     1
176
     1
290
     1
176
     1
290
     0
176
     1
290
     0
176
     1
290
     0
176
     1
290
     0
176
     1
290
     0
176
     1
290
     0
176
     1
 90
       50
176
     1
 40
0.0
176
     1
 40
1.0
176
     1
 90
        0
176
     1
 62
    18
420
        0
176
     1
 90
       50
176
     1
 90
        3
176
     1
 62
     5
420
      255
176
     1
290
     0
176
     1
 90
       50
176
     1
 90
       50
176
     1
 90
       50
176
     1
290
     0
176
     1
 90
       50
176
     1
 62
   256
176
     0
 40
1.0
176
     0
 90
        2
176
     1
  1
strokes_ogs.tif
176
     1
290
     0
176
     1
 40
1.0
176
     1
 40
1.0
176
     1
  0
VISUALSTYLE
  5
256
102
{ACAD_REACTORS
330
2A
102
}
330
2A
100
AcDbVisualStyle
  2
Sketchy
 70
    24
177
     3
291
     0
 70
    58
 90
        1
176
     1
 90
        2
176
     1
 90
        2
176
     1
 90
        0
176
     1
 40
0.6
176
     1
 40
30.0
176
     1
 62
     7
420
 16777215
176
     1
 90
        2
176
     1
 90
        2
176
     1
 62
     7
176
     1
 62
     7
176
     1
 90
        1
176
     1
 90
        1
176
     1
 40
40.0
176
     1
 90
       11
176
     1
 62
     7
176
     1
 40
1.0
176
     1
 90
        1
176
     1
 90
        6
176
     1
 90
        2
176
     1
 62
     7
176
     1
 90
        6
176
     1
 90
        0
176
     1
 90
        0
176
     1
290
     0
176
     1
 90
        1
176
     1
 40
0.0
176
     1
 90
        0
176
     1
290
     0
176
     1
290
     1
176
     1
290
     1
176
     1
290
     0
176
     1
290
     0
176
     1
290
     0
176
     1
290
     0
176
     1
290
     0
176
     1
290
     0
176
     1
 90
       50
176
     1
 40
0.0
176
     1
 40
1.0
176
     1
 90
        0
176
     1
 62
    18
420
        0
176
     1
 90
       50
176
     1
 90
        3
176
     1
 62
     5
420
      255
176
     1
290
     0
176
     1
 90
       50
176
     1
 90
       50
176
     1
 90
       50
176
     1
290
     0
176
     1
 90
       50
176
     1
 62
   256
176
     0
 40
1.0
176
     0
 90
        2
176
     1
  1
strokes_ogs.tif
176
     1
290
     0
176
     1
 40
1.0
176
     1
 40
1.0
176
     1
  0
VISUALSTYLE
  5
37
102
{ACAD_REACTORS
330
2A
102
}
330
2A
100
AcDbVisualStyle
  2
Thicken
 70
    13
177
     3
291
     1
 70
    58
 90
        2
176
     1
 90
        2
176
     1
 90
        0
176
     1
 90
        0
176
     1
 40
0.6
176
     1
 40
30.0
176
     1
 62
     7
420
 16777215
176
     1
 90
        1
176
     1
 90
        4
176
     1
 62
     7
176
     1
 62
   257
176
     1
 90
        1
176
     1
 90
        1
176
     1
 40
1.0
176
     1
 90
       12
176
     1
 62
     7
176
     1
 40
1.0
176
     1
 90
        1
176
     1
 90
        6
176
     1
 90
        2
176
     1
 62
     7
176
     1
 90
        5
176
     1
 90
        0
176
     1
 90
        0
176
     1
290
     0
176
     1
 90
        1
176
     1
 40
0.0
176
     1
 90
        0
176
     1
290
     0
176
     1
290
     1
176
     1
290
     1
176
     1
290
     0
176
     1
290
     0
176
     1
290
     0
176
     1
290
     0
176
     1
290
     0
176
     1
290
     0
176
     1
 90
       50
176
     1
 40
0.0
176
     1
 40
1.0
176
     1
 90
        0
176
     1
 62
    18
420
        0
176
     1
 90
       50
176
     1
 90
        3
176
     1
 62
     5
420
      255
176
     1
290
     0
176
     1
 90
       50
176
     1
 90
       50
176
     1
 90
       50
176
     1
290
     0
176
     1
 90
       50
176
     1
 62
   256
176
     0
 40
1.0
176
     0
 90
        2
176
     1
  1
strokes_ogs.tif
176
     1
290
     0
176
     1
 40
1.0
176
     1
 40
1.0
176
     1
  0
VISUALSTYLE
  5
253
102
{ACAD_REACTORS
330
2A
102
}
330
2A
100
AcDbVisualStyle
  2
Wireframe
 70
     5
177
     3
291
     0
 70
    58
 90
        0
176
     1
 90
        2
176
     1
 90
        0
176
     1
 90
        0
176
     1
 40
0.6
176
     1
 40
30.0
176
     1
 62
     7
420
 16777215
176
     1
 90
        1
176
     1
 90
        4
176
     1
 62
     7
176
     1
 62
   257
176
     1
 90
        1
176
     1
 90
        1
176
     1
 40
1.0
176
     1
 90
        0
176
     1
 62
   257
176
     1
 40
1.0
176
     1
 90
        1
176
     1
 90
        6
176
     1
 90
        2
176
     1
 62
     7
176
     1
 90
        3
176
     1
 90
        0
176
     1
 90
        0
176
     1
290
     0
176
     1
 90
        1
176
     1
 40
0.0
176
     1
 90
        0
176
     1
290
     0
176
     1
290
     1
176
     1
290
     1
176
     1
290
     0
176
     1
290
     0
176
     1
290
     0
176
     1
290
     0
176
     1
290
     0
176
     1
290
     0
176
     1
 90
       50
176
     1
 40
0.0
176
     1
 40
1.0
176
     1
 90
        0
176
     1
 62
    18
420
        0
176
     1
 90
       50
176
     1
 90
        3
176
     1
 62
     5
420
      255
176
     1
290
     0
176
     1
 90
       50
176
     1
 90
       50
176
     1
 90
       50
176
     1
290
     0
176
     1
 90
       50
176
     1
 62
   256
176
     0
 40
1.0
176
     0
 90
        2
176
     1
  1
strokes_ogs.tif
176
     1
290
     0
176
     1
 40
1.0
176
     1
 40
1.0
176
     1
  0
VISUALSTYLE
  5
257
102
{ACAD_REACTORS
330
2A
102
}
330
2A
100
AcDbVisualStyle
  2
X-Ray
 70
    25
177
     3
291
     0
 70
    58
 90
        2
176
     1
 90
        2
176
     1
 90
        1
176
     1
 90
        1
176
     1
 40
0.5
176
     1
 40
30.0
176
     1
 62
     7
420
 16777215
176
     1
 90
        1
176
     1
 90
        0
176
     1
 62
     7
176
     1
 62
   257
176
     1
 90
        1
176
     1
 90
        1
176
     1
 40
1.0
176
     1
 90
        8
176
     1
 62
     7
176
     1
 40
1.0
176
     1
 90
        1
176
     1
 90
        6
176
     1
 90
        2
176
     1
 62
     7
176
     1
 90
        3
176
     1
 90
        0
176
     1
 90
        0
176
     1
290
     0
176
     1
 90
       13
176
     1
 40
0.0
176
     1
 90
        0
176
     1
290
     0
176
     1
290
     1
176
     1
290
     1
176
     1
290
     0
176
     1
290
     0
176
     1
290
     0
176
     1
290
     0
176
     1
290
     0
176
     1
290
     0
176
     1
 90
       50
176
     1
 40
0.0
176
     1
 40
1.0
176
     1
 90
        0
176
     1
 62
    18
420
        0
176
     1
 90
       50
176
     1
 90
        3
176
     1
 62
     5
420
      255
176
     1
290
     0
176
     1
 90
       50
176
     1
 90
       50
176
     1
 90
       50
176
     1
290
     0
176
     1
 90
       50
176
     1
 62
   256
176
     0
 40
1.0
176
     0
 90
        2
176
     1
  1
strokes_ogs.tif
176
     1
290
     0
176
     1
 40
1.0
176
     1
 40
1.0
176
     1
  0
DICTIONARYVAR
  5
22E
102
{ACAD_REACTORS
330
22D
102
}
330
22D
100
DictionaryVariables
280
     0
  1
1:1
  0
DICTIONARYVAR
  5
2F2
102
{ACAD_REACTORS
330
22D
102
}
330
22D
100
DictionaryVariables
280
     0
  1
STANDARD
  0
DICTIONARYVAR
  5
2F1
102
{ACAD_REACTORS
330
22D
102
}
330
22D
100
DictionaryVariables
280
     0
  1
STANDARD
  0
DICTIONARYVAR
  5
2F3
102
{ACAD_REACTORS
330
22D
102
}
330
22D
100
DictionaryVariables
280
     0
  1
Imperial24
  0
DICTIONARYVAR
  5
2F4
102
{ACAD_REACTORS
330
22D
102
}
330
22D
100
DictionaryVariables
280
     0
  1
Imperial24
  0
DICTIONARYVAR
  5
2C8
102
{ACAD_REACTORS
330
22D
102
}
330
22D
100
DictionaryVariables
280
     0
  1
RGB:95,95,95
  0
DICTIONARYVAR
  5
2F5
102
{ACAD_REACTORS
330
22D
102
}
330
22D
100
DictionaryVariables
280
     0
  1
1
  0
DICTIONARYVAR
  5
2F6
102
{ACAD_REACTORS
330
22D
102
}
330
22D
100
DictionaryVariables
280
     0
  1
15
  0
XRECORD
  5
22C
102
{ACAD_REACTORS
330
22B
102
}
330
22B
100
AcDbXrecord
280
     1
1000
This DWG file was created in ArchiCAD(TM)®
  0
DICTIONARY
  5
2EE
330
263
100
AcDbDictionary
280
     1
281
     1
  3
ACAD_XREC_ROUNDTRIP
360
47C
  0
DICTIONARY
  5
2EC
330
261
100
AcDbDictionary
280
     1
281
     1
  3
ACAD_XREC_ROUNDTRIP
360
47B
  0
DICTIONARY
  5
479
330
25E
100
AcDbDictionary
280
     1
281
     1
  3
ACAD_ROUNDTRIP_2008_TABLESTYLE_CELLSTYLEMAP
360
47A
  0
XRECORD
  5
47C
102
{ACAD_REACTORS
330
2EE
102
}
330
2EE
100
AcDbXrecord
280
     1
102
DISPLAYNAME
  1
Imperial24
102
FLAGS
 90
        0
  0
XRECORD
  5
47B
102
{ACAD_REACTORS
330
2EC
102
}
330
2EC
100
AcDbXrecord
280
     1
102
DISPLAYNAME
  1
Imperial24
102
FLAGS
 90
        0
  0
CELLSTYLEMAP
  5
47A
102
{ACAD_REACTORS
330
479
102
}
330
479
100
AcDbCellStyleMap
 90
        3
300
CELLSTYLE
  1
TABLEFORMAT_BEGIN
 90
        5
170
     1
 91
        0
 92
    32768
 62
   257
 93
        1
300
CONTENTFORMAT
  1
CONTENTFORMAT_BEGIN
 90
        0
 91
        0
 92
      512
 93
        0
300

 40
0.0
140
1.0
 94
        5
 62
     0
340
11
144
0.25
309
CONTENTFORMAT_END
171
     0
 94
        0
309
TABLEFORMAT_END
  1
CELLSTYLE_BEGIN
 90
        1
 91
        1
300
_TITLE
309
CELLSTYLE_END
300
CELLSTYLE
  1
TABLEFORMAT_BEGIN
 90
        5
170
     1
 91
        0
 92
        0
 62
   257
 93
        1
300
CONTENTFORMAT
  1
CONTENTFORMAT_BEGIN
 90
        0
 91
        0
 92
      512
 93
        0
300

 40
0.0
140
1.0
 94
        5
 62
     0
340
11
144
0.18
309
CONTENTFORMAT_END
171
     0
 94
        0
309
TABLEFORMAT_END
  1
CELLSTYLE_BEGIN
 90
        2
 91
        1
300
_HEADER
309
CELLSTYLE_END
300
CELLSTYLE
  1
TABLEFORMAT_BEGIN
 90
        5
170
     1
 91
        0
 92
        0
 62
   257
 93
        1
300
CONTENTFORMAT
  1
CONTENTFORMAT_BEGIN
 90
        0
 91
        0
 92
      512
 93
        0
300

 40
0.0
140
1.0
 94
        2
 62
     0
340
11
144
0.18
309
CONTENTFORMAT_END
171
     0
 94
        0
309
TABLEFORMAT_END
  1
CELLSTYLE_BEGIN
 90
        3
 91
        2
300
_DATA
309
CELLSTYLE_END
  0
ENDSEC
  0
SECTION
  2
ACDSDATA
 70
     2
 71
     6
  0
ACDSSCHEMA
 90
        0
  1
AcDb_Thumbnail_Schema
  2
AcDbDs::ID
280
    10
 91
        8
  2
Thumbnail_Data
280
    15
 91
        0
101
ACDSRECORD
 95
        0
 90
        1
  2
AcDbDs::TreatedAsObjectData
280
     1
291
     1
101
ACDSRECORD
 95
        0
 90
        2
  2
AcDbDs::Legacy
280
     1
291
     1
101
ACDSRECORD
  1
AcDbDs::ID
 90
        3
  2
AcDs:Indexable
280
     1
291
     1
101
ACDSRECORD
  1
AcDbDs::ID
 90
        4
  2
AcDbDs::HandleAttribute
280
     7
282
     1
  0
ACDSSCHEMA
 90
        1
  1
AcDbDs::TreatedAsObjectDataSchema
  2
AcDbDs::TreatedAsObjectData
280
     1
 91
        0
  0
ACDSSCHEMA
 90
        2
  1
AcDbDs::LegacySchema
  2
AcDbDs::Legacy
280
     1
 91
        0
  0
ACDSSCHEMA
 90
        3
  1
AcDbDs::IndexedPropertySchema
  2
AcDs:Indexable
280
     1
 91
        0
  0
ACDSSCHEMA
 90
        4
  1
AcDbDs::HandleAttributeSchema
  2
AcDbDs::HandleAttribute
280
     7
 91
        1
284
     1
  0
ACDSRECORD
 90
        0
  2
AcDbDs::ID
280
    10
320
22
  2
Thumbnail_Data
280
    15
 94
     2270
310
89504E470D0A1A0A0000000D49484452000001000000008D08030000006FF554E600000300504C5445212830000000C8C8C80000000000000000000000000000000000000000000000000000330000660000990000CC0000FF0033000033330033660033990033CC0033FF0066000066330066660066990066CC0066FF0099
310
000099330099660099990099CC0099FF00CC0000CC3300CC6600CC9900CCCC00CCFF00FF0000FF3300FF6600FF9900FFCC00FFFF3300003300333300663300993300CC3300FF3333003333333333663333993333CC3333FF3366003366333366663366993366CC3366FF3399003399333399663399993399CC3399FF33CC00
310
33CC3333CC6633CC9933CCCC33CCFF33FF0033FF3333FF6633FF9933FFCC33FFFF6600006600336600666600996600CC6600FF6633006633336633666633996633CC6633FF6666006666336666666666996666CC6666FF6699006699336699666699996699CC6699FF66CC0066CC3366CC6666CC9966CCCC66CCFF66FF0066
310
FF3366FF6666FF9966FFCC66FFFF9900009900339900669900999900CC9900FF9933009933339933669933999933CC9933FF9966009966339966669966999966CC9966FF9999009999339999669999999999CC9999FF99CC0099CC3399CC6699CC9999CCCC99CCFF99FF0099FF3399FF6699FF9999FFCC99FFFFCC0000CC00
310
33CC0066CC0099CC00CCCC00FFCC3300CC3333CC3366CC3399CC33CCCC33FFCC6600CC6633CC6666CC6699CC66CCCC66FFCC9900CC9933CC9966CC9999CC99CCCC99FFCCCC00CCCC33CCCC66CCCC99CCCCCCCCCCFFCCFF00CCFF33CCFF66CCFF99CCFFCCCCFFFFFF0000FF0033FF0066FF0099FF00CCFF00FFFF3300FF3333
310
FF3366FF3399FF33CCFF33FFFF6600FF6633FF6666FF6699FF66CCFF66FFFF9900FF9933FF9966FF9999FF99CCFF99FFFFCC00FFCC33FFCC66FFCC99FFCCCCFFCCFFFFFF00FFFF33FFFF66FFFF99FFFFCCFFFFFF0000000D0D0D1A1A1A2828283535354343435050505D5D5D6B6B6B787878868686939393A1A1A1AEAEAEBB
310
BBBBC9C9C9D6D6D6E4E4E4F1F1F1FFFFFF000000000000000000000000000000000000000000000000000000000000B21171F6000005994944415478DAED9D4B92EB200C45B5FFA5BD9D64ECBAF3D7E5C42040086C072C200CBA9DF853D1E177854442DBA305205EDC4BF017E9257F7F209E166FD1CF3E0C20FE80705642FE
310
C01F0090ED816AEE3000400700EC757DFC3BCE81B78EE31CE0EEF8BCE750B143DB00822E000602211C90EF0288C1B9DBFCB3D8A38C0180D002E0CDD50010EB2EF0D5EEFFB9D3A601903C06A8008E777C15FB13DC58FEEE2000D259200BC07701DFFFA316F0B9DEBF847D004F144343C08200E807606900581E402C048FC1FC
310
33B50B7217AAE0C7E80088E917D9A60BCECEE800422D7FA81DEE121D7E028039BB802CF39DB40B45E34800203883D15F62220EBE412C072091F6730380ABEFA09FBB6610897B84AB242303385F30B20EC05D2D88EF08A906A6BD2E974994E0AB4F0BF801181B00B61F801A00E0233DC45900FA5D28CC16E601500980F07A00
310
00C8C405A2E8C647E141D0446E1E64BE1110DFC56F9249580280741D1B2C4CE4D7CC03EDCBA472103C92E5B2F516200200A475EE249076286576D768008E1040D202BC638C5C0BE0910404CE9345009083A3416093F766DEE5E34807A2901AC0EE8A460BE3002A97FEBEEB3BAD0320E33B990430BD12C4F603F003900780B5
310
016025004282045C442048769A1380E0CC418A7DCC0A40F26EC1841D947CC90500A44192D900209F074B61CED37400ACAC873E05003064FF03006CD9DF1F8031FBF7E9A63E9E5771E93BC8A56545D802F0B62B5F02F393B74E0330673F952BFD6DB1331C050E45FB014BF6535DCB4FCC55102800B027079AB29FF4569FC3E1
310
92392A01F887D30025801060494CD88441E2CFFEDC8042E394F433E70C08D13800348AFD2895BA47F0E3770B489E4C4601485E38FB87F338E51E40581B8055FBBF0B40E948581C007E00B0CE1890ED058B03A868029F88B67A05E5F795B34498FA06770FC0BFB8E800FE2E287C18D297C2B5C572BFDF0267C2CBB784D0BFF3
310
457BA04F8549768D871940FE8AF492B3D1845B0070BAFC3501A05CBFF2A669770DDF60EFF3608EF4F973008AAE5FA1C9BEE84871AE39FA03A07FBC2C008A76CB0B0082277C0700B01501B814EF9A231D40B905443BC27500B80DA0B87A85BD6A9D8DE52307E0A58FF10980607017BE6180A29D76F5B3C0ADF8C535002F3CB4
310
35E01C005464F39EEE02EF15533CBE4BA20240551AD38541F000E01F6273C7485D16CFBB33BF5C1B2F1E0DD305D89AA00A6037C4575FF1E81804450099FDC2D436405E0A005501D88DAB3952A741330082B5EE065DA00820C8116A9D2250B07FEBA80421793CCD13850AF6F75482E04E6DF8E548FD00A431B0364AB0A60550
310
975431B5FA5B00C88F6980BC39A8E3182084FABEDE0588C86A74580C757676879F042047853B4E830F03C844C5DB284183007259011D95E09300F259116B7401252964FA4110BAFD5DD7049F690150EDFFBA106AEDDC5D00809E00C81C80CE5D8068F141D028807ED3A05500378550BD12B40BE09614AE57828601F471862C
310
03E8E20E9B06D06341C49E0EE8BC24661D40F34551E35DA0FDB2F80000DA06464600D03434360480F3C1D12994E09DF0F81C4AF06A82C47C6340CB1419F33AA07192D44800DAA4C98DD3051A254A8E05A041AAEC6000BE9F2C6D0FC0BD74F9DDAA976BE2C52383001C82EC812A84C869BDAA2393004A7C265782E54D1EA4EE
310
039B5708B91DF1C14E05FE62250092FD1F00734F83D810FCC063D418A617421F00FE774C02FB1700E0BFF424DCBC0736064CDD05DE3F0403D9FE8B83E080CE1064FBF7F7C757824500C9E6553E114EA0048BEB01B9FADF07C10B4A90C60420D6FFE442089B07204E04B30F820C407E229C781A745F1EC77EE77A2921C40068
310
42685A002C2EA00BA159BB00B62D1C03642134ED2008B62A9A1142985A090600B2F57F4509D268D1E1500871AF7866251803C0626300B610405E0CAF0100596768D26910618E90EA0C4D29845200796768460088A2A3533B43FF01F94240E4C78D394E0000000049454E44AE426082
  0
ENDSEC
  0
EOF
