  0
SECTION
  2
HEADER
  9
$ACADVER
  1
AC1032
  9
$ACADMAINTVER
 90
       55
  9
$DWGCODEPAGE
  3
ANSI_1252
  9
$LASTSAVEDBY
  1
Ben
  9
$REQUIREDVERSIONS
160
                 0
  9
$INSBASE
 10
0.0
 20
0.0
 30
0.0
  9
$EXTMIN
 10
26510.82222200725
 20
-9084.983231434341
 30
0.0
  9
$EXTMAX
 10
26883.96394909323
 20
-8544.933615795546
 30
0.0
  9
$LIMMIN
 10
0.0
 20
0.0
  9
$LIMMAX
 10
12.0
 20
9.0
  9
$ORTHOMODE
 70
     0
  9
$REGENMODE
 70
     1
  9
$FILLMODE
 70
     1
  9
$QTEXTMODE
 70
     0
  9
$MIRRTEXT
 70
     1
  9
$LTSCALE
 40
5.0
  9
$ATTMODE
 70
     1
  9
$TEXTSIZE
 40
0.2
  9
$TRACEWID
 40
0.05
  9
$TEXTSTYLE
  7
Standard
  9
$CLAYER
  8
Specialized_Lines
  9
$CELTYPE
  6
PLASTER
  9
$CECOLOR
 62
   256
  9
$CELTSCALE
 40
3.0
  9
$DISPSILH
 70
     0
  9
$DIMSCALE
 40
1.0
  9
$DIMASZ
 40
0.18
  9
$DIMEXO
 40
0.0625
  9
$DIMDLI
 40
0.38
  9
$DIMRND
 40
0.0
  9
$DIMDLE
 40
0.0
  9
$DIMEXE
 40
0.18
  9
$DIMTP
 40
0.0
  9
$DIMTM
 40
0.0
  9
$DIMTXT
 40
0.18
  9
$DIMCEN
 40
0.09
  9
$DIMTSZ
 40
0.0
  9
$DIMTOL
 70
     0
  9
$DIMLIM
 70
     0
  9
$DIMTIH
 70
     1
  9
$DIMTOH
 70
     1
  9
$DIMSE1
 70
     0
  9
$DIMSE2
 70
     0
  9
$DIMTAD
 70
     0
  9
$DIMZIN
 70
     0
  9
$DIMBLK
  1

  9
$DIMASO
 70
     1
  9
$DIMSHO
 70
     1
  9
$DIMPOST
  1

  9
$DIMAPOST
  1

  9
$DIMALT
 70
     0
  9
$DIMALTD
 70
     2
  9
$DIMALTF
 40
25.4
  9
$DIMLFAC
 40
1.0
  9
$DIMTOFL
 70
     0
  9
$DIMTVP
 40
0.0
  9
$DIMTIX
 70
     0
  9
$DIMSOXD
 70
     0
  9
$DIMSAH
 70
     0
  9
$DIMBLK1
  1

  9
$DIMBLK2
  1

  9
$DIMSTYLE
  2
Standard
  9
$DIMCLRD
 70
     0
  9
$DIMCLRE
 70
     0
  9
$DIMCLRT
 70
     0
  9
$DIMTFAC
 40
1.0
  9
$DIMGAP
 40
0.09
  9
$DIMJUST
 70
     0
  9
$DIMSD1
 70
     0
  9
$DIMSD2
 70
     0
  9
$DIMTOLJ
 70
     1
  9
$DIMTZIN
 70
     0
  9
$DIMALTZ
 70
     0
  9
$DIMALTTZ
 70
     0
  9
$DIMUPT
 70
     0
  9
$DIMDEC
 70
     4
  9
$DIMTDEC
 70
     4
  9
$DIMALTU
 70
     2
  9
$DIMALTTD
 70
     2
  9
$DIMTXSTY
  7
Standard
  9
$DIMAUNIT
 70
     0
  9
$DIMADEC
 70
     0
  9
$DIMALTRND
 40
0.0
  9
$DIMAZIN
 70
     0
  9
$DIMDSEP
 70
    46
  9
$DIMATFIT
 70
     3
  9
$DIMFRAC
 70
     0
  9
$DIMLDRBLK
  1

  9
$DIMLUNIT
 70
     2
  9
$DIMLWD
 70
    -2
  9
$DIMLWE
 70
    -2
  9
$DIMTMOVE
 70
     0
  9
$DIMFXL
 40
1.0
  9
$DIMFXLON
 70
     0
  9
$DIMJOGANG
 40
0.7853981633974483
  9
$DIMTFILL
 70
     0
  9
$DIMTFILLCLR
 70
     0
  9
$DIMARCSYM
 70
     0
  9
$DIMLTYPE
  6

  9
$DIMLTEX1
  6

  9
$DIMLTEX2
  6

  9
$DIMTXTDIRECTION
 70
     0
  9
$LUNITS
 70
     2
  9
$LUPREC
 70
     4
  9
$SKETCHINC
 40
0.1
  9
$FILLETRAD
 40
0.5
  9
$AUNITS
 70
     0
  9
$AUPREC
 70
     0
  9
$MENU
  1
.
  9
$ELEVATION
 40
0.0
  9
$PELEVATION
 40
0.0
  9
$THICKNESS
 40
0.0
  9
$LIMCHECK
 70
     0
  9
$CHAMFERA
 40
0.5
  9
$CHAMFERB
 40
0.5
  9
$CHAMFERC
 40
1.0
  9
$CHAMFERD
 40
0.0
  9
$SKPOLY
 70
     0
  9
$TDCREATE
 40
2456216.553217593
  9
$TDUCREATE
 40
2456216.011556759
  9
$TDUPDATE
 40
2458610.608287037
  9
$TDUUPDATE
 40
2458610.108287037
  9
$TDINDWG
 40
0.0077768056
  9
$TDUSRTIMER
 40
0.0077768056
  9
$USRTIMER
 70
     1
  9
$ANGBASE
 50
0.0
  9
$ANGDIR
 70
     0
  9
$PDMODE
 70
     0
  9
$PDSIZE
 40
0.0
  9
$PLINEWID
 40
0.0
  9
$SPLFRAME
 70
     0
  9
$SPLINETYPE
 70
     6
  9
$SPLINESEGS
 70
     8
  9
$HANDSEED
  5
363
  9
$SURFTAB1
 70
     6
  9
$SURFTAB2
 70
     6
  9
$SURFTYPE
 70
     6
  9
$SURFU
 70
     6
  9
$SURFV
 70
     6
  9
$UCSBASE
  2

  9
$UCSNAME
  2

  9
$UCSORG
 10
0.0
 20
0.0
 30
0.0
  9
$UCSXDIR
 10
1.0
 20
0.0
 30
0.0
  9
$UCSYDIR
 10
0.0
 20
1.0
 30
0.0
  9
$UCSORTHOREF
  2

  9
$UCSORTHOVIEW
 70
     0
  9
$UCSORGTOP
 10
0.0
 20
0.0
 30
0.0
  9
$UCSORGBOTTOM
 10
0.0
 20
0.0
 30
0.0
  9
$UCSORGLEFT
 10
0.0
 20
0.0
 30
0.0
  9
$UCSORGRIGHT
 10
0.0
 20
0.0
 30
0.0
  9
$UCSORGFRONT
 10
0.0
 20
0.0
 30
0.0
  9
$UCSORGBACK
 10
0.0
 20
0.0
 30
0.0
  9
$PUCSBASE
  2

  9
$PUCSNAME
  2

  9
$PUCSORG
 10
0.0
 20
0.0
 30
0.0
  9
$PUCSXDIR
 10
1.0
 20
0.0
 30
0.0
  9
$PUCSYDIR
 10
0.0
 20
1.0
 30
0.0
  9
$PUCSORTHOREF
  2

  9
$PUCSORTHOVIEW
 70
     0
  9
$PUCSORGTOP
 10
0.0
 20
0.0
 30
0.0
  9
$PUCSORGBOTTOM
 10
0.0
 20
0.0
 30
0.0
  9
$PUCSORGLEFT
 10
0.0
 20
0.0
 30
0.0
  9
$PUCSORGRIGHT
 10
0.0
 20
0.0
 30
0.0
  9
$PUCSORGFRONT
 10
0.0
 20
0.0
 30
0.0
  9
$PUCSORGBACK
 10
0.0
 20
0.0
 30
0.0
  9
$USERI1
 70
     0
  9
$USERI2
 70
     0
  9
$USERI3
 70
     0
  9
$USERI4
 70
     0
  9
$USERI5
 70
     0
  9
$USERR1
 40
0.0
  9
$USERR2
 40
0.0
  9
$USERR3
 40
0.0
  9
$USERR4
 40
0.0
  9
$USERR5
 40
0.0
  9
$WORLDVIEW
 70
     1
  9
$SHADEDGE
 70
     3
  9
$SHADEDIF
 70
    70
  9
$TILEMODE
 70
     1
  9
$MAXACTVP
 70
    64
  9
$PINSBASE
 10
0.0
 20
0.0
 30
0.0
  9
$PLIMCHECK
 70
     0
  9
$PEXTMIN
 10
1.000000000000000E+20
 20
1.000000000000000E+20
 30
1.000000000000000E+20
  9
$PEXTMAX
 10
-1.000000000000000E+20
 20
-1.000000000000000E+20
 30
-1.000000000000000E+20
  9
$PLIMMIN
 10
0.0
 20
0.0
  9
$PLIMMAX
 10
12.0
 20
9.0
  9
$UNITMODE
 70
     0
  9
$VISRETAIN
 70
     1
  9
$PLINEGEN
 70
     0
  9
$PSLTSCALE
 70
     1
  9
$TREEDEPTH
 70
  3020
  9
$CMLSTYLE
  2
Standard
  9
$CMLJUST
 70
     0
  9
$CMLSCALE
 40
1.0
  9
$PROXYGRAPHICS
 70
     1
  9
$MEASUREMENT
 70
     0
  9
$CELWEIGHT
370
    -1
  9
$ENDCAPS
280
     0
  9
$JOINSTYLE
280
     0
  9
$LWDISPLAY
290
     1
  9
$INSUNITS
 70
     0
  9
$HYPERLINKBASE
  1

  9
$STYLESHEET
  1

  9
$XEDIT
290
     1
  9
$CEPSNTYPE
380
     0
  9
$PSTYLEMODE
290
     1
  9
$FINGERPRINTGUID
  2
{6E412A5A-3209-45EA-B6A2-D360326BE1E3}
  9
$VERSIONGUID
  2
{81F3B92D-FE59-8B4C-9F6E-B92A2D6EB708}
  9
$EXTNAMES
290
     1
  9
$PSVPSCALE
 40
0.0
  9
$OLESTARTUP
290
     0
  9
$SORTENTS
280
   127
  9
$INDEXCTL
280
     0
  9
$HIDETEXT
280
     1
  9
$XCLIPFRAME
280
     0
  9
$HALOGAP
280
     0
  9
$OBSCOLOR
 70
   257
  9
$OBSLTYPE
280
     0
  9
$INTERSECTIONDISPLAY
280
     0
  9
$INTERSECTIONCOLOR
 70
   257
  9
$DIMASSOC
280
     2
  9
$PROJECTNAME
  1

  9
$CAMERADISPLAY
290
     0
  9
$LENSLENGTH
 40
50.0
  9
$CAMERAHEIGHT
 40
0.0
  9
$STEPSPERSEC
 40
2.0
  9
$STEPSIZE
 40
6.0
  9
$3DDWFPREC
 40
2.0
  9
$PSOLWIDTH
 40
0.25
  9
$PSOLHEIGHT
 40
4.0
  9
$LOFTANG1
 40
1.570796326794896
  9
$LOFTANG2
 40
1.570796326794896
  9
$LOFTMAG1
 40
0.0
  9
$LOFTMAG2
 40
0.0
  9
$LOFTPARAM
 70
     7
  9
$LOFTNORMALS
280
     1
  9
$LATITUDE
 40
37.795
  9
$LONGITUDE
 40
-122.394
  9
$NORTHDIRECTION
 40
0.0
  9
$TIMEZONE
 70
 -8000
  9
$LIGHTGLYPHDISPLAY
280
     1
  9
$TILEMODELIGHTSYNCH
280
     1
  9
$CMATERIAL
347
3C
  9
$SOLIDHIST
280
     1
  9
$SHOWHIST
280
     1
  9
$DWFFRAME
280
     2
  9
$DGNFRAME
280
     2
  9
$REALWORLDSCALE
290
     1
  9
$INTERFERECOLOR
 62
   256
  9
$INTERFEREOBJVS
345
33
  9
$INTERFEREVPVS
346
1DB
  9
$CSHADOW
280
     0
  9
$SHADOWPLANELOCATION
 40
0.0
  0
ENDSEC
  0
SECTION
  2
CLASSES
  0
CLASS
  1
ACDBDICTIONARYWDFLT
  2
AcDbDictionaryWithDefault
  3
ObjectDBX Classes
 90
        0
 91
        1
280
     0
281
     0
  0
CLASS
  1
VISUALSTYLE
  2
AcDbVisualStyle
  3
ObjectDBX Classes
 90
     4095
 91
       26
280
     0
281
     0
  0
CLASS
  1
MATERIAL
  2
AcDbMaterial
  3
ObjectDBX Classes
 90
     1153
 91
        3
280
     0
281
     0
  0
CLASS
  1
SCALE
  2
AcDbScale
  3
ObjectDBX Classes
 90
     1153
 91
       33
280
     0
281
     0
  0
CLASS
  1
DICTIONARYVAR
  2
AcDbDictionaryVar
  3
ObjectDBX Classes
 90
        0
 91
        8
280
     0
281
     0
  0
CLASS
  1
TABLESTYLE
  2
AcDbTableStyle
  3
ObjectDBX Classes
 90
     4095
 91
        1
280
     0
281
     0
  0
CLASS
  1
MLEADERSTYLE
  2
AcDbMLeaderStyle
  3
ACDB_MLEADERSTYLE_CLASS
 90
     4095
 91
        1
280
     0
281
     0
  0
CLASS
  1
ACDBSECTIONVIEWSTYLE
  2
AcDbSectionViewStyle
  3
ObjectDBX Classes
 90
     1025
 91
        1
280
     0
281
     0
  0
CLASS
  1
ACDBDETAILVIEWSTYLE
  2
AcDbDetailViewStyle
  3
ObjectDBX Classes
 90
     1025
 91
        1
280
     0
281
     0
  0
CLASS
  1
EXACXREFPANELOBJECT
  2
ExAcXREFPanelObject
  3
EXAC_ESW
 90
     1025
 91
        1
280
     0
281
     0
  0
CLASS
  1
NPOCOLLECTION
  2
AcDbImpNonPersistentObjectsCollection
  3
ObjectDBX Classes
 90
     1153
 91
        1
280
     0
281
     0
  0
CLASS
  1
IMAGE
  2
AcDbRasterImage
  3
ISM
 90
     2175
 91
        1
280
     0
281
     1
  0
CLASS
  1
IMAGEDEF_REACTOR
  2
AcDbRasterImageDefReactor
  3
ISM
 90
        1
 91
        1
280
     0
281
     0
  0
CLASS
  1
SORTENTSTABLE
  2
AcDbSortentsTable
  3
ObjectDBX Classes
 90
        0
 91
        2
280
     0
281
     0
  0
CLASS
  1
IMAGEDEF
  2
AcDbRasterImageDef
  3
ISM
 90
        0
 91
        1
280
     0
281
     0
  0
CLASS
  1
RASTERVARIABLES
  2
AcDbRasterVariables
  3
ISM
 90
        0
 91
        1
280
     0
281
     0
  0
CLASS
  1
ACAD_EVALUATION_GRAPH
  2
AcDbEvalGraph
  3
ObjectDBX Classes
 90
     1153
 91
        0
280
     0
281
     0
  0
CLASS
  1
ACAECUSTOBJ
  2
AcAeEditorObj
  3
AcAeEditorObj
 90
     1024
 91
        0
280
     0
281
     0
  0
CLASS
  1
ACDB_DYNAMICBLOCKPURGEPREVENTER_VERSION
  2
AcDbDynamicBlockPurgePreventer
  3
ObjectDBX Classes
 90
     1153
 91
        0
280
     0
281
     0
  0
CLASS
  1
CELLSTYLEMAP
  2
AcDbCellStyleMap
  3
ObjectDBX Classes
 90
     1152
 91
        1
280
     0
281
     0
  0
ENDSEC
  0
SECTION
  2
TABLES
  0
TABLE
  2
VPORT
  5
8
330
0
100
AcDbSymbolTable
 70
     1
  0
VPORT
  5
29
330
8
100
AcDbSymbolTableRecord
100
AcDbViewportTableRecord
  2
*Active
 70
     0
 10
0.0
 20
0.0
 11
1.0
 21
1.0
 12
27006.07379012312
 22
-8817.431465436348
 13
0.0
 23
0.0
 14
0.5
 24
0.5
 15
0.5
 25
0.5
 16
0.0
 26
0.0
 36
1.0
 17
0.0
 27
0.0
 37
0.0
 40
659.0541933412606
 41
2.005224660397074
 42
50.0
 43
0.0
 44
0.0
 50
0.0
 51
0.0
 71
     0
 72
   100
 73
     1
 74
     3
 75
     0
 76
     0
 77
     0
 78
     0
281
     0
 65
     1
110
0.0
120
0.0
130
0.0
111
1.0
121
0.0
131
0.0
112
0.0
122
1.0
132
0.0
 79
     0
146
0.0
348
2F
 60
     3
 61
     5
292
     1
282
     1
141
0.0
142
0.0
 63
   250
1001
ACAD_NAV_VCDISPLAY
1070
     3
  0
ENDTAB
  0
TABLE
  2
LTYPE
  5
5
330
0
100
AcDbSymbolTable
 70
     7
  0
LTYPE
  5
14
330
5
100
AcDbSymbolTableRecord
100
AcDbLinetypeTableRecord
  2
ByBlock
 70
     0
  3

 72
    65
 73
     0
 40
0.0
  0
LTYPE
  5
15
330
5
100
AcDbSymbolTableRecord
100
AcDbLinetypeTableRecord
  2
ByLayer
 70
     0
  3

 72
    65
 73
     0
 40
0.0
  0
LTYPE
  5
16
330
5
100
AcDbSymbolTableRecord
100
AcDbLinetypeTableRecord
  2
Continuous
 70
     0
  3
Solid line
 72
    65
 73
     0
 40
0.0
  0
LTYPE
  5
173
330
5
100
AcDbSymbolTableRecord
100
AcDbLinetypeTableRecord
  2
Hidden
 70
     0
  3
- - - - - 
 72
    65
 73
     2
 40
4.938889980316162
 49
2.822222709655761
 74
     0
 49
-2.1166672706604
 74
     0
  0
LTYPE
  5
18D
330
5
100
AcDbSymbolTableRecord
100
AcDbLinetypeTableRecord
  2
Above
 70
     0
  3
- - - - - 
 72
    65
 73
     2
 40
9.599999999999999
 49
6.0
 74
     0
 49
-3.6
 74
     0
  0
LTYPE
  5
191
330
5
100
AcDbSymbolTableRecord
100
AcDbLinetypeTableRecord
  2
Sketch
 70
     0
  3
??????????
 72
    65
 73
     3
 40
40.0
 49
0.0
 74
     4
 75
     1
340
192
 46
0.3174603174603174
 50
0.0
 44
0.0
 45
0.0
 49
-40.0
 74
     0
 49
0.0
 74
     0
  0
LTYPE
  5
1F5
330
5
100
AcDbSymbolTableRecord
100
AcDbLinetypeTableRecord
  2
ZIGZAG
 70
     0
  3
Zig zag /\/\/\/\/\/\/\/\/\/\/\/\/\/\/\/\/\/\/\/
 72
    65
 73
     4
 40
0.8001000000000001
 49
0.0001
 74
     0
 49
-0.2
 74
     4
 75
   131
340
1FC
 46
0.2
 50
0.0
 44
-0.2
 45
0.0
 49
-0.4
 74
     4
 75
   131
340
1FC
 46
0.2
 50
180.0
 44
0.2
 45
0.0
 49
-0.2
 74
     0
  0
LTYPE
  5
1F6
330
5
100
AcDbSymbolTableRecord
100
AcDbLinetypeTableRecord
  2
DASHEDX2
 70
     0
  3
Dashed (2x) ____  ____  ____  ____  ____  ___
 72
    65
 73
     2
 40
1.5
 49
1.0
 74
     0
 49
-0.5
 74
     0
  0
LTYPE
  5
2B6
330
5
100
AcDbSymbolTableRecord
100
AcDbLinetypeTableRecord
  2
PLASTER
 70
     0
  3
PLASTER
 72
    65
 73
     2
 40
2.379214999999999
 49
0.000024
 74
     4
 75
     1
340
2B7
 46
0.2
 50
0.0
 44
0.0
 45
0.0
 49
-2.379191
 74
     0
  0
ENDTAB
  0
TABLE
  2
LAYER
  5
2
102
{ACAD_XDICTIONARY
360
203
102
}
330
0
100
AcDbSymbolTable
 70
     5
  0
LAYER
  5
10
102
{ACAD_XDICTIONARY
360
22E
102
}
330
2
100
AcDbSymbolTableRecord
100
AcDbLayerTableRecord
  2
0
 70
     0
 62
     7
  6
Continuous
370
    -3
390
F
347
3E
348
0
  0
LAYER
  5
46
102
{ACAD_XDICTIONARY
360
230
102
}
330
2
100
AcDbSymbolTableRecord
100
AcDbLayerTableRecord
  2
Specialized_Fills
 70
     0
 62
     7
  6
Continuous
370
    -3
390
F
347
3E
348
0
  0
LAYER
  5
171
102
{ACAD_XDICTIONARY
360
232
102
}
330
2
100
AcDbSymbolTableRecord
100
AcDbLayerTableRecord
  2
Specialized_Text
 70
     0
 62
     7
  6
Continuous
370
    -3
390
F
347
3E
348
0
  0
LAYER
  5
1F7
102
{ACAD_XDICTIONARY
360
1F8
102
}
330
2
100
AcDbSymbolTableRecord
100
AcDbLayerTableRecord
  2
Specialized_Lines
 70
     0
 62
     7
  6
Continuous
370
    -3
390
F
347
3E
348
0
  0
LAYER
  5
1F9
102
{ACAD_XDICTIONARY
360
1FA
102
}
330
2
100
AcDbSymbolTableRecord
100
AcDbLayerTableRecord
  2
Viewport
 70
     0
 62
     7
  6
Continuous
370
    -3
390
F
347
3E
348
0
1001
AcAecLayerStandard
1000

1000

1001
AcCmTransparency
1071
        0
  0
ENDTAB
  0
TABLE
  2
STYLE
  5
3
330
0
100
AcDbSymbolTable
 70
     7
  0
STYLE
  5
11
330
3
100
AcDbSymbolTableRecord
100
AcDbTextStyleTableRecord
  2
Standard
 70
     0
 40
0.0
 41
1.0
 50
0.0
 71
     0
 42
0.2
  3
txt
  4
BIGFONT.SHX
  0
STYLE
  5
192
330
3
100
AcDbSymbolTableRecord
100
AcDbTextStyleTableRecord
  2

 70
     1
 40
0.2
 41
1.0
 50
0.0
 71
     0
 42
0.2
  3
22B Garage Door Jamb_ PLASTERED JAMB1.Shx
  4

  0
STYLE
  5
195
330
3
100
AcDbSymbolTableRecord
100
AcDbTextStyleTableRecord
  2
GENERATED_STYLE_1
 70
     0
 40
0.0
 41
1.0
 50
0.0
 71
     0
 42
0.2
  3
ARIALUNI.TTF
  4

1001
ACAD
1000
Arial Unicode MS
1071
       34
  0
STYLE
  5
1FB
330
3
100
AcDbSymbolTableRecord
100
AcDbTextStyleTableRecord
  2
GENERATED_STYLE_2
 70
     0
 40
0.0
 41
1.0
 50
0.0
 71
     0
 42
0.2
  3
ARIALUNI.TTF
  4

1001
ACAD
1000
Arial Unicode MS
1071
       34
  0
STYLE
  5
1FC
330
3
100
AcDbSymbolTableRecord
100
AcDbTextStyleTableRecord
  2

 70
     1
 40
0.0
 41
1.0
 50
0.0
 71
     0
 42
0.2
  3
ltypeshp.shx
  4

  0
STYLE
  5
2B7
330
3
100
AcDbSymbolTableRecord
100
AcDbTextStyleTableRecord
  2

 70
     1
 40
0.0
 41
1.0
 50
0.0
 71
     0
 42
0.2
  3
P:\VERT-X CONSULTING LTD\2013\10 OCT\1310-015- SPECIALIZED CONSTRUCTION PRODUCTS - CONTRACT DRAUGHTING\DRAWINGS\PLASTER.SHX
  4

  0
STYLE
  5
33E
330
3
100
AcDbSymbolTableRecord
100
AcDbTextStyleTableRecord
  2
1-2 SPECIALIZED
 70
     0
 40
4.25
 41
1.0
 50
0.0
 71
     0
 42
4.25
  3
ARIALUNI.TTF
  4

1001
ACAD
1000
Arial Unicode MS
1071
       34
  0
ENDTAB
  0
TABLE
  2
VIEW
  5
6
330
0
100
AcDbSymbolTable
 70
     0
  0
ENDTAB
  0
TABLE
  2
UCS
  5
7
330
0
100
AcDbSymbolTable
 70
     0
  0
ENDTAB
  0
TABLE
  2
APPID
  5
9
330
0
100
AcDbSymbolTable
 70
    11
  0
APPID
  5
12
330
9
100
AcDbSymbolTableRecord
100
AcDbRegAppTableRecord
  2
ACAD
 70
     0
  0
APPID
  5
1FD
330
9
100
AcDbSymbolTableRecord
100
AcDbRegAppTableRecord
  2
ACAD_PSEXT
 70
     0
  0
APPID
  5
1FE
330
9
100
AcDbSymbolTableRecord
100
AcDbRegAppTableRecord
  2
ACAD_NAV_VCDISPLAY
 70
     0
  0
APPID
  5
1FF
330
9
100
AcDbSymbolTableRecord
100
AcDbRegAppTableRecord
  2
AcAecLayerStandard
 70
     0
  0
APPID
  5
200
330
9
100
AcDbSymbolTableRecord
100
AcDbRegAppTableRecord
  2
AcCmTransparency
 70
     0
  0
APPID
  5
201
330
9
100
AcDbSymbolTableRecord
100
AcDbRegAppTableRecord
  2
GradientColor1ACI
 70
     0
  0
APPID
  5
202
330
9
100
AcDbSymbolTableRecord
100
AcDbRegAppTableRecord
  2
GradientColor2ACI
 70
     0
  0
APPID
  5
250
330
9
100
AcDbSymbolTableRecord
100
AcDbRegAppTableRecord
  2
ACAUTHENVIRON
 70
     0
  0
APPID
  5
25F
330
9
100
AcDbSymbolTableRecord
100
AcDbRegAppTableRecord
  2
AcDbDynamicBlockTrueName
 70
     0
  0
APPID
  5
260
330
9
100
AcDbSymbolTableRecord
100
AcDbRegAppTableRecord
  2
AcDbDynamicBlockGUID
 70
     0
  0
APPID
  5
262
330
9
100
AcDbSymbolTableRecord
100
AcDbRegAppTableRecord
  2
ACAD_EXEMPT_FROM_CAD_STANDARDS
 70
     0
  0
ENDTAB
  0
TABLE
  2
DIMSTYLE
  5
A
330
0
100
AcDbSymbolTable
 70
     2
100
AcDbDimStyleTable
 71
     1
340
27
  0
DIMSTYLE
105
27
330
A
100
AcDbSymbolTableRecord
100
AcDbDimStyleTableRecord
  2
Standard
 70
     0
340
11
  0
DIMSTYLE
105
198
330
A
100
AcDbSymbolTableRecord
100
AcDbDimStyleTableRecord
  2
GENERATED_STYLE__1
 70
     0
 41
7.295999999999999
172
     1
341
199
  0
ENDTAB
  0
TABLE
  2
BLOCK_RECORD
  5
1
330
0
100
AcDbSymbolTable
 70
     4
  0
BLOCK_RECORD
  5
1F
102
{ACAD_XDICTIONARY
360
33B
102
}
330
1
100
AcDbSymbolTableRecord
100
AcDbBlockTableRecord
  2
*Model_Space
340
22
 70
     0
280
     1
281
     0
  0
BLOCK_RECORD
  5
1B
330
1
100
AcDbSymbolTableRecord
100
AcDbBlockTableRecord
  2
*Paper_Space
340
1E
 70
     0
280
     1
281
     0
  0
BLOCK_RECORD
  5
23
330
1
100
AcDbSymbolTableRecord
100
AcDbBlockTableRecord
  2
*Paper_Space0
340
26
 70
     0
280
     1
281
     0
  0
BLOCK_RECORD
  5
3F
102
{ACAD_XDICTIONARY
360
251
102
}
330
1
100
AcDbSymbolTableRecord
100
AcDbBlockTableRecord
  2
Fill_1
340
0
102
{BLKREFS
331
165
102
}
 70
     0
280
     1
281
     0
1001
AcDbDynamicBlockGUID
1000
{DCCB1D66-C75E-4FC0-B007-9CE209698354}
  0
BLOCK_RECORD
  5
199
330
1
100
AcDbSymbolTableRecord
100
AcDbBlockTableRecord
  2
ARROWHEAD_5
340
0
 70
     0
280
     1
281
     0
  0
BLOCK_RECORD
  5
1B0
330
1
100
AcDbSymbolTableRecord
100
AcDbBlockTableRecord
  2
22B Garage Door Jamb_ PLASTERED_STORY_MARKER
340
0
 70
     0
280
     1
281
     0
  0
ENDTAB
  0
ENDSEC
  0
SECTION
  2
BLOCKS
  0
BLOCK
  5
20
330
1F
100
AcDbEntity
  8
0
100
AcDbBlockBegin
  2
*Model_Space
 70
     0
 10
0.0
 20
0.0
 30
0.0
  3
*Model_Space
  1

  0
ENDBLK
  5
21
330
1F
100
AcDbEntity
  8
0
100
AcDbBlockEnd
  0
BLOCK
  5
1C
330
1B
100
AcDbEntity
 67
     1
  8
0
100
AcDbBlockBegin
  2
*Paper_Space
 70
     0
 10
0.0
 20
0.0
 30
0.0
  3
*Paper_Space
  1

  0
ENDBLK
  5
1D
330
1B
100
AcDbEntity
 67
     1
  8
0
100
AcDbBlockEnd
  0
BLOCK
  5
24
330
23
100
AcDbEntity
 67
     1
  8
0
100
AcDbBlockBegin
  2
*Paper_Space0
 70
     0
 10
0.0
 20
0.0
 30
0.0
  3
*Paper_Space0
  1

  0
ENDBLK
  5
25
330
23
100
AcDbEntity
 67
     1
  8
0
100
AcDbBlockEnd
  0
BLOCK
  5
40
330
3F
100
AcDbEntity
  8
0
100
AcDbBlockBegin
  2
Fill_1
 70
     0
 10
0.0
 20
0.0
 30
0.0
  3
Fill_1
  1

  0
LINE
  5
24C
102
{ACAD_REACTORS
330
25E
102
}
330
3F
100
AcDbEntity
  8
Specialized_Fills
  6
Continuous
100
AcDbLine
 10
26525.05079168852
 20
-8877.32559100336
 30
0.0
 11
26525.05079168852
 21
-8927.091833503736
 31
0.0
  0
LINE
  5
24D
102
{ACAD_REACTORS
330
25E
102
}
330
3F
100
AcDbEntity
  8
Specialized_Fills
  6
Continuous
100
AcDbLine
 10
26525.05079168852
 20
-8927.091833503736
 30
0.0
 11
26691.04805019159
 21
-8927.091833503736
 31
0.0
  0
LINE
  5
24E
102
{ACAD_REACTORS
330
25E
102
}
330
3F
100
AcDbEntity
  8
Specialized_Fills
  6
Continuous
100
AcDbLine
 10
26691.04805019159
 20
-8927.091833503736
 30
0.0
 11
26691.04805019159
 21
-8877.32559100336
 31
0.0
  0
LINE
  5
24F
102
{ACAD_REACTORS
330
25E
102
}
330
3F
100
AcDbEntity
  8
Specialized_Fills
  6
Continuous
100
AcDbLine
 10
26691.04805019159
 20
-8877.32559100336
 30
0.0
 11
26525.05079168852
 21
-8877.32559100336
 31
0.0
  0
HATCH
  5
25E
330
3F
100
AcDbEntity
  8
0
 62
   251
420
  6250335
100
AcDbHatch
 10
0.0
 20
0.0
 30
0.0
210
0.0
220
0.0
230
1.0
  2
HPCRC1E0
 70
     0
 71
     1
 91
        1
 92
        7
 72
     0
 73
     1
 93
        4
 10
26691.04805019159
 20
-8877.32559100336
 10
26525.05079168852
 20
-8877.32559100336
 10
26525.05079168852
 20
-8927.091833503736
 10
26691.04805019159
 20
-8927.091833503736
 97
        4
330
24F
330
24C
330
24D
330
24E
 75
     1
 76
     2
 52
0.0
 41
0.12
 77
     0
 78
    78
 53
82.8749847
 43
0.0
 44
4.2
 45
-0.0000004961129005
 46
8.399999852931037
 79
     2
 49
0.9674709324
 49
-66.75549316799998
 53
75.96376039999999
 43
0.12
 44
5.16
 45
-0.000000348785556
 46
8.399999709154096
 79
     2
 49
0.4947726600000001
 49
-34.139315184
 53
63.43495179999999
 43
0.24
 44
5.639999999999999
 45
-0.0000000286036308
 46
8.400000041591663
 79
     2
 49
1.073312639999999
 49
-17.70965881199999
 53
45.0
 43
0.72
 44
6.599999999999999
 45
0.0000000000000009
 46
8.400000002875099
 79
     2
 49
1.527350688
 49
-10.352043456
 53
33.6900673
 43
1.799999999999999
 44
7.679999999999999
 45
0.0000001596020127
 46
8.399999824188462
 79
     2
 49
0.4326661440000001
 49
-29.85396423600001
 53
33.6900673
 43
10.2
 44
7.679999999999999
 45
0.0000001596020127
 46
8.399999824188462
 79
     2
 49
0.4326661440000001
 49
-29.85396423600001
 53
33.6900673
 43
18.6
 44
7.679999999999999
 45
0.0000001596020127
 46
8.399999824188462
 79
     2
 49
0.4326661440000001
 49
-29.85396423600001
 53
26.5650501
 43
2.16
 44
7.919999999999999
 45
-0.0000000460215162
 46
8.400000143556356
 79
     2
 49
0.26832816
 49
-18.514643556
 53
26.5650501
 43
10.56
 44
7.919999999999999
 45
-0.0000000460215162
 46
8.400000143556356
 79
     2
 49
0.26832816
 49
-18.514643556
 53
18.434948
 43
2.399999999999999
 44
8.039999999999999
 45
0.0000002686412607
 46
8.399999851558131
 79
     2
 49
0.3794733239999999
 49
-26.183659056
 53
18.434948
 43
10.8
 44
8.039999999999999
 45
0.0000002686412607
 46
8.399999851558131
 79
     2
 49
0.3794733239999999
 49
-26.183659056
 53
18.434948
 43
19.2
 44
8.039999999999999
 45
0.0000002686412607
 46
8.399999851558131
 79
     2
 49
0.3794733239999999
 49
-26.183659056
 53
26.5650501
 43
2.759999999999999
 44
8.16
 45
-0.0000000460215162
 46
8.400000143556356
 79
     2
 49
0.26832816
 49
-18.514643556
 53
26.5650501
 43
11.16
 44
8.16
 45
-0.0000000460215162
 46
8.400000143556356
 79
     2
 49
0.26832816
 49
-18.514643556
 53
11.3099327
 43
3.0
 44
8.279999999999999
 45
-0.0000000543109101
 46
8.400000069389928
 79
     2
 49
0.6118823435999998
 49
-42.21988036799999
 53
11.3099327
 43
11.4
 44
8.279999999999999
 45
-0.0000000543109101
 46
8.400000069389928
 79
     2
 49
0.6118823435999998
 49
-42.21988036799999
 53
11.3099327
 43
19.8
 44
8.279999999999999
 45
-0.0000000543109101
 46
8.400000069389928
 79
     2
 49
0.6118823435999998
 49
-42.21988036799999
 53
11.3099327
 43
28.2
 44
8.279999999999999
 45
-0.0000000543109101
 46
8.400000069389928
 79
     2
 49
0.6118823435999998
 49
-42.21988036799999
 53
11.3099327
 43
36.6
 44
8.279999999999999
 45
-0.0000000543109101
 46
8.400000069389928
 79
     2
 49
0.6118823435999998
 49
-42.21988036799999
 53
0.0
 43
3.599999999999999
 44
8.4
 45
0.0
 46
8.4
 79
     2
 49
1.199999999999999
 49
-7.199999999999999
 53
348.6900673
 43
4.799999999999999
 44
8.4
 45
0.0000000543109101
 46
8.400000069389928
 79
     2
 49
0.6118823435999998
 49
-42.21988036799999
 53
348.6900673
 43
13.2
 44
8.4
 45
0.0000000543109101
 46
8.400000069389928
 79
     2
 49
0.6118823435999998
 49
-42.21988036799999
 53
348.6900673
 43
21.6
 44
8.4
 45
0.0000000543109101
 46
8.400000069389928
 79
     2
 49
0.6118823435999998
 49
-42.21988036799999
 53
348.6900673
 43
30.0
 44
8.4
 45
0.0000000543109101
 46
8.400000069389928
 79
     2
 49
0.6118823435999998
 49
-42.21988036799999
 53
348.6900673
 43
38.4
 44
8.4
 45
0.0000000543109101
 46
8.400000069389928
 79
     2
 49
0.6118823435999998
 49
-42.21988036799999
 53
333.4349499
 43
5.399999999999999
 44
8.279999999999999
 45
0.0000000460215162
 46
8.400000143556356
 79
     2
 49
0.2683281599999999
 49
-18.514643556
 53
333.4349499
 43
13.8
 44
8.279999999999999
 45
0.0000000460215162
 46
8.400000143556356
 79
     2
 49
0.2683281599999999
 49
-18.514643556
 53
341.565052
 43
5.639999999999999
 44
8.16
 45
-0.0000002686412607
 46
8.399999851558131
 79
     2
 49
0.379473324
 49
-26.183659056
 53
341.565052
 43
14.04
 44
8.16
 45
-0.0000002686412607
 46
8.399999851558131
 79
     2
 49
0.379473324
 49
-26.183659056
 53
341.565052
 43
22.44
 44
8.16
 45
-0.0000002686412607
 46
8.399999851558131
 79
     2
 49
0.379473324
 49
-26.183659056
 53
333.4349499
 43
6.0
 44
8.039999999999999
 45
0.0000000460215162
 46
8.400000143556356
 79
     2
 49
0.2683281599999999
 49
-18.514643556
 53
333.4349499
 43
14.4
 44
8.039999999999999
 45
0.0000000460215162
 46
8.400000143556356
 79
     2
 49
0.2683281599999999
 49
-18.514643556
 53
326.3099327
 43
6.24
 44
7.919999999999999
 45
-0.0000001596020127
 46
8.399999824188462
 79
     2
 49
0.4326661440000001
 49
-29.85396423600001
 53
326.3099327
 43
14.64
 44
7.919999999999999
 45
-0.0000001596020127
 46
8.399999824188462
 79
     2
 49
0.4326661440000001
 49
-29.85396423600001
 53
326.3099327
 43
23.04
 44
7.919999999999999
 45
-0.0000001596020127
 46
8.399999824188462
 79
     2
 49
0.4326661440000001
 49
-29.85396423600001
 53
315.0
 43
6.599999999999999
 44
7.679999999999999
 45
-0.0000000000000009
 46
8.400000002875099
 79
     2
 49
1.527350688
 49
-10.352043456
 53
296.5650482
 43
7.679999999999999
 44
6.599999999999999
 45
0.0000000286036308
 46
8.400000041591663
 79
     2
 49
1.073312639999999
 49
-17.70965881199999
 53
284.0362396
 43
8.16
 44
5.639999999999999
 45
0.000000348785556
 46
8.399999709154096
 79
     2
 49
0.4947726600000001
 49
-34.139315184
 53
277.1250153
 43
8.279999999999999
 44
5.16
 45
0.0000004961129005
 46
8.399999852931037
 79
     2
 49
0.9674709324
 49
-66.75549316799998
 53
277.1250153
 43
0.0
 44
4.2
 45
0.0000004961129005
 46
8.399999852931037
 79
     2
 49
0.9674709324
 49
-66.75549316799998
 53
284.0362396
 43
0.12
 44
3.239999999999999
 45
0.000000348785556
 46
8.399999709154096
 79
     2
 49
0.4947726600000001
 49
-34.139315184
 53
296.5650482
 43
0.24
 44
2.759999999999999
 45
0.0000000286036308
 46
8.400000041591663
 79
     2
 49
1.073312639999999
 49
-17.70965881199999
 53
315.0
 43
0.72
 44
1.799999999999999
 45
-0.0000000000000009
 46
8.400000002875099
 79
     2
 49
1.527350688
 49
-10.352043456
 53
326.3099327
 43
1.799999999999999
 44
0.72
 45
-0.0000001596020127
 46
8.399999824188462
 79
     2
 49
0.4326661440000001
 49
-29.85396423600001
 53
326.3099327
 43
10.2
 44
0.72
 45
-0.0000001596020127
 46
8.399999824188462
 79
     2
 49
0.4326661440000001
 49
-29.85396423600001
 53
326.3099327
 43
18.6
 44
0.72
 45
-0.0000001596020127
 46
8.399999824188462
 79
     2
 49
0.4326661440000001
 49
-29.85396423600001
 53
333.4349499
 43
2.16
 44
0.48
 45
0.0000000460215162
 46
8.400000143556356
 79
     2
 49
0.2683281599999999
 49
-18.514643556
 53
333.4349499
 43
10.56
 44
0.48
 45
0.0000000460215162
 46
8.400000143556356
 79
     2
 49
0.2683281599999999
 49
-18.514643556
 53
341.565052
 43
2.399999999999999
 44
0.36
 45
-0.0000002686412607
 46
8.399999851558131
 79
     2
 49
0.379473324
 49
-26.183659056
 53
341.565052
 43
10.8
 44
0.36
 45
-0.0000002686412607
 46
8.399999851558131
 79
     2
 49
0.379473324
 49
-26.183659056
 53
341.565052
 43
19.2
 44
0.36
 45
-0.0000002686412607
 46
8.399999851558131
 79
     2
 49
0.379473324
 49
-26.183659056
 53
333.4349499
 43
2.759999999999999
 44
0.24
 45
0.0000000460215162
 46
8.400000143556356
 79
     2
 49
0.2683281599999999
 49
-18.514643556
 53
333.4349499
 43
11.16
 44
0.24
 45
0.0000000460215162
 46
8.400000143556356
 79
     2
 49
0.2683281599999999
 49
-18.514643556
 53
348.6900673
 43
3.0
 44
0.12
 45
0.0000000543109101
 46
8.400000069389928
 79
     2
 49
0.6118823435999998
 49
-42.21988036799999
 53
348.6900673
 43
11.4
 44
0.12
 45
0.0000000543109101
 46
8.400000069389928
 79
     2
 49
0.6118823435999998
 49
-42.21988036799999
 53
348.6900673
 43
19.8
 44
0.12
 45
0.0000000543109101
 46
8.400000069389928
 79
     2
 49
0.6118823435999998
 49
-42.21988036799999
 53
348.6900673
 43
28.2
 44
0.12
 45
0.0000000543109101
 46
8.400000069389928
 79
     2
 49
0.6118823435999998
 49
-42.21988036799999
 53
348.6900673
 43
36.6
 44
0.12
 45
0.0000000543109101
 46
8.400000069389928
 79
     2
 49
0.6118823435999998
 49
-42.21988036799999
 53
0.0
 43
3.599999999999999
 44
0.0
 45
0.0
 46
8.4
 79
     2
 49
1.199999999999999
 49
-7.199999999999999
 53
11.3099327
 43
4.799999999999999
 44
0.0
 45
-0.0000000543109101
 46
8.400000069389928
 79
     2
 49
0.6118823435999998
 49
-42.21988036799999
 53
11.3099327
 43
13.2
 44
0.0
 45
-0.0000000543109101
 46
8.400000069389928
 79
     2
 49
0.6118823435999998
 49
-42.21988036799999
 53
11.3099327
 43
21.6
 44
0.0
 45
-0.0000000543109101
 46
8.400000069389928
 79
     2
 49
0.6118823435999998
 49
-42.21988036799999
 53
11.3099327
 43
30.0
 44
0.0
 45
-0.0000000543109101
 46
8.400000069389928
 79
     2
 49
0.6118823435999998
 49
-42.21988036799999
 53
11.3099327
 43
38.4
 44
0.0
 45
-0.0000000543109101
 46
8.400000069389928
 79
     2
 49
0.6118823435999998
 49
-42.21988036799999
 53
26.5650501
 43
5.399999999999999
 44
0.12
 45
-0.0000000460215162
 46
8.400000143556356
 79
     2
 49
0.26832816
 49
-18.514643556
 53
26.5650501
 43
13.8
 44
0.12
 45
-0.0000000460215162
 46
8.400000143556356
 79
     2
 49
0.26832816
 49
-18.514643556
 53
18.434948
 43
5.639999999999999
 44
0.24
 45
0.0000002686412607
 46
8.399999851558131
 79
     2
 49
0.3794733239999999
 49
-26.183659056
 53
18.434948
 43
14.04
 44
0.24
 45
0.0000002686412607
 46
8.399999851558131
 79
     2
 49
0.3794733239999999
 49
-26.183659056
 53
18.434948
 43
22.44
 44
0.24
 45
0.0000002686412607
 46
8.399999851558131
 79
     2
 49
0.3794733239999999
 49
-26.183659056
 53
26.5650501
 43
6.0
 44
0.36
 45
-0.0000000460215162
 46
8.400000143556356
 79
     2
 49
0.26832816
 49
-18.514643556
 53
26.5650501
 43
14.4
 44
0.36
 45
-0.0000000460215162
 46
8.400000143556356
 79
     2
 49
0.26832816
 49
-18.514643556
 53
33.6900673
 43
6.24
 44
0.48
 45
0.0000001596020127
 46
8.399999824188462
 79
     2
 49
0.4326661440000001
 49
-29.85396423600001
 53
33.6900673
 43
14.64
 44
0.48
 45
0.0000001596020127
 46
8.399999824188462
 79
     2
 49
0.4326661440000001
 49
-29.85396423600001
 53
33.6900673
 43
23.04
 44
0.48
 45
0.0000001596020127
 46
8.399999824188462
 79
     2
 49
0.4326661440000001
 49
-29.85396423600001
 53
45.0
 43
6.599999999999999
 44
0.72
 45
0.0000000000000009
 46
8.400000002875099
 79
     2
 49
1.527350688
 49
-10.352043456
 53
63.43495179999999
 43
7.679999999999999
 44
1.799999999999999
 45
-0.0000000286036308
 46
8.400000041591663
 79
     2
 49
1.073312639999999
 49
-17.70965881199999
 53
75.96376039999999
 43
8.16
 44
2.759999999999999
 45
-0.000000348785556
 46
8.399999709154096
 79
     2
 49
0.4947726600000001
 49
-34.139315184
 53
82.8749847
 43
8.279999999999999
 44
3.239999999999999
 45
-0.0000004961129005
 46
8.399999852931037
 79
     2
 49
0.9674709324
 49
-66.75549316799998
 47
0.1480414795147454
 98
        1
 10
26643.00512134182
 20
-8898.023231874493
1001
GradientColor1ACI
1070
     5
1001
GradientColor2ACI
1070
     2
1001
ACAD
1010
0.0
1020
0.0
1030
0.0
  0
ENDBLK
  5
41
330
3F
100
AcDbEntity
  8
0
100
AcDbBlockEnd
  0
BLOCK
  5
19A
330
199
100
AcDbEntity
  8
0
100
AcDbBlockBegin
  2
ARROWHEAD_5
 70
     0
 10
0.0
 20
0.0
 30
0.0
  3
ARROWHEAD_5
  1

  0
SOLID
  5
19C
330
199
100
AcDbEntity
  8
0
  6
Continuous
 62
     0
370
     0
100
AcDbTrace
 10
-1.0
 20
0.2679
 30
0.0
 11
0.0
 21
0.0
 31
0.0
 12
-1.0
 22
-0.2679
 32
0.0
 13
-1.0
 23
0.2679
 33
0.0
  0
LINE
  5
19D
330
199
100
AcDbEntity
  8
0
  6
Continuous
 62
     0
370
     0
100
AcDbLine
 10
0.0
 20
0.0
 30
0.0
 11
-1.0
 21
0.0
 31
0.0
  0
ENDBLK
  5
19B
330
199
100
AcDbEntity
  8
0
100
AcDbBlockEnd
  0
BLOCK
  5
1B1
330
1B0
100
AcDbEntity
  8
0
100
AcDbBlockBegin
  2
22B Garage Door Jamb_ PLASTERED_STORY_MARKER
 70
     0
 10
0.0
 20
0.0
 30
0.0
  3
22B Garage Door Jamb_ PLASTERED_STORY_MARKER
  1

  0
ENDBLK
  5
1B2
330
1B0
100
AcDbEntity
  8
0
100
AcDbBlockEnd
  0
ENDSEC
  0
SECTION
  2
ENTITIES
  0
INSERT
  5
165
330
1F
100
AcDbEntity
  8
Specialized_Fills
  6
Continuous
 62
    30
420
 16742400
370
    20
100
AcDbBlockReference
  2
Fill_1
 10
0.0
 20
0.0
 30
0.0
  0
HATCH
  5
166
330
1F
100
AcDbEntity
  8
Specialized_Fills
  6
Continuous
100
AcDbHatch
 10
0.0
 20
0.0
 30
0.0
210
0.0
220
0.0
230
1.0
  2
LINES___ANGLED
 70
     0
 71
     1
 91
        1
 92
        2
 72
     0
 73
     1
 93
        4
 10
26620.76801179602
 20
-8856.30223015155
 10
26620.76801179602
 20
-8876.728977597432
 10
26670.7937688369
 20
-8876.728977597432
 10
26670.7937688369
 20
-8856.30223015155
 97
        1
330
167
 75
     0
 76
     2
 52
0.0
 41
1.0
 77
     0
 78
     1
 53
44.99999999999999
 43
0.0
 44
0.0
 45
-1.838477563650065
 46
1.838477563650065
 79
     0
 98
        0
  0
LWPOLYLINE
  5
167
102
{ACAD_REACTORS
330
166
102
}
330
1F
100
AcDbEntity
  8
Specialized_Fills
  6
Continuous
100
AcDbPolyline
 90
        4
 70
   129
 43
0.0
 10
26620.76801179602
 20
-8856.30223015155
 10
26620.76801179602
 20
-8876.728977597432
 10
26670.7937688369
 20
-8876.728977597432
 10
26670.7937688369
 20
-8856.30223015155
  0
HATCH
  5
168
330
1F
100
AcDbEntity
  8
Specialized_Fills
  6
Continuous
 62
   254
420
 14671839
370
    13
100
AcDbHatch
 10
0.0
 20
0.0
 30
0.0
210
0.0
220
0.0
230
1.0
  2
SOLID
 70
     1
 71
     1
 91
        1
 92
        2
 72
     0
 73
     1
 93
        4
 10
26600.94955713816
 20
-8762.94632222555
 10
26646.03309876642
 20
-8762.94632222555
 10
26646.03309876642
 20
-8853.182957519491
 10
26600.94955713816
 20
-8853.182957519491
 97
        1
330
169
 75
     0
 76
     1
 98
        0
450
        0
451
        0
460
0.0
461
0.0
452
        1
462
0.0
453
        0
470

  0
LWPOLYLINE
  5
169
102
{ACAD_REACTORS
330
168
102
}
330
1F
100
AcDbEntity
  8
Specialized_Fills
  6
Continuous
100
AcDbPolyline
 90
        4
 70
   129
 43
0.0
 10
26600.94955713816
 20
-8762.94632222555
 10
26646.03309876642
 20
-8762.94632222555
 10
26646.03309876642
 20
-8853.182957519491
 10
26600.94955713816
 20
-8853.182957519491
  0
HATCH
  5
16A
330
1F
100
AcDbEntity
  8
Specialized_Fills
  6
Continuous
 62
   254
420
 14671839
370
    13
100
AcDbHatch
 10
0.0
 20
0.0
 30
0.0
210
0.0
220
0.0
230
1.0
  2
SOLID
 70
     1
 71
     1
 91
        1
 92
        2
 72
     0
 73
     1
 93
        4
 10
26646.03309876642
 20
-8762.94632222555
 10
26690.9446267075
 20
-8762.94632222555
 10
26690.9446267075
 20
-8853.182957519491
 10
26646.03309876642
 20
-8853.182957519491
 97
        1
330
16B
 75
     0
 76
     1
 98
        0
450
        0
451
        0
460
0.0
461
0.0
452
        1
462
0.0
453
        0
470

  0
LWPOLYLINE
  5
16B
102
{ACAD_REACTORS
330
16A
102
}
330
1F
100
AcDbEntity
  8
Specialized_Fills
  6
Continuous
100
AcDbPolyline
 90
        4
 70
   129
 43
0.0
 10
26646.03309876642
 20
-8762.94632222555
 10
26690.9446267075
 20
-8762.94632222555
 10
26690.9446267075
 20
-8853.182957519491
 10
26646.03309876642
 20
-8853.182957519491
  0
HATCH
  5
16C
330
1F
100
AcDbEntity
  8
Specialized_Fills
  6
Continuous
100
AcDbHatch
 10
0.0
 20
0.0
 30
0.0
210
0.0
220
0.0
230
1.0
  2
LINES___HORIZONTAL
 70
     0
 71
     1
 91
        1
 92
        2
 72
     0
 73
     1
 93
        4
 10
26699.9266535054
 20
-8927.25096513466
 10
26699.9266535054
 20
-8750.470729732858
 10
26692.4266535054
 20
-8750.470729732858
 10
26692.4266535054
 20
-8927.25096513466
 97
        1
330
16D
 75
     0
 76
     2
 52
0.0
 41
1.0
 77
     0
 78
     1
 53
0.0
 43
0.0
 44
0.0
 45
0.0
 46
2.0
 79
     0
 98
        0
  0
LWPOLYLINE
  5
16D
102
{ACAD_REACTORS
330
16C
102
}
330
1F
100
AcDbEntity
  8
Specialized_Fills
  6
Continuous
100
AcDbPolyline
 90
        4
 70
   129
 43
0.0
 10
26699.9266535054
 20
-8927.25096513466
 10
26699.9266535054
 20
-8750.470729732858
 10
26692.4266535054
 20
-8750.470729732858
 10
26692.4266535054
 20
-8927.25096513466
  0
HATCH
  5
16E
330
1F
100
AcDbEntity
  8
Specialized_Fills
  6
Continuous
 62
   254
420
 14671839
370
    13
100
AcDbHatch
 10
0.0
 20
0.0
 30
0.0
210
0.0
220
0.0
230
1.0
  2
SOLID
 70
     1
 71
     1
 91
        1
 92
        2
 72
     0
 73
     1
 93
        4
 10
26524.96520389735
 20
-8750.470729732858
 10
26524.96520389735
 20
-8760.470729732858
 10
26690.9446267075
 20
-8760.470729732858
 10
26690.9446267075
 20
-8750.470729732858
 97
        1
330
16F
 75
     0
 76
     1
 98
        0
450
        0
451
        0
460
0.0
461
0.0
452
        1
462
0.0
453
        0
470

  0
LWPOLYLINE
  5
16F
102
{ACAD_REACTORS
330
16E
102
}
330
1F
100
AcDbEntity
  8
Specialized_Fills
  6
Continuous
100
AcDbPolyline
 90
        4
 70
   129
 43
0.0
 10
26524.96520389735
 20
-8750.470729732858
 10
26524.96520389735
 20
-8760.470729732858
 10
26690.9446267075
 20
-8760.470729732858
 10
26690.9446267075
 20
-8750.470729732858
  0
LINE
  5
172
330
1F
100
AcDbEntity
  8
Specialized_Text
  6
Continuous
100
AcDbLine
 10
26525.05079168852
 20
-8877.32559100336
 30
0.0
 11
26690.7937688369
 21
-8877.32559100336
 31
0.0
  0
LINE
  5
174
330
1F
100
AcDbEntity
  8
Specialized_Text
  6
DASHEDX2
100
AcDbLine
 10
26691.58545870951
 20
-8854.207350334206
 30
0.0
 11
26525.05079168852
 21
-8854.207350334206
 31
0.0
  0
LINE
  5
175
330
1F
100
AcDbEntity
  8
Specialized_Text
  6
Continuous
100
AcDbLine
 10
26690.9446267075
 20
-8750.470729732858
 30
0.0
 11
26524.96520389735
 21
-8750.470729732858
 31
0.0
  0
LINE
  5
176
330
1F
100
AcDbEntity
  8
Specialized_Text
  6
Continuous
100
AcDbLine
 10
26690.9446267075
 20
-8760.470729732858
 30
0.0
 11
26524.96520389735
 21
-8760.470729732858
 31
0.0
  0
LINE
  5
177
330
1F
100
AcDbEntity
  8
Specialized_Text
  6
Continuous
100
AcDbLine
 10
26690.9446267075
 20
-8762.94632222555
 30
0.0
 11
26524.96520389735
 21
-8762.94632222555
 31
0.0
  0
LINE
  5
178
330
1F
100
AcDbEntity
  8
Specialized_Text
  6
Continuous
100
AcDbLine
 10
26690.7937688369
 20
-8927.091833503736
 30
0.0
 11
26525.05079168852
 21
-8927.091833503736
 31
0.0
  0
LINE
  5
179
330
1F
100
AcDbEntity
  8
Specialized_Text
  6
Continuous
100
AcDbLine
 10
26690.9446267075
 20
-8853.182957519491
 30
0.0
 11
26525.69024559793
 21
-8853.182957519491
 31
0.0
  0
LINE
  5
17B
330
1F
100
AcDbEntity
  8
Specialized_Text
  6
Continuous
100
AcDbLine
 10
26692.4266535054
 20
-8750.470729732858
 30
0.0
 11
26699.9266535054
 21
-8750.470729732858
 31
0.0
  0
LINE
  5
17C
330
1F
100
AcDbEntity
  8
Specialized_Text
  6
DASHEDX2
100
AcDbLine
 10
26691.58545870951
 20
-8761.673625288533
 30
0.0
 11
26691.58545870951
 21
-8854.207350334206
 31
0.0
  0
LINE
  5
17D
330
1F
100
AcDbEntity
  8
Specialized_Text
  6
Continuous
100
AcDbLine
 10
26600.94955713816
 20
-8762.94632222555
 30
0.0
 11
26600.94955713816
 21
-8853.182957519491
 31
0.0
  0
LINE
  5
17E
330
1F
100
AcDbEntity
  8
Specialized_Text
  6
Continuous
100
AcDbLine
 10
26646.03309876642
 20
-8762.94632222555
 30
0.0
 11
26646.03309876642
 21
-8853.182957519491
 31
0.0
  0
LINE
  5
17F
330
1F
100
AcDbEntity
  8
Specialized_Text
  6
Continuous
100
AcDbLine
 10
26690.9446267075
 20
-8762.94632222555
 30
0.0
 11
26690.9446267075
 21
-8853.182957519491
 31
0.0
  0
LINE
  5
180
330
1F
100
AcDbEntity
  8
Specialized_Text
  6
Continuous
100
AcDbLine
 10
26690.9446267075
 20
-8762.946322225545
 30
0.0
 11
26690.9446267075
 21
-8764.721990962511
 31
0.0
  0
LINE
  5
181
330
1F
100
AcDbEntity
  8
Specialized_Text
  6
Continuous
100
AcDbLine
 10
26690.9446267075
 20
-8750.470729732858
 30
0.0
 11
26690.9446267075
 21
-8760.470729732858
 31
0.0
  0
LINE
  5
182
330
1F
100
AcDbEntity
  8
Specialized_Text
  6
DASHEDX2
100
AcDbLine
 10
26691.58545870951
 20
-8761.673625288533
 30
0.0
 11
26651.32192755842
 21
-8761.673625288533
 31
0.0
  0
LINE
  5
183
330
1F
100
AcDbEntity
  8
Specialized_Text
  6
Continuous
100
AcDbLine
 10
26646.03309876642
 20
-8853.182957519491
 30
0.0
 11
26690.9446267075
 21
-8762.94632222555
 31
0.0
  0
LINE
  5
184
330
1F
100
AcDbEntity
  8
Specialized_Text
  6
Continuous
100
AcDbLine
 10
26646.03309876642
 20
-8762.94632222555
 30
0.0
 11
26690.9446267075
 21
-8853.182957519491
 31
0.0
  0
LINE
  5
185
330
1F
100
AcDbEntity
  8
Specialized_Text
  6
Continuous
100
AcDbLine
 10
26646.03309876642
 20
-8762.94632222555
 30
0.0
 11
26600.94955713816
 21
-8853.182957519491
 31
0.0
  0
LINE
  5
186
330
1F
100
AcDbEntity
  8
Specialized_Text
  6
Continuous
100
AcDbLine
 10
26600.94955713816
 20
-8762.94632222555
 30
0.0
 11
26646.03309876642
 21
-8853.182957519491
 31
0.0
  0
LINE
  5
187
330
1F
100
AcDbEntity
  8
Specialized_Text
  6
Continuous
100
AcDbLine
 10
26699.9266535054
 20
-8750.470729732858
 30
0.0
 11
26699.9266535054
 21
-8927.091833503736
 31
0.0
  0
LINE
  5
188
330
1F
100
AcDbEntity
  8
Specialized_Text
  6
Continuous
100
AcDbLine
 10
26690.7937688369
 20
-8877.32559100336
 30
0.0
 11
26690.7937688369
 21
-8927.091833503736
 31
0.0
  0
LINE
  5
189
330
1F
100
AcDbEntity
  8
Specialized_Text
  6
Continuous
100
AcDbLine
 10
26692.4266535054
 20
-8750.470729732858
 30
0.0
 11
26692.4266535054
 21
-8927.091833503736
 31
0.0
  0
LINE
  5
18A
330
1F
100
AcDbEntity
  8
Specialized_Text
  6
Continuous
100
AcDbLine
 10
26692.4266535054
 20
-8927.091833503736
 30
0.0
 11
26699.9266535054
 21
-8927.091833503736
 31
0.0
  0
LWPOLYLINE
  5
18E
330
1F
100
AcDbEntity
  8
Specialized_Fills
  6
DASHEDX2
 62
   253
420
 10461087
370
    20
100
AcDbPolyline
 90
        8
 70
   128
 43
0.0
 10
26524.96520389735
 20
-8851.100258488996
 42
0.7493948965154171
 10
26549.78244970991
 20
-8816.884476256943
 10
26536.28244968127
 20
-8798.884476278365
 42
-1.956066272097055
 10
26572.28244968127
 20
-8798.884476278365
 10
26558.78244960187
 20
-8816.884476218758
 42
1.96342552779453
 10
26594.78244960188
 20
-8816.884476218758
 10
26581.28244957324
 20
-8798.88447624018
 42
-0.6701181394909617
 10
26600.94955713816
 20
-8763.940501684304
  0
LWPOLYLINE
  5
18F
330
1F
100
AcDbEntity
  8
Specialized_Fills
  6
DASHEDX2
 62
   253
420
 10461087
370
    20
100
AcDbPolyline
 90
        3
 70
   128
 43
0.0
 10
26524.96520389733
 20
-8769.250622594034
 42
-0.377281181495842
 10
26527.28244978931
 20
-8798.884476316548
 10
26524.96520389735
 20
-8801.97413747742
  0
LWPOLYLINE
  5
190
330
1F
100
AcDbEntity
  8
Specialized_Text
  6
DASHEDX2
100
AcDbPolyline
 90
        3
 70
   128
 43
0.0
 10
26525.05598857212
 20
-8929.629596369592
 10
26702.73511656565
 20
-8929.62398719718
 10
26702.72991968206
 20
-8753.558725355821
  0
LWPOLYLINE
  5
194
330
1F
100
AcDbEntity
  8
0
  6
Continuous
100
AcDbPolyline
 90
        6
 70
   128
 43
0.0
 10
26524.96520389735
 20
-8734.79713776617
 10
26524.96520389735
 20
-8808.571349904482
 10
26519.47024905843
 20
-8810.571349904478
 10
26530.46015873626
 20
-8814.571349904483
 10
26524.96520389735
 20
-8816.571349904478
 10
26524.96520389735
 20
-8938.811238569178
  0
MTEXT
  5
196
102
{ACAD_REACTORS
330
197
102
}
330
1F
100
AcDbEntity
  8
Specialized_Text
  6
Continuous
100
AcDbMText
 10
26722.47682051963
 20
-8867.587754514877
 30
0.0
 40
5.5
 41
154.3936148107725
 46
24.06492499310181
 71
     4
 72
     1
  1
{vertical 45 x 20mm ventilated EPS batten}
  7
GENERATED_STYLE_1
 73
     1
 44
1.0
  0
LEADER
  5
197
330
1F
100
AcDbEntity
  8
Specialized_Text
  6
Continuous
 62
   251
420
  6250335
370
    13
100
AcDbLeader
  3
GENERATED_STYLE__1
 73
     0
 40
5.687585266030014
 41
139.9010914051841
 76
     2
 10
26669.45243572743
 20
-8867.35768647223
 30
0.0
 10
26722.38682051963
 20
-8867.587754514877
 30
0.0
340
196
  0
MTEXT
  5
19E
102
{ACAD_REACTORS
330
19F
102
}
330
1F
100
AcDbEntity
  8
Specialized_Text
  6
Continuous
100
AcDbMText
 10
26722.47682051963
 20
-8938.86685588369
 30
0.0
 40
5.5
 41
154.0223634945552
 46
24.23063825160763
 71
     4
 72
     1
  1
{mesh reinforcing and selected plaster finish}
  7
GENERATED_STYLE_1
 73
     1
 44
1.0
  0
LEADER
  5
19F
330
1F
100
AcDbEntity
  8
Specialized_Text
  6
Continuous
 62
   251
420
  6250335
370
    13
100
AcDbLeader
  3
GENERATED_STYLE__1
 73
     0
 40
7.207025920873125
 41
146.7667121418826
 76
     3
 10
26669.29852088868
 20
-8928.580593369863
 30
0.0
 10
26682.62510036887
 20
-8938.870742675675
 30
0.0
 10
26722.38682051963
 20
-8938.86685588369
 30
0.0
340
19E
  0
MTEXT
  5
1A0
102
{ACAD_REACTORS
330
1A1
102
}
330
1F
100
AcDbEntity
  8
Specialized_Text
  6
Continuous
100
AcDbMText
 10
26722.47682051963
 20
-8910.247699330563
 30
0.0
 40
5.5
 41
145.9713412527755
 46
14.98521509770409
 71
     4
 72
     1
  1
{premeshed PVC corner bead}
  7
GENERATED_STYLE_1
 73
     1
 44
1.0
  0
LEADER
  5
1A1
330
1F
100
AcDbEntity
  8
Specialized_Text
  6
Continuous
 62
   251
420
  6250335
370
    13
100
AcDbLeader
  3
GENERATED_STYLE__1
 73
     0
 40
7.124488403819918
 41
98.45225102319236
 76
     2
 10
26701.04805019159
 20
-8910.099056809556
 30
0.0
 10
26722.38682051963
 20
-8910.247699330563
 30
0.0
340
1A0
  0
MTEXT
  5
1A2
102
{ACAD_REACTORS
330
1A3
102
}
330
1F
100
AcDbEntity
  8
Specialized_Text
  6
Continuous
100
AcDbMText
 10
26722.47682051963
 20
-8730.465412959407
 30
0.0
 40
5.5
 41
69.48941082323401
 46
0.0
 71
     4
 72
     1
  1
{10mm plasterboard}
  7
GENERATED_STYLE_1
 73
     1
 44
1.0
  0
LEADER
  5
1A3
330
1F
100
AcDbEntity
  8
Specialized_Text
  6
Continuous
 62
   251
420
  6250335
370
    13
100
AcDbLeader
  3
GENERATED_STYLE__1
 73
     0
 40
7.056957708049113
 41
64.80320600272851
 76
     3
 10
26674.75174361906
 20
-8750.470729732858
 30
0.0
 10
26674.75174361906
 20
-8730.465412959407
 30
0.0
 10
26722.38682051963
 20
-8730.465412959407
 30
0.0
340
1A2
  0
MTEXT
  5
1A4
102
{ACAD_REACTORS
330
1A5
102
}
330
1F
100
AcDbEntity
  8
Specialized_Text
  6
Continuous
100
AcDbMText
 10
26722.47682051963
 20
-8708.958534391488
 30
0.0
 40
5.5
 41
139.2486211741749
 46
14.73068656499555
 71
     4
 72
     1
  1
{cavity insulation minimum R=0.9}
  7
GENERATED_STYLE_1
 73
     1
 44
1.0
  0
LEADER
  5
1A5
330
1F
100
AcDbEntity
  8
Specialized_Text
  6
Continuous
 62
   251
420
  6250335
370
    13
100
AcDbLeader
  3
GENERATED_STYLE__1
 73
     0
 40
7.139495225102319
 41
109.756139154161
 76
     3
 10
26576.47896057557
 20
-8789.067532753369
 30
0.0
 10
26576.47896057557
 20
-8708.930517055524
 30
0.0
 10
26722.38682051963
 20
-8708.958534391488
 30
0.0
340
1A4
  0
MTEXT
  5
1A6
102
{ACAD_REACTORS
330
1A7
102
}
330
1F
100
AcDbEntity
  8
Specialized_Text
  6
Continuous
100
AcDbMText
 10
26722.47682051963
 20
-8821.479100348755
 30
0.0
 40
5.5
 41
140.5570135645223
 46
5.803994294424642
 71
     4
 72
     1
  1
{7.5mm fibre cement}
  7
GENERATED_STYLE_1
 73
     1
 44
1.0
  0
LEADER
  5
1A7
330
1F
100
AcDbEntity
  8
Specialized_Text
  6
Continuous
 62
   251
420
  6250335
370
    13
100
AcDbLeader
  3
GENERATED_STYLE__1
 73
     0
 40
5.687585266030014
 41
67.4594133697135
 76
     2
 10
26695.80251675508
 20
-8821.323176641795
 30
0.0
 10
26722.38682051963
 20
-8821.479100348755
 30
0.0
340
1A6
  0
MTEXT
  5
1A8
102
{ACAD_REACTORS
330
1A9
102
}
330
1F
100
AcDbEntity
  8
Specialized_Text
  6
Continuous
100
AcDbMText
 10
26722.47682051963
 20
-8842.407720883155
 30
0.0
 40
5.5
 41
69.48941082323401
 46
0.0
 71
     4
 72
     1
  1
{20mm cavity}
  7
GENERATED_STYLE_1
 73
     1
 44
1.0
  0
LEADER
  5
1A9
330
1F
100
AcDbEntity
  8
Specialized_Text
  6
Continuous
 62
   251
420
  6250335
370
    13
100
AcDbLeader
  3
GENERATED_STYLE__1
 73
     0
 40
7.139495225102319
 41
42.82571623465211
 76
     3
 10
26580.96166121624
 20
-8865.673682271639
 30
0.0
 10
26580.96166121624
 20
-8842.407720883155
 30
0.0
 10
26722.38682051963
 20
-8842.407720883155
 30
0.0
340
1A8
  0
MTEXT
  5
1AA
102
{ACAD_REACTORS
330
1AB
102
}
330
1F
100
AcDbEntity
  8
Specialized_Text
  6
Continuous
100
AcDbMText
 10
26722.47682051963
 20
-8757.124783684325
 30
0.0
 40
5.5
 41
158.4368060611716
 46
43.96239773924723
 71
     4
 72
     1
  1
{20mm x 20mm PVC bead meshed on to fibre cement lining and glued to plasterboard}
  7
GENERATED_STYLE_1
 73
     1
 44
1.0
  0
LEADER
  5
1AB
330
1F
100
AcDbEntity
  8
Specialized_Text
  6
Continuous
 62
   251
420
  6250335
370
    13
100
AcDbLeader
  3
GENERATED_STYLE__1
 73
     0
 40
16.37369258753979
 41
153.2046384720327
 76
     2
 10
26701.04805019159
 20
-8756.421408715661
 30
0.0
 10
26722.38682051963
 20
-8757.124783684325
 30
0.0
340
1AA
  0
MTEXT
  5
1AC
102
{ACAD_REACTORS
330
1AD
102
}
330
1F
100
AcDbEntity
  8
Specialized_Text
  6
Continuous
100
AcDbMText
 10
26722.47682051963
 20
-8800.82271544453
 30
0.0
 40
5.5
 41
159.4322947030134
 46
25.56552414491183
 71
     4
 72
     1
  1
{breather type building wrap installed by builder}
  7
GENERATED_STYLE_1
 73
     1
 44
1.0
  0
LEADER
  5
1AD
330
1F
100
AcDbEntity
  8
Specialized_Text
  6
Continuous
 62
   251
420
  6250335
370
    13
100
AcDbLeader
  3
GENERATED_STYLE__1
 73
     0
 40
7.113233287858117
 41
158.0480900409277
 76
     2
 10
26691.58545870951
 20
-8800.075217163051
 30
0.0
 10
26722.38682051963
 20
-8800.82271544453
 30
0.0
340
1AC
  0
MTEXT
  5
1AE
102
{ACAD_REACTORS
330
1AF
102
}
330
1F
100
AcDbEntity
  8
Specialized_Text
  6
Continuous
100
AcDbMText
 10
26722.47682051963
 20
-8893.36972945748
 30
0.0
 40
5.5
 41
152.5888598503026
 46
34.74243109189494
 71
     4
 72
     1
  1
50mm EPS or {\C30;\c30975;75mm Neopor® EPS}
  7
GENERATED_STYLE_1
 73
     1
 44
1.0
  0
LEADER
  5
1AF
330
1F
100
AcDbEntity
  8
Specialized_Text
  6
Continuous
 62
   251
420
  6250335
370
    13
100
AcDbLeader
  3
GENERATED_STYLE__1
 73
     0
 40
7.124488403819918
 41
121.0900409276944
 76
     2
 10
26675.2852944418
 20
-8892.626505294559
 30
0.0
 10
26722.38682051963
 20
-8893.36972945748
 30
0.0
340
1AE
  0
LINE
  5
21F
330
1F
100
AcDbEntity
  8
Viewport
 62
     7
420
 16777215
100
AcDbLine
 10
26883.96394909323
 20
-8544.933615795546
 30
0.0
 11
26883.96394909323
 21
-9084.983231434341
 31
0.0
  0
LINE
  5
220
330
1F
100
AcDbEntity
  8
Viewport
 62
     7
420
 16777215
100
AcDbLine
 10
26883.96394909323
 20
-9084.983231434341
 30
0.0
 11
26510.82222200725
 21
-9084.983231434341
 31
0.0
  0
MTEXT
  5
223
330
1F
100
AcDbEntity
  8
Specialized_Lines
 62
    30
420
 16742400
100
AcDbMText
 10
26589.11858679773
 20
-9043.650365174022
 30
0.0
 40
7.0
 41
63.23088711380842
 46
0.0
 71
     1
 72
     5
  1
CAVITECLAD
  7
GENERATED_STYLE_2
 73
     1
 44
1.0
101
Embedded Object
 70
     1
 10
1.0
 20
0.0
 30
0.0
 11
26589.11858679773
 21
-9043.650365174022
 31
0.0
 40
63.23088711380842
 41
0.0
 42
60.41678035470668
 43
7.238744884038199
 71
     2
 72
     1
 44
63.23088711380842
 45
12.5
 73
     0
 74
     0
 46
0.0
  0
LINE
  5
224
330
1F
100
AcDbEntity
  8
Viewport
 62
     7
420
 16777215
100
AcDbLine
 10
26510.82222200725
 20
-9084.983231434341
 30
0.0
 11
26510.82222200725
 21
-8544.933615795546
 31
0.0
  0
LINE
  5
225
330
1F
100
AcDbEntity
  8
Viewport
 62
     7
420
 16777215
100
AcDbLine
 10
26883.96394909323
 20
-8544.933615795546
 30
0.0
 11
26510.82222200725
 21
-8544.933615795546
 31
0.0
  0
MTEXT
  5
226
330
1F
100
AcDbEntity
  8
Specialized_Lines
100
AcDbMText
 10
26587.65162181218
 20
-9028.055078194849
 30
0.0
 40
10.0
 41
277.5864433806018
 46
0.0
 71
     1
 72
     5
  1
{\fArial|b1|i0|c0|p34;Garage Door Jamb: PLASTERED JAMB}
 73
     1
 44
1.0
101
Embedded Object
 70
     1
 10
1.0
 20
0.0
 30
0.0
 11
26587.65162181218
 21
-9028.055078194849
 31
0.0
 40
277.5864433806018
 41
0.0
 42
260.2387448840382
 43
13.11050477489768
 71
     2
 72
     1
 44
277.5864433806018
 45
12.5
 73
     0
 74
     0
 46
0.0
  0
MTEXT
  5
227
330
1F
100
AcDbEntity
  8
Specialized_Lines
 62
    30
420
 16742400
100
AcDbMText
 10
26558.86676633081
 20
-9047.598049714505
 30
0.0
 40
4.0
 41
34.37092666967328
 46
0.0
 71
     5
 72
     5
  1
SCALE: 1:2
  7
GENERATED_STYLE_2
 73
     1
 44
1.0
101
Embedded Object
 70
     5
 10
1.0
 20
0.0
 30
0.0
 11
26558.86676633081
 21
-9047.598049714505
 31
0.0
 40
34.37092666967328
 41
0.0
 42
28.66030013642565
 43
4.136425648021827
 71
     2
 72
     1
 44
34.37092666967328
 45
12.5
 73
     0
 74
     0
 46
0.0
  0
HATCH
  5
228
330
1F
100
AcDbEntity
  8
0
 62
    30
420
 16742400
370
     5
100
AcDbHatch
 10
0.0
 20
0.0
 30
0.0
210
0.0
220
0.0
230
1.0
  2
SOLID
 70
     1
 71
     0
 91
        1
 92
        1
 93
        4
 72
     1
 10
26582.02075171233
 20
-9042.575090214112
 11
26582.02075171233
 21
-9022.575090214115
 72
     1
 10
26582.02075171233
 20
-9022.575090214115
 11
26537.02075171233
 21
-9022.575090214115
 72
     1
 10
26537.02075171233
 20
-9022.575090214115
 11
26537.02075171233
 21
-9042.575090214112
 72
     1
 10
26537.02075171233
 20
-9042.575090214112
 11
26582.02075171233
 21
-9042.575090214112
 97
        0
 75
     1
 76
     1
 98
        1
 10
26567.43592490185
 20
-9036.44140971099
450
        0
451
        0
460
0.0
461
0.0
452
        0
462
1.0
453
        2
463
0.0
 63
     5
421
      255
463
1.0
 63
     2
421
 16776960
470
LINEAR
1001
GradientColor1ACI
1070
     5
1001
GradientColor2ACI
1070
     2
1001
ACAD
1010
0.0
1020
0.0
1030
0.0
  0
LWPOLYLINE
  5
229
330
1F
100
AcDbEntity
  8
0
370
     5
100
AcDbPolyline
 90
        5
 70
     0
 43
0.0
 10
26537.02075171233
 20
-9022.575090214115
 10
26537.02075171233
 20
-9042.575090214112
 10
26582.02075171233
 20
-9042.575090214112
 10
26582.02075171233
 20
-9022.575090214115
 10
26537.02075171233
 20
-9022.575090214115
  0
MTEXT
  5
22A
330
1F
100
AcDbEntity
  8
Specialized_Lines
100
AcDbMText
 10
26559.72556680122
 20
-9032.769934860501
 30
0.0
 40
10.0
 41
90.34063603881987
 46
0.0
 71
     5
 72
     5
  1
{\fArial|b1|i0|c0|p34;22B}
 73
     1
 44
1.0
101
Embedded Object
 70
     5
 10
1.0
 20
0.0
 30
0.0
 11
26559.72556680122
 21
-9032.769934860501
 31
0.0
 40
90.34063603881987
 41
0.0
 42
24.59072305593452
 43
10.04092769440655
 71
     2
 72
     1
 44
90.34063603881987
 45
12.5
 73
     0
 74
     0
 46
0.0
  0
LWPOLYLINE
  5
22B
330
1F
100
AcDbEntity
  8
0
370
     5
100
AcDbPolyline
 90
        4
 70
     0
 43
0.0
 10
26537.02075171233
 20
-9042.575090214112
 10
26537.02075171233
 20
-9052.575090214114
 10
26582.02075171233
 20
-9052.575090214114
 10
26582.02075171233
 20
-9042.575090214112
  0
HATCH
  5
2E7
330
1F
100
AcDbEntity
  8
0
 62
    30
420
 16742400
100
AcDbHatch
 10
0.0
 20
0.0
 30
0.0
210
0.0
220
0.0
230
1.0
  2
SOLID
 70
     1
 71
     1
 91
        1
 92
        7
 72
     0
 73
     1
 93
        4
 10
26536.94182867217
 20
-9066.396690941976
 10
26536.94182867217
 20
-9071.396690941977
 10
26541.94182867217
 20
-9071.396690941973
 10
26541.94182867216
 20
-9066.396690941974
 97
        1
330
2E8
 75
     1
 76
     1
 47
0.0321901215665183
 98
        1
 10
26538.73127680087
 20
-9067.819671532218
450
        0
451
        0
460
0.0
461
0.0
452
        0
462
1.0
453
        2
463
0.0
 63
     5
421
      255
463
1.0
 63
     2
421
 16776960
470
LINEAR
1001
GradientColor1ACI
1070
     5
1001
GradientColor2ACI
1070
     2
1001
ACAD
1010
0.0
1020
0.0
1030
0.0
  0
LWPOLYLINE
  5
2E8
102
{ACAD_REACTORS
330
2E7
102
}
330
1F
100
AcDbEntity
  8
0
 62
    30
420
 16742400
100
AcDbPolyline
 90
        4
 70
     1
 43
0.0
 10
26536.94182867217
 20
-9066.396690941976
 10
26541.94182867216
 20
-9066.396690941974
 10
26541.94182867217
 20
-9071.396690941973
 10
26536.94182867217
 20
-9071.396690941977
  0
LINE
  5
2E9
330
1F
100
AcDbEntity
  8
0
 62
    30
420
 16742400
100
AcDbLine
 10
26536.94182867217
 20
-9066.396690941976
 30
0.0
 11
26541.94182867217
 21
-9066.396690941976
 31
0.0
  0
LWPOLYLINE
  5
2EA
330
1F
100
AcDbEntity
  8
0
370
     5
100
AcDbPolyline
 90
        2
 70
     0
 43
0.0
 10
26541.94182867217
 20
-9068.896690941976
 10
26863.09588659585
 20
-9068.896690941976
  0
MTEXT
  5
2EB
330
1F
100
AcDbEntity
  8
Specialized_Text
  6
Continuous
100
AcDbMText
 10
26545.5055079873
 20
-9066.370223908384
 30
0.0
 40
3.0
 41
163.0041735515597
 46
0.0
 71
     4
 72
     1
  1
© copyright 2013 Specialized Building Products Ltd
  7
GENERATED_STYLE_2
 73
     1
 44
1.0
  0
MTEXT
  5
2EC
330
1F
100
AcDbEntity
  8
Specialized_Text
  6
Continuous
100
AcDbMText
 10
26723.40650866098
 20
-9066.370223908384
 30
0.0
 40
3.0
 41
163.0041735515597
 46
0.0
 71
     4
 72
     1
  1
All Dimensions to be site checked before construction & installation
  7
GENERATED_STYLE_2
 73
     1
 44
1.0
  0
MTEXT
  5
2F0
330
1F
100
AcDbEntity
  8
Specialized_Text
  6
Continuous
 62
    30
420
 16742400
370
    20
100
AcDbMText
 10
26761.96188245019
 20
-9079.494127728498
 30
0.0
 40
5.5
 41
111.9228601720179
 46
0.0
 71
     7
 72
     1
  1
{\fArial Unicode MS|b1|i0|c0|p34;web \fArial Unicode MS|b0|i0|c0|p34;\C256;www.specialized.co.nz}
  7
GENERATED_STYLE_2
 73
     1
 44
1.12662050634974
  0
IMAGE
  5
2F2
330
1F
100
AcDbEntity
  8
0
 62
     7
420
 16777215
160
               140
310
8C000000010000008400000006000000050000003A81E7C79525DA401929DB095FC5C0C000000000000000003A81E7C79525DA4058DD4118C8B1C0C000000000000000009C8957B1FD40DA4058DD4118C8B1C0C000000000000000009C8957B1FD40DA401929DB095FC5C0C000000000000000003A81E7C79525DA401929DB
310
095FC5C0C00000000000000000
100
AcDbRasterImage
 90
        0
 10
26774.34032619114
 20
-8586.742488284174
 30
0.0
 11
0.0434841820317712
 21
0.0
 31
0.0
 12
0.0
 22
0.0434841820317712
 32
0.0
 13
2521.0
 23
901.0
340
2D7
 70
     7
280
     0
281
    50
282
    50
283
     0
290
     0
360
2F3
 71
     1
 91
        2
 14
-0.5
 24
-0.5
 14
2520.5
 24
900.5
  0
LWPOLYLINE
  5
2F4
330
1F
100
AcDbEntity
  8
Specialized_Lines
  6
PLASTER
 48
3.0
100
AcDbPolyline
 90
        7
 70
     0
 43
0.0
 10
26525.0565374009
 20
-8932.250956881341
 10
26700.77317558091
 20
-8932.250956881341
 10
26704.38491537587
 20
-8930.909021542658
 10
26705.0107601168
 20
-8927.253827173034
 10
26705.01076011679
 20
-8752.652657226828
 10
26703.08376439701
 20
-8750.08665569511
 10
26701.04805019159
 20
-8749.564125333627
  0
HATCH
  5
31A
330
1F
100
AcDbEntity
  8
Specialized_Fills
  6
Continuous
 62
    30
420
 16742400
370
    20
100
AcDbHatch
 10
0.0
 20
0.0
 30
0.0
210
0.0
220
0.0
230
1.0
  2
SOLID
 70
     1
 71
     1
 91
        1
 92
        1
 93
        7
 72
     2
 10
26701.04832530886
 20
-8908.926458393093
 40
0.6499999999978173
 50
180.0
 51
360.0
 73
     0
 72
     1
 10
26701.69832530886
 20
-8908.926458393093
 11
26701.69832530886
 21
-8928.376458393094
 72
     2
 10
26701.14832530886
 20
-8928.37645839309
 40
0.5499999999992724
 50
0.0000000003789695
 51
90.00000000037898
 73
     0
 72
     1
 10
26701.14832530886
 20
-8928.926458393089
 11
26681.69832530886
 21
-8928.926458393089
 72
     2
 10
26681.69832530886
 20
-8928.27645839309
 40
0.6499999999996362
 50
90.0
 51
270.0
 73
     0
 72
     1
 10
26681.69832530886
 20
-8927.62645839309
 11
26700.39832530886
 21
-8927.62645839309
 72
     1
 10
26700.39832530886
 20
-8927.62645839309
 11
26700.39832530886
 21
-8908.926458393093
 97
        1
330
31B
 75
     0
 76
     1
 98
        0
450
        0
451
        0
460
0.0
461
0.0
452
        1
462
0.0
453
        0
470

  0
LWPOLYLINE
  5
31B
102
{ACAD_REACTORS
330
31A
102
}
330
1F
100
AcDbEntity
  8
Specialized_Fills
  6
Continuous
100
AcDbPolyline
 90
        7
 70
   129
 43
0.0
 10
26700.39832530886
 20
-8908.926458393093
 42
-0.9999999999999998
 10
26701.69832530886
 20
-8908.926458393093
 10
26701.69832530886
 20
-8928.376458393094
 42
-0.414213562373566
 10
26701.14832530886
 20
-8928.926458393089
 10
26681.69832530886
 20
-8928.926458393089
 42
-0.9999999999999998
 10
26681.69832530886
 20
-8927.62645839309
 10
26700.39832530886
 20
-8927.62645839309
  0
HATCH
  5
31C
330
1F
100
AcDbEntity
  8
Specialized_Fills
  6
Continuous
 62
    30
420
 16742400
370
    20
100
AcDbHatch
 10
0.0
 20
0.0
 30
0.0
210
0.0
220
0.0
230
1.0
  2
SOLID
 70
     1
 71
     1
 91
        1
 92
        1
 93
        7
 72
     2
 10
26701.10670584519
 20
-8768.815790867837
 40
0.6499999999978173
 50
180.0
 51
360.0
 73
     1
 72
     1
 10
26701.75670584519
 20
-8768.815790867837
 11
26701.75670584519
 21
-8749.365790867836
 72
     2
 10
26701.20670584519
 20
-8749.365790867839
 40
0.5499999999992724
 50
0.0000000003789833
 51
90.00000000037898
 73
     1
 72
     1
 10
26701.20670584519
 20
-8748.815790867841
 11
26681.75670584519
 21
-8748.815790867841
 72
     2
 10
26681.75670584519
 20
-8749.465790867841
 40
0.6499999999996362
 50
90.0
 51
270.0
 73
     1
 72
     1
 10
26681.75670584519
 20
-8750.115790867839
 11
26700.45670584519
 21
-8750.115790867839
 72
     1
 10
26700.45670584519
 20
-8750.115790867839
 11
26700.45670584519
 21
-8768.815790867837
 97
        1
330
31D
 75
     0
 76
     1
 98
        0
450
        0
451
        0
460
0.0
461
0.0
452
        1
462
0.0
453
        0
470

  0
LWPOLYLINE
  5
31D
102
{ACAD_REACTORS
330
31C
102
}
330
1F
100
AcDbEntity
  8
Specialized_Fills
  6
Continuous
100
AcDbPolyline
 90
        7
 70
   129
 43
0.0
 10
26700.45670584519
 20
-8768.815790867837
 42
0.9999999999999998
 10
26701.75670584519
 20
-8768.815790867837
 10
26701.75670584519
 20
-8749.365790867836
 42
0.414213562373566
 10
26701.20670584519
 20
-8748.815790867841
 10
26681.75670584519
 20
-8748.815790867841
 42
0.9999999999999998
 10
26681.75670584519
 20
-8750.115790867839
 10
26700.45670584519
 20
-8750.115790867839
  0
MTEXT
  5
34B
330
1F
100
AcDbEntity
  8
Specialized_Lines
  6
Hidden
 62
    30
420
 16742400
100
AcDbMText
 10
26519.07697583594
 20
-8553.819866181251
 30
0.0
 40
4.25
 41
364.8869732572903
 46
0.0
 71
     1
 72
     5
  1
Note: This drawing is outside the scope of BRANZ Appraisal 510 (2013)
  7
1-2 SPECIALIZED
 73
     1
 44
1.0
101
Embedded Object
 70
     1
 10
1.0
 20
0.0
 30
0.0
 11
26519.07697583594
 21
-8553.819866181251
 31
0.0
 40
364.8869732572903
 41
0.0
 42
187.9421896316507
 43
5.56906548431105
 71
     2
 72
     1
 44
364.8869732572903
 45
21.25
 73
     0
 74
     0
 46
0.0
  0
ENDSEC
  0
SECTION
  2
OBJECTS
  0
DICTIONARY
  5
C
330
0
100
AcDbDictionary
281
     1
  3
ACAD_CIP_PREVIOUS_PRODUCT_INFO
350
1F1
  3
ACAD_COLOR
350
1E5
  3
ACAD_DETAILVIEWSTYLE
350
1EA
  3
ACAD_GROUP
350
D
  3
ACAD_IMAGE_DICT
350
219
  3
ACAD_IMAGE_VARS
350
21E
  3
ACAD_LAYOUT
350
1A
  3
ACAD_MATERIAL
350
3B
  3
ACAD_MLEADERSTYLE
350
1D8
  3
ACAD_MLINESTYLE
350
17
  3
ACAD_PLOTSETTINGS
350
19
  3
ACAD_PLOTSTYLENAME
350
E
  3
ACAD_SCALELIST
350
13F
  3
ACAD_SECTIONVIEWSTYLE
350
1E8
  3
ACAD_TABLESTYLE
350
1D7
  3
ACAD_VISUALSTYLE
350
2A
  3
ACDB_RECOMPOSE_DATA
350
362
  3
AcDbVariableDictionary
350
1B5
  3
WATERMARKS
350
1B3
  0
DICTIONARY
  5
203
330
2
100
AcDbDictionary
280
     1
281
     1
  3
ACAD_LAYERSTATES
360
204
  0
DICTIONARY
  5
22E
330
10
100
AcDbDictionary
280
     1
281
     1
  3
ADSK_XREC_LAYER_RECONCILED
360
22F
  0
DICTIONARY
  5
230
330
46
100
AcDbDictionary
280
     1
281
     1
  3
ADSK_XREC_LAYER_RECONCILED
360
231
  0
DICTIONARY
  5
232
330
171
100
AcDbDictionary
280
     1
281
     1
  3
ADSK_XREC_LAYER_RECONCILED
360
233
  0
DICTIONARY
  5
1F8
330
1F7
100
AcDbDictionary
280
     1
281
     1
  3
ADSK_XREC_LAYER_RECONCILED
360
234
  0
DICTIONARY
  5
1FA
330
1F9
100
AcDbDictionary
280
     1
281
     1
  3
ADSK_XREC_LAYER_RECONCILED
360
235
  0
DICTIONARY
  5
33B
330
1F
100
AcDbDictionary
280
     1
281
     1
  3
ACAD_SORTENTS
360
33C
  0
DICTIONARY
  5
251
330
3F
100
AcDbDictionary
280
     1
281
     1
  3
ACAD_SORTENTS
360
25C
  0
IMAGEDEF_REACTOR
  5
2F3
330
2F2
100
AcDbRasterImageDefReactor
 90
        2
330
2F2
  0
XRECORD
  5
1F1
102
{ACAD_REACTORS
330
C
102
}
330
C
100
AcDbXrecord
280
     1
300
ACD
300
2019
300
BDSPRM_F_S
  0
DICTIONARY
  5
1E5
102
{ACAD_REACTORS
330
C
102
}
330
C
100
AcDbDictionary
281
     1
  0
DICTIONARY
  5
1EA
102
{ACAD_REACTORS
330
C
102
}
330
C
100
AcDbDictionary
281
     1
  3
Imperial24
350
1EB
  0
DICTIONARY
  5
D
102
{ACAD_REACTORS
330
C
102
}
330
C
100
AcDbDictionary
281
     1
  0
DICTIONARY
  5
219
102
{ACAD_REACTORS
330
C
102
}
330
C
100
AcDbDictionary
281
     1
  3
logo sharp
350
2D7
  0
RASTERVARIABLES
  5
21E
102
{ACAD_REACTORS
330
C
102
}
330
C
100
AcDbRasterVariables
 90
        0
 70
     1
 71
     1
 72
     0
  0
DICTIONARY
  5
1A
102
{ACAD_REACTORS
330
C
102
}
330
C
100
AcDbDictionary
281
     1
  3
Layout1
350
1E
  3
Layout2
350
26
  3
Model
350
22
  0
DICTIONARY
  5
3B
102
{ACAD_REACTORS
330
C
102
}
330
C
100
AcDbDictionary
281
     1
  3
ByBlock
350
3D
  3
ByLayer
350
3C
  3
Global
350
3E
  0
DICTIONARY
  5
1D8
102
{ACAD_REACTORS
330
C
102
}
330
C
100
AcDbDictionary
281
     1
  3
Standard
350
1E7
  0
DICTIONARY
  5
17
102
{ACAD_REACTORS
330
C
102
}
330
C
100
AcDbDictionary
281
     1
  3
Standard
350
18
  0
DICTIONARY
  5
19
102
{ACAD_REACTORS
330
C
102
}
330
C
100
AcDbDictionary
281
     1
  0
ACDBDICTIONARYWDFLT
  5
E
102
{ACAD_REACTORS
330
C
102
}
330
C
100
AcDbDictionary
281
     1
  3
Normal
350
F
100
AcDbDictionaryWithDefault
340
F
  0
DICTIONARY
  5
13F
102
{ACAD_REACTORS
330
C
102
}
330
C
100
AcDbDictionary
281
     1
  3
A0
350
140
  3
A1
350
141
  3
A2
350
142
  3
A3
350
143
  3
A4
350
144
  3
A5
350
145
  3
A6
350
146
  3
A7
350
147
  3
A8
350
148
  3
A9
350
149
  3
B0
350
14A
  3
B1
350
14B
  3
B2
350
14C
  3
B3
350
14D
  3
B4
350
14E
  3
B5
350
14F
  3
B6
350
150
  3
B7
350
151
  3
B8
350
152
  3
B9
350
153
  3
C0
350
154
  3
C1
350
155
  3
C2
350
156
  3
C3
350
157
  3
C4
350
158
  3
C5
350
159
  3
C6
350
15A
  3
C7
350
15B
  3
C8
350
15C
  3
C9
350
15D
  3
D0
350
15E
  3
D1
350
15F
  3
D2
350
160
  0
DICTIONARY
  5
1E8
102
{ACAD_REACTORS
330
C
102
}
330
C
100
AcDbDictionary
281
     1
  3
Imperial24
350
1E9
  0
DICTIONARY
  5
1D7
102
{ACAD_REACTORS
330
C
102
}
330
C
100
AcDbDictionary
281
     1
  3
Standard
350
1E6
  0
DICTIONARY
  5
2A
102
{ACAD_REACTORS
330
C
102
}
330
C
100
AcDbDictionary
281
     1
  3
2dWireframe
350
2F
  3
3D Hidden
350
31
  3
3dWireframe
350
30
  3
Basic
350
32
  3
Brighten
350
36
  3
ColorChange
350
3A
  3
Conceptual
350
34
  3
Dim
350
35
  3
EdgeColorOff
350
1E4
  3
Facepattern
350
39
  3
Flat
350
2B
  3
FlatWithEdges
350
2C
  3
Gouraud
350
2D
  3
GouraudWithEdges
350
2E
  3
Hidden
350
1DC
  3
JitterOff
350
1E2
  3
Linepattern
350
38
  3
OverhangOff
350
1E3
  3
Realistic
350
33
  3
Shaded
350
1E1
  3
Shaded with edges
350
1E0
  3
Shades of Gray
350
1DD
  3
Sketchy
350
1DE
  3
Thicken
350
37
  3
Wireframe
350
1DB
  3
X-Ray
350
1DF
  0
XRECORD
  5
362
102
{ACAD_REACTORS
330
C
102
}
330
C
100
AcDbXrecord
280
     1
 90
        1
330
1E6
  0
DICTIONARY
  5
1B5
102
{ACAD_REACTORS
330
C
102
}
330
C
100
AcDbDictionary
281
     1
  3
CANNOSCALE
350
1B6
  3
CMLEADERSTYLE
350
271
  3
CTABLESTYLE
350
270
  3
CVIEWDETAILSTYLE
350
272
  3
CVIEWSECTIONSTYLE
350
273
  3
HPCOLOR
350
257
  3
LAYEREVAL
350
274
  3
LAYERNOTIFY
350
275
  0
DICTIONARY
  5
1B3
102
{ACAD_REACTORS
330
C
102
}
330
C
100
AcDbDictionary
281
     1
  3
AC_WATERMARK
350
1B4
  0
DICTIONARY
  5
204
102
{ACAD_REACTORS
330
203
102
}
330
203
100
AcDbDictionary
281
     1
  0
XRECORD
  5
22F
102
{ACAD_REACTORS
330
22E
102
}
330
22E
100
AcDbXrecord
280
     1
290
     1
  0
XRECORD
  5
231
102
{ACAD_REACTORS
330
230
102
}
330
230
100
AcDbXrecord
280
     1
290
     1
  0
XRECORD
  5
233
102
{ACAD_REACTORS
330
232
102
}
330
232
100
AcDbXrecord
280
     1
290
     1
  0
XRECORD
  5
234
102
{ACAD_REACTORS
330
1F8
102
}
330
1F8
100
AcDbXrecord
280
     1
290
     1
  0
XRECORD
  5
235
102
{ACAD_REACTORS
330
1FA
102
}
330
1FA
100
AcDbXrecord
280
     1
290
     1
  0
SORTENTSTABLE
  5
33C
102
{ACAD_REACTORS
330
33B
102
}
330
33B
100
AcDbSortentsTable
330
1F
  0
SORTENTSTABLE
  5
25C
102
{ACAD_REACTORS
330
251
102
}
330
251
100
AcDbSortentsTable
330
3F
331
24C
  5
24E
331
24D
  5
24F
331
24E
  5
255
331
24F
  5
258
331
25E
  5
24D
  0
ACDBDETAILVIEWSTYLE
  5
1EB
102
{ACAD_REACTORS
330
1EA
102
}
330
1EA
100
AcDbModelDocViewStyle
 70
     0
  3
Imperial24
290
     0
300
Imperial24
 90
        0
100
AcDbDetailViewStyle
 70
     0
 71
     0
 90
        3
 71
     1
340
11
 62
   256
 40
0.24
340
0
 62
   256
 40
0.24
300

 40
0.36
280
     3
 71
     2
340
16
 90
       25
 62
   256
 71
     3
340
11
 62
   256
 40
0.24
 90
        1
 40
0.75
 90
        1
300
%<\AcVar ViewType \f "%tc1">% %<\AcVar ViewDetailId>%\PSCALE %<\AcVar ViewScale \f "%sn">%
 71
     4
340
16
 90
       25
 62
   256
340
16
 90
       25
 62
   256
280
     0
  0
IMAGEDEF
  5
2D7
102
{ACAD_REACTORS
330
219
330
2F3
102
}
330
219
100
AcDbRasterImageDef
 90
        0
  1
P:\VERT-X CONSULTING LTD\2013\10 Oct\1310-015- Specialized Construction Products - Contract draughting\Drawings\logo sharp.JPG
 10
2521.0
 20
901.0
 11
0.2645833333333333
 21
0.2645833333333333
280
     1
281
     5
  0
LAYOUT
  5
1E
102
{ACAD_REACTORS
330
1A
102
}
330
1A
100
AcDbPlotSettings
  1

  2
none_device
  4

  6

 40
0.0
 41
0.0
 42
0.0
 43
0.0
 44
0.0
 45
0.0
 46
0.0
 47
0.0
 48
0.0
 49
0.0
140
0.0
141
0.0
142
1.0
143
1.0
 70
   688
 72
     0
 73
     0
 74
     5
  7

 75
    16
147
1.0
 76
     0
 77
     2
 78
   300
148
0.0
149
0.0
100
AcDbLayout
  1
Layout1
 70
     1
 71
     1
 10
0.0
 20
0.0
 11
12.0
 21
9.0
 12
0.0
 22
0.0
 32
0.0
 14
1.000000000000000E+20
 24
1.000000000000000E+20
 34
1.000000000000000E+20
 15
-1.000000000000000E+20
 25
-1.000000000000000E+20
 35
-1.000000000000000E+20
146
0.0
 13
0.0
 23
0.0
 33
0.0
 16
1.0
 26
0.0
 36
0.0
 17
0.0
 27
1.0
 37
0.0
 76
     0
330
1B
  0
LAYOUT
  5
26
102
{ACAD_REACTORS
330
1A
102
}
330
1A
100
AcDbPlotSettings
  1

  2
none_device
  4

  6

 40
0.0
 41
0.0
 42
0.0
 43
0.0
 44
0.0
 45
0.0
 46
0.0
 47
0.0
 48
0.0
 49
0.0
140
0.0
141
0.0
142
1.0
143
1.0
 70
   688
 72
     0
 73
     0
 74
     5
  7

 75
    16
147
1.0
 76
     0
 77
     2
 78
   300
148
0.0
149
0.0
100
AcDbLayout
  1
Layout2
 70
     1
 71
     2
 10
0.0
 20
0.0
 11
0.0
 21
0.0
 12
0.0
 22
0.0
 32
0.0
 14
0.0
 24
0.0
 34
0.0
 15
0.0
 25
0.0
 35
0.0
146
0.0
 13
0.0
 23
0.0
 33
0.0
 16
1.0
 26
0.0
 36
0.0
 17
0.0
 27
1.0
 37
0.0
 76
     0
330
23
  0
LAYOUT
  5
22
102
{ACAD_REACTORS
330
1A
102
}
330
1A
100
AcDbPlotSettings
  1

  2
none_device
  4

  6

 40
0.0
 41
0.0
 42
0.0
 43
0.0
 44
0.0
 45
0.0
 46
0.0
 47
0.0
 48
0.0
 49
0.0
140
0.0
141
0.0
142
1.0
143
1.0
 70
  1712
 72
     0
 73
     0
 74
     0
  7

 75
     0
147
1.0
 76
     0
 77
     2
 78
   300
148
0.0
149
0.0
100
AcDbLayout
  1
Model
 70
     1
 71
     0
 10
0.0
 20
0.0
 11
12.0
 21
9.0
 12
0.0
 22
0.0
 32
0.0
 14
1.000000000000000E+20
 24
1.000000000000000E+20
 34
1.000000000000000E+20
 15
-1.000000000000000E+20
 25
-1.000000000000000E+20
 35
-1.000000000000000E+20
146
0.0
 13
0.0
 23
0.0
 33
0.0
 16
1.0
 26
0.0
 36
0.0
 17
0.0
 27
1.0
 37
0.0
 76
     0
330
1F
331
29
  0
MATERIAL
  5
3D
102
{ACAD_REACTORS
330
3B
102
}
330
3B
100
AcDbMaterial
  1
ByBlock
 73
     1
 78
     1
172
     1
176
     1
270
     1
274
     1
  0
MATERIAL
  5
3C
102
{ACAD_REACTORS
330
3B
102
}
330
3B
100
AcDbMaterial
  1
ByLayer
 73
     1
 78
     1
172
     1
176
     1
270
     1
274
     1
  0
MATERIAL
  5
3E
102
{ACAD_REACTORS
330
3B
102
}
330
3B
100
AcDbMaterial
  1
Global
 73
     1
 78
     1
172
     1
176
     1
270
     1
274
     1
  0
MLEADERSTYLE
  5
1E7
102
{ACAD_REACTORS
330
1D8
102
}
330
1D8
100
AcDbMLeaderStyle
179
     2
170
     2
171
     1
172
     0
 90
        2
 40
0.0
 41
0.0
173
     1
 91
-1056964608
340
14
 92
       -2
290
     1
 42
0.09
291
     1
 43
0.36
  3
Standard
 44
0.18
300

342
11
174
     1
178
     6
175
     1
176
     0
 93
-1056964608
 45
0.18
292
     0
297
     0
 46
0.18
 94
-1056964608
 47
1.0
 49
1.0
140
1.0
293
     1
141
0.0
294
     1
177
     0
142
1.0
295
     1
296
     0
143
0.125
271
     0
272
     9
273
     9
298
     1
  0
MLINESTYLE
  5
18
102
{ACAD_REACTORS
330
17
102
}
330
17
100
AcDbMlineStyle
  2
STANDARD
 70
     0
  3

 62
   256
 51
90.0
 52
90.0
 71
     2
 49
0.5
 62
   256
  6
BYLAYER
 49
-0.5
 62
   256
  6
BYLAYER
  0
ACDBPLACEHOLDER
  5
F
102
{ACAD_REACTORS
330
E
102
}
330
E
  0
SCALE
  5
140
102
{ACAD_REACTORS
330
13F
102
}
330
13F
100
AcDbScale
 70
     0
300
1:1
140
1.0
141
1.0
290
     1
  0
SCALE
  5
141
102
{ACAD_REACTORS
330
13F
102
}
330
13F
100
AcDbScale
 70
     0
300
1:2
140
1.0
141
2.0
290
     0
  0
SCALE
  5
142
102
{ACAD_REACTORS
330
13F
102
}
330
13F
100
AcDbScale
 70
     0
300
1:4
140
1.0
141
4.0
290
     0
  0
SCALE
  5
143
102
{ACAD_REACTORS
330
13F
102
}
330
13F
100
AcDbScale
 70
     0
300
1:5
140
1.0
141
5.0
290
     0
  0
SCALE
  5
144
102
{ACAD_REACTORS
330
13F
102
}
330
13F
100
AcDbScale
 70
     0
300
1:8
140
1.0
141
8.0
290
     0
  0
SCALE
  5
145
102
{ACAD_REACTORS
330
13F
102
}
330
13F
100
AcDbScale
 70
     0
300
1:10
140
1.0
141
10.0
290
     0
  0
SCALE
  5
146
102
{ACAD_REACTORS
330
13F
102
}
330
13F
100
AcDbScale
 70
     0
300
1:16
140
1.0
141
16.0
290
     0
  0
SCALE
  5
147
102
{ACAD_REACTORS
330
13F
102
}
330
13F
100
AcDbScale
 70
     0
300
1:20
140
1.0
141
20.0
290
     0
  0
SCALE
  5
148
102
{ACAD_REACTORS
330
13F
102
}
330
13F
100
AcDbScale
 70
     0
300
1:30
140
1.0
141
30.0
290
     0
  0
SCALE
  5
149
102
{ACAD_REACTORS
330
13F
102
}
330
13F
100
AcDbScale
 70
     0
300
1:40
140
1.0
141
40.0
290
     0
  0
SCALE
  5
14A
102
{ACAD_REACTORS
330
13F
102
}
330
13F
100
AcDbScale
 70
     0
300
1:50
140
1.0
141
50.0
290
     0
  0
SCALE
  5
14B
102
{ACAD_REACTORS
330
13F
102
}
330
13F
100
AcDbScale
 70
     0
300
1:100
140
1.0
141
100.0
290
     0
  0
SCALE
  5
14C
102
{ACAD_REACTORS
330
13F
102
}
330
13F
100
AcDbScale
 70
     0
300
2:1
140
2.0
141
1.0
290
     0
  0
SCALE
  5
14D
102
{ACAD_REACTORS
330
13F
102
}
330
13F
100
AcDbScale
 70
     0
300
4:1
140
4.0
141
1.0
290
     0
  0
SCALE
  5
14E
102
{ACAD_REACTORS
330
13F
102
}
330
13F
100
AcDbScale
 70
     0
300
8:1
140
8.0
141
1.0
290
     0
  0
SCALE
  5
14F
102
{ACAD_REACTORS
330
13F
102
}
330
13F
100
AcDbScale
 70
     0
300
10:1
140
10.0
141
1.0
290
     0
  0
SCALE
  5
150
102
{ACAD_REACTORS
330
13F
102
}
330
13F
100
AcDbScale
 70
     0
300
100:1
140
100.0
141
1.0
290
     0
  0
SCALE
  5
151
102
{ACAD_REACTORS
330
13F
102
}
330
13F
100
AcDbScale
 70
     0
300
1/128" = 1'-0"
140
0.0078125
141
12.0
290
     0
  0
SCALE
  5
152
102
{ACAD_REACTORS
330
13F
102
}
330
13F
100
AcDbScale
 70
     0
300
1/64" = 1'-0"
140
0.015625
141
12.0
290
     0
  0
SCALE
  5
153
102
{ACAD_REACTORS
330
13F
102
}
330
13F
100
AcDbScale
 70
     0
300
1/32" = 1'-0"
140
0.03125
141
12.0
290
     0
  0
SCALE
  5
154
102
{ACAD_REACTORS
330
13F
102
}
330
13F
100
AcDbScale
 70
     0
300
1/16" = 1'-0"
140
0.0625
141
12.0
290
     0
  0
SCALE
  5
155
102
{ACAD_REACTORS
330
13F
102
}
330
13F
100
AcDbScale
 70
     0
300
3/32" = 1'-0"
140
0.09375
141
12.0
290
     0
  0
SCALE
  5
156
102
{ACAD_REACTORS
330
13F
102
}
330
13F
100
AcDbScale
 70
     0
300
1/8" = 1'-0"
140
0.125
141
12.0
290
     0
  0
SCALE
  5
157
102
{ACAD_REACTORS
330
13F
102
}
330
13F
100
AcDbScale
 70
     0
300
3/16" = 1'-0"
140
0.1875
141
12.0
290
     0
  0
SCALE
  5
158
102
{ACAD_REACTORS
330
13F
102
}
330
13F
100
AcDbScale
 70
     0
300
1/4" = 1'-0"
140
0.25
141
12.0
290
     0
  0
SCALE
  5
159
102
{ACAD_REACTORS
330
13F
102
}
330
13F
100
AcDbScale
 70
     0
300
3/8" = 1'-0"
140
0.375
141
12.0
290
     0
  0
SCALE
  5
15A
102
{ACAD_REACTORS
330
13F
102
}
330
13F
100
AcDbScale
 70
     0
300
1/2" = 1'-0"
140
0.5
141
12.0
290
     0
  0
SCALE
  5
15B
102
{ACAD_REACTORS
330
13F
102
}
330
13F
100
AcDbScale
 70
     0
300
3/4" = 1'-0"
140
0.75
141
12.0
290
     0
  0
SCALE
  5
15C
102
{ACAD_REACTORS
330
13F
102
}
330
13F
100
AcDbScale
 70
     0
300
1" = 1'-0"
140
1.0
141
12.0
290
     0
  0
SCALE
  5
15D
102
{ACAD_REACTORS
330
13F
102
}
330
13F
100
AcDbScale
 70
     0
300
1-1/2" = 1'-0"
140
1.5
141
12.0
290
     0
  0
SCALE
  5
15E
102
{ACAD_REACTORS
330
13F
102
}
330
13F
100
AcDbScale
 70
     0
300
3" = 1'-0"
140
3.0
141
12.0
290
     0
  0
SCALE
  5
15F
102
{ACAD_REACTORS
330
13F
102
}
330
13F
100
AcDbScale
 70
     0
300
6" = 1'-0"
140
6.0
141
12.0
290
     0
  0
SCALE
  5
160
102
{ACAD_REACTORS
330
13F
102
}
330
13F
100
AcDbScale
 70
     0
300
1'-0" = 1'-0"
140
12.0
141
12.0
290
     0
  0
ACDBSECTIONVIEWSTYLE
  5
1E9
102
{ACAD_REACTORS
330
1E8
102
}
330
1E8
100
AcDbModelDocViewStyle
 70
     0
  3
Imperial24
290
     0
300
Imperial24
 90
        0
100
AcDbSectionViewStyle
 70
     0
 71
     0
 90
       78
 71
     1
340
11
 62
   256
 40
0.24
340
0
340
0
 62
   256
 40
0.24
300
I, O, Q, S, X, Z
 40
0.48
 90
        3
 40
0.18
 90
        1
 71
     2
340
16
 90
       25
 62
   256
340
16
 90
       50
 62
   256
 40
0.24
 40
0.0
 40
0.24
 71
     3
340
11
 62
   256
 40
0.24
 90
        1
 40
0.75
 90
        1
300
%<\AcVar ViewType \f "%tc1">% %<\AcVar ViewSectionStartId>%-%<\AcVar ViewSectionEndId>%\PSCALE %<\AcVar ViewScale \f "%sn">%
 71
     4
 62
   256
 62
   257
300
ANSI31
 40
1.0
 90
        0
290
     0
290
     0
 90
        6
 40
0.0
 40
1.570796326794896
 40
0.2617993877991494
 40
1.308996938995747
 40
-0.2617993877991494
 40
1.832595714594046
  0
TABLESTYLE
  5
1E6
102
{ACAD_XDICTIONARY
360
360
102
}
102
{ACAD_REACTORS
330
1D7
102
}
330
1D7
100
AcDbTableStyle
280
     0
  3
Standard
 70
     0
 71
     0
 40
0.06
 41
0.06
280
     0
281
     0
  7
Standard
140
0.18
170
     2
 62
     0
 63
     7
283
     0
 90
      512
 91
        0
  1

274
    -2
284
     1
 64
     0
275
    -2
285
     1
 65
     0
276
    -2
286
     1
 66
     0
277
    -2
287
     1
 67
     0
278
    -2
288
     1
 68
     0
279
    -2
289
     1
 69
     0
  7
Standard
140
0.25
170
     5
 62
     0
 63
     7
283
     0
 90
      512
 91
        0
  1

274
    -2
284
     1
 64
     0
275
    -2
285
     1
 65
     0
276
    -2
286
     1
 66
     0
277
    -2
287
     1
 67
     0
278
    -2
288
     1
 68
     0
279
    -2
289
     1
 69
     0
  7
Standard
140
0.18
170
     5
 62
     0
 63
     7
283
     0
 90
      512
 91
        0
  1

274
    -2
284
     1
 64
     0
275
    -2
285
     1
 65
     0
276
    -2
286
     1
 66
     0
277
    -2
287
     1
 67
     0
278
    -2
288
     1
 68
     0
279
    -2
289
     1
 69
     0
  0
VISUALSTYLE
  5
2F
102
{ACAD_REACTORS
330
2A
102
}
330
2A
100
AcDbVisualStyle
  2
2dWireframe
 70
     4
177
     3
291
     0
 70
    58
 90
        0
176
     1
 90
        2
176
     1
 90
        0
176
     1
 90
        0
176
     1
 40
0.6
176
     1
 40
30.0
176
     1
 62
     7
420
 16777215
176
     1
 90
        1
176
     1
 90
        4
176
     1
 62
     7
176
     1
 62
   257
176
     1
 90
        1
176
     1
 90
        1
176
     1
 40
1.0
176
     1
 90
        0
176
     1
 62
   257
176
     1
 40
1.0
176
     1
 90
        1
176
     1
 90
        6
176
     1
 90
        2
176
     1
 62
     7
176
     1
 90
        5
176
     1
 90
        0
176
     1
 90
        0
176
     1
290
     0
176
     1
 90
        1
176
     1
 40
0.0
176
     1
 90
        0
176
     1
290
     1
176
     1
290
     1
176
     1
290
     0
176
     1
290
     0
176
     1
290
     0
176
     1
290
     0
176
     1
290
     0
176
     1
290
     0
176
     1
290
     0
176
     1
 90
       50
176
     1
 40
0.0
176
     1
 40
1.0
176
     1
 90
        0
176
     1
 62
    18
420
        0
176
     1
 90
       50
176
     1
 90
        3
176
     1
 62
     5
420
      255
176
     1
290
     0
176
     1
 90
       50
176
     1
 90
       50
176
     1
 90
       50
176
     1
290
     0
176
     1
 90
       50
176
     1
 62
   256
176
     0
 40
1.0
176
     0
 90
        2
176
     1
  1
strokes_ogs.tif
176
     1
290
     0
176
     1
 40
1.0
176
     1
 40
1.0
176
     1
  0
VISUALSTYLE
  5
31
102
{ACAD_REACTORS
330
2A
102
}
330
2A
100
AcDbVisualStyle
  2
3D Hidden
 70
     6
177
     3
291
     0
 70
    58
 90
        1
176
     1
 90
        2
176
     1
 90
        2
176
     1
 90
        0
176
     1
 40
0.6
176
     1
 40
30.0
176
     1
 62
     7
420
 16777215
176
     1
 90
        2
176
     1
 90
        2
176
     1
 62
     7
176
     1
 62
   257
176
     1
 90
        2
176
     1
 90
        1
176
     1
 40
40.0
176
     1
 90
        0
176
     1
 62
   257
176
     1
 40
1.0
176
     1
 90
        1
176
     1
 90
        6
176
     1
 90
        2
176
     1
 62
     7
176
     1
 90
        3
176
     1
 90
        0
176
     1
 90
        0
176
     1
290
     0
176
     1
 90
        1
176
     1
 40
0.0
176
     1
 90
        0
176
     1
290
     0
176
     1
290
     1
176
     1
290
     1
176
     1
290
     0
176
     1
290
     0
176
     1
290
     0
176
     1
290
     0
176
     1
290
     0
176
     1
290
     0
176
     1
 90
       50
176
     1
 40
0.0
176
     1
 40
1.0
176
     1
 90
        0
176
     1
 62
    18
420
        0
176
     1
 90
       50
176
     1
 90
        3
176
     1
 62
     5
420
      255
176
     1
290
     0
176
     1
 90
       50
176
     1
 90
       50
176
     1
 90
       50
176
     1
290
     0
176
     1
 90
       50
176
     1
 62
   256
176
     0
 40
1.0
176
     0
 90
        2
176
     1
  1
strokes_ogs.tif
176
     1
290
     0
176
     1
 40
1.0
176
     1
 40
1.0
176
     1
  0
VISUALSTYLE
  5
30
102
{ACAD_REACTORS
330
2A
102
}
330
2A
100
AcDbVisualStyle
  2
3dWireframe
 70
     5
177
     3
291
     0
 70
    58
 90
        0
176
     1
 90
        2
176
     1
 90
        0
176
     1
 90
        0
176
     1
 40
0.6
176
     1
 40
30.0
176
     1
 62
     7
420
 16777215
176
     1
 90
        1
176
     1
 90
        4
176
     1
 62
     7
176
     1
 62
   257
176
     1
 90
        1
176
     1
 90
        1
176
     1
 40
1.0
176
     1
 90
        0
176
     1
 62
   257
176
     1
 40
1.0
176
     1
 90
        1
176
     1
 90
        6
176
     1
 90
        2
176
     1
 62
     7
176
     1
 90
        5
176
     1
 90
        0
176
     1
 90
        0
176
     1
290
     0
176
     1
 90
        1
176
     1
 40
0.0
176
     1
 90
        0
176
     1
290
     0
176
     1
290
     1
176
     1
290
     1
176
     1
290
     0
176
     1
290
     0
176
     1
290
     0
176
     1
290
     0
176
     1
290
     0
176
     1
290
     0
176
     1
 90
       50
176
     1
 40
0.0
176
     1
 40
1.0
176
     1
 90
        0
176
     1
 62
    18
420
        0
176
     1
 90
       50
176
     1
 90
        3
176
     1
 62
     5
420
      255
176
     1
290
     0
176
     1
 90
       50
176
     1
 90
       50
176
     1
 90
       50
176
     1
290
     0
176
     1
 90
       50
176
     1
 62
   256
176
     0
 40
1.0
176
     0
 90
        2
176
     1
  1
strokes_ogs.tif
176
     1
290
     0
176
     1
 40
1.0
176
     1
 40
1.0
176
     1
  0
VISUALSTYLE
  5
32
102
{ACAD_REACTORS
330
2A
102
}
330
2A
100
AcDbVisualStyle
  2
Basic
 70
     7
177
     3
291
     1
 70
    58
 90
        1
176
     1
 90
        0
176
     1
 90
        1
176
     1
 90
        0
176
     1
 40
0.6
176
     1
 40
30.0
176
     1
 62
     7
420
 16777215
176
     1
 90
        0
176
     1
 90
        4
176
     1
 62
     7
176
     1
 62
   257
176
     1
 90
        1
176
     1
 90
        1
176
     1
 40
1.0
176
     1
 90
        8
176
     1
 62
     7
176
     1
 40
1.0
176
     1
 90
        1
176
     1
 90
        6
176
     1
 90
        2
176
     1
 62
     7
176
     1
 90
        5
176
     1
 90
        0
176
     1
 90
        0
176
     1
290
     0
176
     1
 90
        1
176
     1
 40
0.0
176
     1
 90
        0
176
     1
290
     0
176
     1
290
     1
176
     1
290
     1
176
     1
290
     0
176
     1
290
     0
176
     1
290
     0
176
     1
290
     0
176
     1
290
     0
176
     1
290
     0
176
     1
 90
       50
176
     1
 40
0.0
176
     1
 40
1.0
176
     1
 90
        0
176
     1
 62
    18
420
        0
176
     1
 90
       50
176
     1
 90
        3
176
     1
 62
     5
420
      255
176
     1
290
     0
176
     1
 90
       50
176
     1
 90
       50
176
     1
 90
       50
176
     1
290
     0
176
     1
 90
       50
176
     1
 62
   256
176
     0
 40
1.0
176
     0
 90
        2
176
     1
  1
strokes_ogs.tif
176
     1
290
     0
176
     1
 40
1.0
176
     1
 40
1.0
176
     1
  0
VISUALSTYLE
  5
36
102
{ACAD_REACTORS
330
2A
102
}
330
2A
100
AcDbVisualStyle
  2
Brighten
 70
    12
177
     3
291
     1
 70
    58
 90
        2
176
     1
 90
        2
176
     1
 90
        0
176
     1
 90
        0
176
     1
 40
0.6
176
     1
 40
30.0
176
     1
 62
     7
420
 16777215
176
     1
 90
        1
176
     1
 90
        4
176
     1
 62
     7
176
     1
 62
   257
176
     1
 90
        1
176
     1
 90
        1
176
     1
 40
1.0
176
     1
 90
        8
176
     1
 62
     7
176
     1
 40
1.0
176
     1
 90
        1
176
     1
 90
        6
176
     1
 90
        2
176
     1
 62
     7
176
     1
 90
        5
176
     1
 90
        0
176
     1
 90
        0
176
     1
290
     0
176
     1
 90
        1
176
     1
 40
50.0
176
     1
 90
        0
176
     1
290
     0
176
     1
290
     1
176
     1
290
     1
176
     1
290
     0
176
     1
290
     0
176
     1
290
     0
176
     1
290
     0
176
     1
290
     0
176
     1
290
     0
176
     1
 90
       50
176
     1
 40
0.0
176
     1
 40
1.0
176
     1
 90
        0
176
     1
 62
    18
420
        0
176
     1
 90
       50
176
     1
 90
        3
176
     1
 62
     5
420
      255
176
     1
290
     0
176
     1
 90
       50
176
     1
 90
       50
176
     1
 90
       50
176
     1
290
     0
176
     1
 90
       50
176
     1
 62
   256
176
     0
 40
1.0
176
     0
 90
        2
176
     1
  1
strokes_ogs.tif
176
     1
290
     0
176
     1
 40
1.0
176
     1
 40
1.0
176
     1
  0
VISUALSTYLE
  5
3A
102
{ACAD_REACTORS
330
2A
102
}
330
2A
100
AcDbVisualStyle
  2
ColorChange
 70
    16
177
     3
291
     1
 70
    58
 90
        2
176
     1
 90
        2
176
     1
 90
        3
176
     1
 90
        0
176
     1
 40
0.6
176
     1
 40
30.0
176
     1
 62
     8
420
  8421504
176
     1
 90
        1
176
     1
 90
        4
176
     1
 62
     7
176
     1
 62
   257
176
     1
 90
        1
176
     1
 90
        1
176
     1
 40
1.0
176
     1
 90
        8
176
     1
 62
     8
420
  8421504
176
     1
 40
1.0
176
     1
 90
        1
176
     1
 90
        6
176
     1
 90
        2
176
     1
 62
     7
176
     1
 90
        5
176
     1
 90
        0
176
     1
 90
        0
176
     1
290
     0
176
     1
 90
        1
176
     1
 40
0.0
176
     1
 90
        0
176
     1
290
     0
176
     1
290
     1
176
     1
290
     1
176
     1
290
     0
176
     1
290
     0
176
     1
290
     0
176
     1
290
     0
176
     1
290
     0
176
     1
290
     0
176
     1
 90
       50
176
     1
 40
0.0
176
     1
 40
1.0
176
     1
 90
        0
176
     1
 62
    18
420
        0
176
     1
 90
       50
176
     1
 90
        3
176
     1
 62
     5
420
      255
176
     1
290
     0
176
     1
 90
       50
176
     1
 90
       50
176
     1
 90
       50
176
     1
290
     0
176
     1
 90
       50
176
     1
 62
   256
176
     0
 40
1.0
176
     0
 90
        2
176
     1
  1
strokes_ogs.tif
176
     1
290
     0
176
     1
 40
1.0
176
     1
 40
1.0
176
     1
  0
VISUALSTYLE
  5
34
102
{ACAD_REACTORS
330
2A
102
}
330
2A
100
AcDbVisualStyle
  2
Conceptual
 70
     9
177
     3
291
     0
 70
    58
 90
        3
176
     1
 90
        2
176
     1
 90
        0
176
     1
 90
        0
176
     1
 40
0.6
176
     1
 40
30.0
176
     1
 62
     7
420
 16777215
176
     1
 90
        2
176
     1
 90
        2
176
     1
 62
     7
176
     1
 62
   257
176
     1
 90
        1
176
     1
 90
        1
176
     1
 40
40.0
176
     1
 90
        8
176
     1
 62
     7
176
     1
 40
1.0
176
     1
 90
        1
176
     1
 90
        6
176
     1
 90
        2
176
     1
 62
     7
176
     1
 90
        3
176
     1
 90
        0
176
     1
 90
        0
176
     1
290
     0
176
     1
 90
        1
176
     1
 40
0.0
176
     1
 90
        0
176
     1
290
     0
176
     1
290
     1
176
     1
290
     1
176
     1
290
     0
176
     1
290
     0
176
     1
290
     0
176
     1
290
     0
176
     1
290
     0
176
     1
290
     0
176
     1
 90
       50
176
     1
 40
0.0
176
     1
 40
1.0
176
     1
 90
        0
176
     1
 62
    18
420
        0
176
     1
 90
       50
176
     1
 90
        3
176
     1
 62
     5
420
      255
176
     1
290
     0
176
     1
 90
       50
176
     1
 90
       50
176
     1
 90
       50
176
     1
290
     0
176
     1
 90
       50
176
     1
 62
   256
176
     0
 40
1.0
176
     0
 90
        2
176
     1
  1
strokes_ogs.tif
176
     1
290
     0
176
     1
 40
1.0
176
     1
 40
1.0
176
     1
  0
VISUALSTYLE
  5
35
102
{ACAD_REACTORS
330
2A
102
}
330
2A
100
AcDbVisualStyle
  2
Dim
 70
    11
177
     3
291
     1
 70
    58
 90
        2
176
     1
 90
        2
176
     1
 90
        0
176
     1
 90
        0
176
     1
 40
0.6
176
     1
 40
30.0
176
     1
 62
     7
420
 16777215
176
     1
 90
        1
176
     1
 90
        4
176
     1
 62
     7
176
     1
 62
   257
176
     1
 90
        1
176
     1
 90
        1
176
     1
 40
1.0
176
     1
 90
        8
176
     1
 62
     7
176
     1
 40
1.0
176
     1
 90
        1
176
     1
 90
        6
176
     1
 90
        2
176
     1
 62
     7
176
     1
 90
        5
176
     1
 90
        0
176
     1
 90
        0
176
     1
290
     0
176
     1
 90
        1
176
     1
 40
-50.0
176
     1
 90
        0
176
     1
290
     0
176
     1
290
     1
176
     1
290
     1
176
     1
290
     0
176
     1
290
     0
176
     1
290
     0
176
     1
290
     0
176
     1
290
     0
176
     1
290
     0
176
     1
 90
       50
176
     1
 40
0.0
176
     1
 40
1.0
176
     1
 90
        0
176
     1
 62
    18
420
        0
176
     1
 90
       50
176
     1
 90
        3
176
     1
 62
     5
420
      255
176
     1
290
     0
176
     1
 90
       50
176
     1
 90
       50
176
     1
 90
       50
176
     1
290
     0
176
     1
 90
       50
176
     1
 62
   256
176
     0
 40
1.0
176
     0
 90
        2
176
     1
  1
strokes_ogs.tif
176
     1
290
     0
176
     1
 40
1.0
176
     1
 40
1.0
176
     1
  0
VISUALSTYLE
  5
1E4
102
{ACAD_REACTORS
330
2A
102
}
330
2A
100
AcDbVisualStyle
  2
EdgeColorOff
 70
    22
177
     3
291
     1
 70
    58
 90
        2
176
     0
 90
        2
176
     0
 90
        0
176
     0
 90
        0
176
     0
 40
0.6
176
     0
 40
30.0
176
     0
 62
     7
420
 16777215
176
     0
 90
        1
176
     0
 90
        4
176
     0
 62
     7
176
     0
 62
   257
176
     0
 90
        1
176
     0
 90
        1
176
     0
 40
1.0
176
     0
 90
        8
176
     2
 62
     7
176
     0
 40
1.0
176
     0
 90
        1
176
     0
 90
        6
176
     0
 90
        2
176
     0
 62
     7
176
     0
 90
        5
176
     0
 90
        0
176
     0
 90
        0
176
     0
290
     0
176
     0
 90
        1
176
     0
 40
0.0
176
     0
 90
        0
176
     0
290
     0
176
     0
290
     1
176
     0
290
     1
176
     0
290
     0
176
     0
290
     0
176
     0
290
     0
176
     0
290
     0
176
     0
290
     0
176
     0
290
     0
176
     0
 90
       50
176
     0
 40
0.0
176
     0
 40
1.0
176
     0
 90
        0
176
     0
 62
    18
420
        0
176
     0
 90
       50
176
     0
 90
        3
176
     0
 62
     5
420
      255
176
     0
290
     0
176
     0
 90
       50
176
     0
 90
       50
176
     0
 90
       50
176
     0
290
     0
176
     0
 90
       50
176
     0
 62
   256
176
     0
 40
1.0
176
     0
 90
        2
176
     0
  1
strokes_ogs.tif
176
     0
290
     0
176
     0
 40
1.0
176
     0
 40
1.0
176
     0
  0
VISUALSTYLE
  5
39
102
{ACAD_REACTORS
330
2A
102
}
330
2A
100
AcDbVisualStyle
  2
Facepattern
 70
    15
177
     3
291
     1
 70
    58
 90
        2
176
     1
 90
        2
176
     1
 90
        0
176
     1
 90
        0
176
     1
 40
0.6
176
     1
 40
30.0
176
     1
 62
     7
420
 16777215
176
     1
 90
        1
176
     1
 90
        4
176
     1
 62
     7
176
     1
 62
   257
176
     1
 90
        1
176
     1
 90
        1
176
     1
 40
1.0
176
     1
 90
        8
176
     1
 62
     7
176
     1
 40
1.0
176
     1
 90
        1
176
     1
 90
        6
176
     1
 90
        2
176
     1
 62
     7
176
     1
 90
        5
176
     1
 90
        0
176
     1
 90
        0
176
     1
290
     0
176
     1
 90
        1
176
     1
 40
0.0
176
     1
 90
        0
176
     1
290
     0
176
     1
290
     1
176
     1
290
     1
176
     1
290
     0
176
     1
290
     0
176
     1
290
     0
176
     1
290
     0
176
     1
290
     0
176
     1
290
     0
176
     1
 90
       50
176
     1
 40
0.0
176
     1
 40
1.0
176
     1
 90
        0
176
     1
 62
    18
420
        0
176
     1
 90
       50
176
     1
 90
        3
176
     1
 62
     5
420
      255
176
     1
290
     0
176
     1
 90
       50
176
     1
 90
       50
176
     1
 90
       50
176
     1
290
     0
176
     1
 90
       50
176
     1
 62
   256
176
     0
 40
1.0
176
     0
 90
        2
176
     1
  1
strokes_ogs.tif
176
     1
290
     0
176
     1
 40
1.0
176
     1
 40
1.0
176
     1
  0
VISUALSTYLE
  5
2B
102
{ACAD_REACTORS
330
2A
102
}
330
2A
100
AcDbVisualStyle
  2
Flat
 70
     0
177
     3
291
     1
 70
    58
 90
        2
176
     1
 90
        1
176
     1
 90
        1
176
     1
 90
        2
176
     1
 40
0.6
176
     1
 40
30.0
176
     1
 62
     7
420
 16777215
176
     1
 90
        0
176
     1
 90
        4
176
     1
 62
     7
176
     1
 62
   257
176
     1
 90
        1
176
     1
 90
        1
176
     1
 40
1.0
176
     1
 90
        8
176
     1
 62
     7
176
     1
 40
1.0
176
     1
 90
        1
176
     1
 90
        6
176
     1
 90
        2
176
     1
 62
     7
176
     1
 90
        5
176
     1
 90
        0
176
     1
 90
        0
176
     1
290
     0
176
     1
 90
       13
176
     1
 40
0.0
176
     1
 90
        0
176
     1
290
     0
176
     1
290
     1
176
     1
290
     1
176
     1
290
     0
176
     1
290
     0
176
     1
290
     0
176
     1
290
     0
176
     1
290
     0
176
     1
290
     0
176
     1
 90
       50
176
     1
 40
0.0
176
     1
 40
1.0
176
     1
 90
        0
176
     1
 62
    18
420
        0
176
     1
 90
       50
176
     1
 90
        3
176
     1
 62
     5
420
      255
176
     1
290
     0
176
     1
 90
       50
176
     1
 90
       50
176
     1
 90
       50
176
     1
290
     0
176
     1
 90
       50
176
     1
 62
   256
176
     0
 40
1.0
176
     0
 90
        2
176
     1
  1
strokes_ogs.tif
176
     1
290
     0
176
     1
 40
1.0
176
     1
 40
1.0
176
     1
  0
VISUALSTYLE
  5
2C
102
{ACAD_REACTORS
330
2A
102
}
330
2A
100
AcDbVisualStyle
  2
FlatWithEdges
 70
     1
177
     3
291
     1
 70
    58
 90
        2
176
     1
 90
        1
176
     1
 90
        1
176
     1
 90
        2
176
     1
 40
0.6
176
     1
 40
30.0
176
     1
 62
     7
420
 16777215
176
     1
 90
        1
176
     1
 90
        4
176
     1
 62
     7
176
     1
 62
   257
176
     1
 90
        1
176
     1
 90
        1
176
     1
 40
1.0
176
     1
 90
        0
176
     1
 62
   257
176
     1
 40
1.0
176
     1
 90
        1
176
     1
 90
        6
176
     1
 90
        2
176
     1
 62
     7
176
     1
 90
        5
176
     1
 90
        0
176
     1
 90
        0
176
     1
290
     0
176
     1
 90
       13
176
     1
 40
0.0
176
     1
 90
        0
176
     1
290
     0
176
     1
290
     1
176
     1
290
     1
176
     1
290
     0
176
     1
290
     0
176
     1
290
     0
176
     1
290
     0
176
     1
290
     0
176
     1
290
     0
176
     1
 90
       50
176
     1
 40
0.0
176
     1
 40
1.0
176
     1
 90
        0
176
     1
 62
    18
420
        0
176
     1
 90
       50
176
     1
 90
        3
176
     1
 62
     5
420
      255
176
     1
290
     0
176
     1
 90
       50
176
     1
 90
       50
176
     1
 90
       50
176
     1
290
     0
176
     1
 90
       50
176
     1
 62
   256
176
     0
 40
1.0
176
     0
 90
        2
176
     1
  1
strokes_ogs.tif
176
     1
290
     0
176
     1
 40
1.0
176
     1
 40
1.0
176
     1
  0
VISUALSTYLE
  5
2D
102
{ACAD_REACTORS
330
2A
102
}
330
2A
100
AcDbVisualStyle
  2
Gouraud
 70
     2
177
     3
291
     1
 70
    58
 90
        2
176
     1
 90
        2
176
     1
 90
        1
176
     1
 90
        2
176
     1
 40
0.6
176
     1
 40
30.0
176
     1
 62
     7
420
 16777215
176
     1
 90
        0
176
     1
 90
        4
176
     1
 62
     7
176
     1
 62
   257
176
     1
 90
        1
176
     1
 90
        1
176
     1
 40
1.0
176
     1
 90
        0
176
     1
 62
     7
176
     1
 40
1.0
176
     1
 90
        1
176
     1
 90
        6
176
     1
 90
        2
176
     1
 62
     7
176
     1
 90
        5
176
     1
 90
        0
176
     1
 90
        0
176
     1
290
     0
176
     1
 90
       13
176
     1
 40
0.0
176
     1
 90
        0
176
     1
290
     0
176
     1
290
     1
176
     1
290
     1
176
     1
290
     0
176
     1
290
     0
176
     1
290
     0
176
     1
290
     0
176
     1
290
     0
176
     1
290
     0
176
     1
 90
       50
176
     1
 40
0.0
176
     1
 40
1.0
176
     1
 90
        0
176
     1
 62
    18
420
        0
176
     1
 90
       50
176
     1
 90
        3
176
     1
 62
     5
420
      255
176
     1
290
     0
176
     1
 90
       50
176
     1
 90
       50
176
     1
 90
       50
176
     1
290
     0
176
     1
 90
       50
176
     1
 62
   256
176
     0
 40
1.0
176
     0
 90
        2
176
     1
  1
strokes_ogs.tif
176
     1
290
     0
176
     1
 40
1.0
176
     1
 40
1.0
176
     1
  0
VISUALSTYLE
  5
2E
102
{ACAD_REACTORS
330
2A
102
}
330
2A
100
AcDbVisualStyle
  2
GouraudWithEdges
 70
     3
177
     3
291
     1
 70
    58
 90
        2
176
     1
 90
        2
176
     1
 90
        1
176
     1
 90
        2
176
     1
 40
0.6
176
     1
 40
30.0
176
     1
 62
     7
420
 16777215
176
     1
 90
        1
176
     1
 90
        4
176
     1
 62
     7
176
     1
 62
   257
176
     1
 90
        1
176
     1
 90
        1
176
     1
 40
1.0
176
     1
 90
        0
176
     1
 62
   257
176
     1
 40
1.0
176
     1
 90
        1
176
     1
 90
        6
176
     1
 90
        2
176
     1
 62
     7
176
     1
 90
        5
176
     1
 90
        0
176
     1
 90
        0
176
     1
290
     0
176
     1
 90
       13
176
     1
 40
0.0
176
     1
 90
        0
176
     1
290
     0
176
     1
290
     1
176
     1
290
     1
176
     1
290
     0
176
     1
290
     0
176
     1
290
     0
176
     1
290
     0
176
     1
290
     0
176
     1
290
     0
176
     1
 90
       50
176
     1
 40
0.0
176
     1
 40
1.0
176
     1
 90
        0
176
     1
 62
    18
420
        0
176
     1
 90
       50
176
     1
 90
        3
176
     1
 62
     5
420
      255
176
     1
290
     0
176
     1
 90
       50
176
     1
 90
       50
176
     1
 90
       50
176
     1
290
     0
176
     1
 90
       50
176
     1
 62
   256
176
     0
 40
1.0
176
     0
 90
        2
176
     1
  1
strokes_ogs.tif
176
     1
290
     0
176
     1
 40
1.0
176
     1
 40
1.0
176
     1
  0
VISUALSTYLE
  5
1DC
102
{ACAD_REACTORS
330
2A
102
}
330
2A
100
AcDbVisualStyle
  2
Hidden
 70
     6
177
     3
291
     0
 70
    58
 90
        1
176
     1
 90
        2
176
     1
 90
        2
176
     1
 90
        0
176
     1
 40
0.6
176
     1
 40
30.0
176
     1
 62
     7
420
 16777215
176
     1
 90
        2
176
     1
 90
        2
176
     1
 62
     7
176
     1
 62
   257
176
     1
 90
        2
176
     1
 90
        1
176
     1
 40
40.0
176
     1
 90
        0
176
     1
 62
   257
176
     1
 40
1.0
176
     1
 90
        1
176
     1
 90
        6
176
     1
 90
        2
176
     1
 62
     7
176
     1
 90
        3
176
     1
 90
        0
176
     1
 90
        0
176
     1
290
     0
176
     1
 90
        1
176
     1
 40
0.0
176
     1
 90
        0
176
     1
290
     0
176
     1
290
     1
176
     1
290
     1
176
     1
290
     0
176
     1
290
     0
176
     1
290
     0
176
     1
290
     0
176
     1
290
     0
176
     1
290
     0
176
     1
 90
       50
176
     1
 40
0.0
176
     1
 40
1.0
176
     1
 90
        0
176
     1
 62
    18
420
        0
176
     1
 90
       50
176
     1
 90
        3
176
     1
 62
     5
420
      255
176
     1
290
     0
176
     1
 90
       50
176
     1
 90
       50
176
     1
 90
       50
176
     1
290
     0
176
     1
 90
       50
176
     1
 62
   256
176
     0
 40
1.0
176
     0
 90
        2
176
     1
  1
strokes_ogs.tif
176
     1
290
     0
176
     1
 40
1.0
176
     1
 40
1.0
176
     1
  0
VISUALSTYLE
  5
1E2
102
{ACAD_REACTORS
330
2A
102
}
330
2A
100
AcDbVisualStyle
  2
JitterOff
 70
    20
177
     3
291
     1
 70
    58
 90
        2
176
     0
 90
        2
176
     0
 90
        0
176
     0
 90
        0
176
     0
 40
0.6
176
     0
 40
30.0
176
     0
 62
     7
420
 16777215
176
     0
 90
        1
176
     0
 90
        4
176
     0
 62
     7
176
     0
 62
   257
176
     0
 90
        1
176
     0
 90
        1
176
     0
 40
1.0
176
     0
 90
       10
176
     2
 62
     7
176
     0
 40
1.0
176
     0
 90
        1
176
     0
 90
        6
176
     0
 90
        2
176
     0
 62
     7
176
     0
 90
        5
176
     0
 90
        0
176
     0
 90
        0
176
     0
290
     0
176
     0
 90
        1
176
     0
 40
0.0
176
     0
 90
        0
176
     0
290
     0
176
     0
290
     1
176
     0
290
     1
176
     0
290
     0
176
     0
290
     0
176
     0
290
     0
176
     0
290
     0
176
     0
290
     0
176
     0
290
     0
176
     0
 90
       50
176
     0
 40
0.0
176
     0
 40
1.0
176
     0
 90
        0
176
     0
 62
    18
420
        0
176
     0
 90
       50
176
     0
 90
        3
176
     0
 62
     5
420
      255
176
     0
290
     0
176
     0
 90
       50
176
     0
 90
       50
176
     0
 90
       50
176
     0
290
     0
176
     0
 90
       50
176
     0
 62
   256
176
     0
 40
1.0
176
     0
 90
        2
176
     0
  1
strokes_ogs.tif
176
     0
290
     0
176
     0
 40
1.0
176
     0
 40
1.0
176
     0
  0
VISUALSTYLE
  5
38
102
{ACAD_REACTORS
330
2A
102
}
330
2A
100
AcDbVisualStyle
  2
Linepattern
 70
    14
177
     3
291
     1
 70
    58
 90
        2
176
     1
 90
        2
176
     1
 90
        0
176
     1
 90
        0
176
     1
 40
0.6
176
     1
 40
30.0
176
     1
 62
     7
420
 16777215
176
     1
 90
        1
176
     1
 90
        4
176
     1
 62
     7
176
     1
 62
   257
176
     1
 90
        7
176
     1
 90
        7
176
     1
 40
1.0
176
     1
 90
        8
176
     1
 62
     7
176
     1
 40
1.0
176
     1
 90
        1
176
     1
 90
        6
176
     1
 90
        2
176
     1
 62
     7
176
     1
 90
        5
176
     1
 90
        0
176
     1
 90
        0
176
     1
290
     0
176
     1
 90
        1
176
     1
 40
0.0
176
     1
 90
        0
176
     1
290
     0
176
     1
290
     1
176
     1
290
     1
176
     1
290
     0
176
     1
290
     0
176
     1
290
     0
176
     1
290
     0
176
     1
290
     0
176
     1
290
     0
176
     1
 90
       50
176
     1
 40
0.0
176
     1
 40
1.0
176
     1
 90
        0
176
     1
 62
    18
420
        0
176
     1
 90
       50
176
     1
 90
        3
176
     1
 62
     5
420
      255
176
     1
290
     0
176
     1
 90
       50
176
     1
 90
       50
176
     1
 90
       50
176
     1
290
     0
176
     1
 90
       50
176
     1
 62
   256
176
     0
 40
1.0
176
     0
 90
        2
176
     1
  1
strokes_ogs.tif
176
     1
290
     0
176
     1
 40
1.0
176
     1
 40
1.0
176
     1
  0
VISUALSTYLE
  5
1E3
102
{ACAD_REACTORS
330
2A
102
}
330
2A
100
AcDbVisualStyle
  2
OverhangOff
 70
    21
177
     3
291
     1
 70
    58
 90
        2
176
     0
 90
        2
176
     0
 90
        0
176
     0
 90
        0
176
     0
 40
0.6
176
     0
 40
30.0
176
     0
 62
     7
420
 16777215
176
     0
 90
        1
176
     0
 90
        4
176
     0
 62
     7
176
     0
 62
   257
176
     0
 90
        1
176
     0
 90
        1
176
     0
 40
1.0
176
     0
 90
        9
176
     2
 62
     7
176
     0
 40
1.0
176
     0
 90
        1
176
     0
 90
        6
176
     0
 90
        2
176
     0
 62
     7
176
     0
 90
        5
176
     0
 90
        0
176
     0
 90
        0
176
     0
290
     0
176
     0
 90
        1
176
     0
 40
0.0
176
     0
 90
        0
176
     0
290
     0
176
     0
290
     1
176
     0
290
     1
176
     0
290
     0
176
     0
290
     0
176
     0
290
     0
176
     0
290
     0
176
     0
290
     0
176
     0
290
     0
176
     0
 90
       50
176
     0
 40
0.0
176
     0
 40
1.0
176
     0
 90
        0
176
     0
 62
    18
420
        0
176
     0
 90
       50
176
     0
 90
        3
176
     0
 62
     5
420
      255
176
     0
290
     0
176
     0
 90
       50
176
     0
 90
       50
176
     0
 90
       50
176
     0
290
     0
176
     0
 90
       50
176
     0
 62
   256
176
     0
 40
1.0
176
     0
 90
        2
176
     0
  1
strokes_ogs.tif
176
     0
290
     0
176
     0
 40
1.0
176
     0
 40
1.0
176
     0
  0
VISUALSTYLE
  5
33
102
{ACAD_REACTORS
330
2A
102
}
330
2A
100
AcDbVisualStyle
  2
Realistic
 70
     8
177
     3
291
     0
 70
    58
 90
        2
176
     1
 90
        2
176
     1
 90
        0
176
     1
 90
        0
176
     1
 40
0.6
176
     1
 40
30.0
176
     1
 62
     7
420
 16777215
176
     1
 90
        1
176
     1
 90
        0
176
     1
 62
     7
176
     1
 62
   257
176
     1
 90
        1
176
     1
 90
        1
176
     1
 40
1.0
176
     1
 90
        8
176
     1
 62
     8
420
  7895160
176
     1
 40
1.0
176
     1
 90
        1
176
     1
 90
        6
176
     1
 90
        2
176
     1
 62
     7
176
     1
 90
        5
176
     1
 90
        0
176
     1
 90
        0
176
     1
290
     0
176
     1
 90
       13
176
     1
 40
0.0
176
     1
 90
        0
176
     1
290
     0
176
     1
290
     1
176
     1
290
     1
176
     1
290
     0
176
     1
290
     0
176
     1
290
     0
176
     1
290
     0
176
     1
290
     0
176
     1
290
     0
176
     1
 90
       50
176
     1
 40
0.0
176
     1
 40
1.0
176
     1
 90
        0
176
     1
 62
    18
420
        0
176
     1
 90
       50
176
     1
 90
        3
176
     1
 62
     5
420
      255
176
     1
290
     0
176
     1
 90
       50
176
     1
 90
       50
176
     1
 90
       50
176
     1
290
     0
176
     1
 90
       50
176
     1
 62
   256
176
     0
 40
1.0
176
     0
 90
        2
176
     1
  1
strokes_ogs.tif
176
     1
290
     0
176
     1
 40
1.0
176
     1
 40
1.0
176
     1
  0
VISUALSTYLE
  5
1E1
102
{ACAD_REACTORS
330
2A
102
}
330
2A
100
AcDbVisualStyle
  2
Shaded
 70
    27
177
     3
291
     0
 70
    58
 90
        2
176
     1
 90
        2
176
     1
 90
        1
176
     1
 90
        2
176
     1
 40
0.6
176
     1
 40
30.0
176
     1
 62
     7
420
 16777215
176
     1
 90
        0
176
     1
 90
        4
176
     1
 62
     7
176
     1
 62
   257
176
     1
 90
        1
176
     1
 90
        1
176
     1
 40
1.0
176
     1
 90
        8
176
     1
 62
   257
176
     1
 40
1.0
176
     1
 90
        1
176
     1
 90
        6
176
     1
 90
        2
176
     1
 62
     8
420
  7895160
176
     1
 90
        3
176
     1
 90
        0
176
     1
 90
        0
176
     1
290
     0
176
     1
 90
        5
176
     1
 40
0.0
176
     1
 90
        0
176
     1
290
     0
176
     1
290
     1
176
     1
290
     1
176
     1
290
     0
176
     1
290
     0
176
     1
290
     0
176
     1
290
     0
176
     1
290
     0
176
     1
290
     0
176
     1
 90
       50
176
     1
 40
0.0
176
     1
 40
1.0
176
     1
 90
        0
176
     1
 62
    18
420
        0
176
     1
 90
       50
176
     1
 90
        3
176
     1
 62
     5
420
      255
176
     1
290
     0
176
     1
 90
       50
176
     1
 90
       50
176
     1
 90
       50
176
     1
290
     0
176
     1
 90
       50
176
     1
 62
   256
176
     0
 40
1.0
176
     0
 90
        2
176
     1
  1
strokes_ogs.tif
176
     1
290
     0
176
     1
 40
1.0
176
     1
 40
1.0
176
     1
  0
VISUALSTYLE
  5
1E0
102
{ACAD_REACTORS
330
2A
102
}
330
2A
100
AcDbVisualStyle
  2
Shaded with edges
 70
    26
177
     3
291
     0
 70
    58
 90
        2
176
     1
 90
        2
176
     1
 90
        1
176
     1
 90
        2
176
     1
 40
0.6
176
     1
 40
30.0
176
     1
 62
     7
420
 16777215
176
     1
 90
        1
176
     1
 90
        2
176
     1
 62
     7
176
     1
 62
   257
176
     1
 90
        2
176
     1
 90
        1
176
     1
 40
1.0
176
     1
 90
        8
176
     1
 62
   257
176
     1
 40
1.0
176
     1
 90
        1
176
     1
 90
        6
176
     1
 90
        2
176
     1
 62
     7
176
     1
 90
        3
176
     1
 90
        0
176
     1
 90
        0
176
     1
290
     0
176
     1
 90
        5
176
     1
 40
0.0
176
     1
 90
        0
176
     1
290
     0
176
     1
290
     1
176
     1
290
     1
176
     1
290
     0
176
     1
290
     0
176
     1
290
     0
176
     1
290
     0
176
     1
290
     0
176
     1
290
     0
176
     1
 90
       50
176
     1
 40
0.0
176
     1
 40
1.0
176
     1
 90
        0
176
     1
 62
    18
420
        0
176
     1
 90
       50
176
     1
 90
        3
176
     1
 62
     5
420
      255
176
     1
290
     0
176
     1
 90
       50
176
     1
 90
       50
176
     1
 90
       50
176
     1
290
     0
176
     1
 90
       50
176
     1
 62
   256
176
     0
 40
1.0
176
     0
 90
        2
176
     1
  1
strokes_ogs.tif
176
     1
290
     0
176
     1
 40
1.0
176
     1
 40
1.0
176
     1
  0
VISUALSTYLE
  5
1DD
102
{ACAD_REACTORS
330
2A
102
}
330
2A
100
AcDbVisualStyle
  2
Shades of Gray
 70
    23
177
     3
291
     0
 70
    58
 90
        2
176
     1
 90
        2
176
     1
 90
        3
176
     1
 90
        0
176
     1
 40
0.6
176
     1
 40
30.0
176
     1
 62
     7
420
 16777215
176
     1
 90
        2
176
     1
 90
        2
176
     1
 62
     7
176
     1
 62
     7
176
     1
 90
        1
176
     1
 90
        1
176
     1
 40
40.0
176
     1
 90
        8
176
     1
 62
     7
176
     1
 40
1.0
176
     1
 90
        1
176
     1
 90
        6
176
     1
 90
        2
176
     1
 62
     7
176
     1
 90
        3
176
     1
 90
        0
176
     1
 90
        0
176
     1
290
     0
176
     1
 90
        1
176
     1
 40
0.0
176
     1
 90
        0
176
     1
290
     0
176
     1
290
     1
176
     1
290
     1
176
     1
290
     0
176
     1
290
     0
176
     1
290
     0
176
     1
290
     0
176
     1
290
     0
176
     1
290
     0
176
     1
 90
       50
176
     1
 40
0.0
176
     1
 40
1.0
176
     1
 90
        0
176
     1
 62
    18
420
        0
176
     1
 90
       50
176
     1
 90
        3
176
     1
 62
     5
420
      255
176
     1
290
     0
176
     1
 90
       50
176
     1
 90
       50
176
     1
 90
       50
176
     1
290
     0
176
     1
 90
       50
176
     1
 62
   256
176
     0
 40
1.0
176
     0
 90
        2
176
     1
  1
strokes_ogs.tif
176
     1
290
     0
176
     1
 40
1.0
176
     1
 40
1.0
176
     1
  0
VISUALSTYLE
  5
1DE
102
{ACAD_REACTORS
330
2A
102
}
330
2A
100
AcDbVisualStyle
  2
Sketchy
 70
    24
177
     3
291
     0
 70
    58
 90
        1
176
     1
 90
        2
176
     1
 90
        2
176
     1
 90
        0
176
     1
 40
0.6
176
     1
 40
30.0
176
     1
 62
     7
420
 16777215
176
     1
 90
        2
176
     1
 90
        2
176
     1
 62
     7
176
     1
 62
     7
176
     1
 90
        1
176
     1
 90
        1
176
     1
 40
40.0
176
     1
 90
       11
176
     1
 62
     7
176
     1
 40
1.0
176
     1
 90
        1
176
     1
 90
        6
176
     1
 90
        2
176
     1
 62
     7
176
     1
 90
        6
176
     1
 90
        0
176
     1
 90
        0
176
     1
290
     0
176
     1
 90
        1
176
     1
 40
0.0
176
     1
 90
        0
176
     1
290
     0
176
     1
290
     1
176
     1
290
     1
176
     1
290
     0
176
     1
290
     0
176
     1
290
     0
176
     1
290
     0
176
     1
290
     0
176
     1
290
     0
176
     1
 90
       50
176
     1
 40
0.0
176
     1
 40
1.0
176
     1
 90
        0
176
     1
 62
    18
420
        0
176
     1
 90
       50
176
     1
 90
        3
176
     1
 62
     5
420
      255
176
     1
290
     0
176
     1
 90
       50
176
     1
 90
       50
176
     1
 90
       50
176
     1
290
     0
176
     1
 90
       50
176
     1
 62
   256
176
     0
 40
1.0
176
     0
 90
        2
176
     1
  1
strokes_ogs.tif
176
     1
290
     0
176
     1
 40
1.0
176
     1
 40
1.0
176
     1
  0
VISUALSTYLE
  5
37
102
{ACAD_REACTORS
330
2A
102
}
330
2A
100
AcDbVisualStyle
  2
Thicken
 70
    13
177
     3
291
     1
 70
    58
 90
        2
176
     1
 90
        2
176
     1
 90
        0
176
     1
 90
        0
176
     1
 40
0.6
176
     1
 40
30.0
176
     1
 62
     7
420
 16777215
176
     1
 90
        1
176
     1
 90
        4
176
     1
 62
     7
176
     1
 62
   257
176
     1
 90
        1
176
     1
 90
        1
176
     1
 40
1.0
176
     1
 90
       12
176
     1
 62
     7
176
     1
 40
1.0
176
     1
 90
        1
176
     1
 90
        6
176
     1
 90
        2
176
     1
 62
     7
176
     1
 90
        5
176
     1
 90
        0
176
     1
 90
        0
176
     1
290
     0
176
     1
 90
        1
176
     1
 40
0.0
176
     1
 90
        0
176
     1
290
     0
176
     1
290
     1
176
     1
290
     1
176
     1
290
     0
176
     1
290
     0
176
     1
290
     0
176
     1
290
     0
176
     1
290
     0
176
     1
290
     0
176
     1
 90
       50
176
     1
 40
0.0
176
     1
 40
1.0
176
     1
 90
        0
176
     1
 62
    18
420
        0
176
     1
 90
       50
176
     1
 90
        3
176
     1
 62
     5
420
      255
176
     1
290
     0
176
     1
 90
       50
176
     1
 90
       50
176
     1
 90
       50
176
     1
290
     0
176
     1
 90
       50
176
     1
 62
   256
176
     0
 40
1.0
176
     0
 90
        2
176
     1
  1
strokes_ogs.tif
176
     1
290
     0
176
     1
 40
1.0
176
     1
 40
1.0
176
     1
  0
VISUALSTYLE
  5
1DB
102
{ACAD_REACTORS
330
2A
102
}
330
2A
100
AcDbVisualStyle
  2
Wireframe
 70
     5
177
     3
291
     0
 70
    58
 90
        0
176
     1
 90
        2
176
     1
 90
        0
176
     1
 90
        0
176
     1
 40
0.6
176
     1
 40
30.0
176
     1
 62
     7
420
 16777215
176
     1
 90
        1
176
     1
 90
        4
176
     1
 62
     7
176
     1
 62
   257
176
     1
 90
        1
176
     1
 90
        1
176
     1
 40
1.0
176
     1
 90
        0
176
     1
 62
   257
176
     1
 40
1.0
176
     1
 90
        1
176
     1
 90
        6
176
     1
 90
        2
176
     1
 62
     7
176
     1
 90
        3
176
     1
 90
        0
176
     1
 90
        0
176
     1
290
     0
176
     1
 90
        1
176
     1
 40
0.0
176
     1
 90
        0
176
     1
290
     0
176
     1
290
     1
176
     1
290
     1
176
     1
290
     0
176
     1
290
     0
176
     1
290
     0
176
     1
290
     0
176
     1
290
     0
176
     1
290
     0
176
     1
 90
       50
176
     1
 40
0.0
176
     1
 40
1.0
176
     1
 90
        0
176
     1
 62
    18
420
        0
176
     1
 90
       50
176
     1
 90
        3
176
     1
 62
     5
420
      255
176
     1
290
     0
176
     1
 90
       50
176
     1
 90
       50
176
     1
 90
       50
176
     1
290
     0
176
     1
 90
       50
176
     1
 62
   256
176
     0
 40
1.0
176
     0
 90
        2
176
     1
  1
strokes_ogs.tif
176
     1
290
     0
176
     1
 40
1.0
176
     1
 40
1.0
176
     1
  0
VISUALSTYLE
  5
1DF
102
{ACAD_REACTORS
330
2A
102
}
330
2A
100
AcDbVisualStyle
  2
X-Ray
 70
    25
177
     3
291
     0
 70
    58
 90
        2
176
     1
 90
        2
176
     1
 90
        1
176
     1
 90
        1
176
     1
 40
0.5
176
     1
 40
30.0
176
     1
 62
     7
420
 16777215
176
     1
 90
        1
176
     1
 90
        0
176
     1
 62
     7
176
     1
 62
   257
176
     1
 90
        1
176
     1
 90
        1
176
     1
 40
1.0
176
     1
 90
        8
176
     1
 62
     7
176
     1
 40
1.0
176
     1
 90
        1
176
     1
 90
        6
176
     1
 90
        2
176
     1
 62
     7
176
     1
 90
        3
176
     1
 90
        0
176
     1
 90
        0
176
     1
290
     0
176
     1
 90
       13
176
     1
 40
0.0
176
     1
 90
        0
176
     1
290
     0
176
     1
290
     1
176
     1
290
     1
176
     1
290
     0
176
     1
290
     0
176
     1
290
     0
176
     1
290
     0
176
     1
290
     0
176
     1
290
     0
176
     1
 90
       50
176
     1
 40
0.0
176
     1
 40
1.0
176
     1
 90
        0
176
     1
 62
    18
420
        0
176
     1
 90
       50
176
     1
 90
        3
176
     1
 62
     5
420
      255
176
     1
290
     0
176
     1
 90
       50
176
     1
 90
       50
176
     1
 90
       50
176
     1
290
     0
176
     1
 90
       50
176
     1
 62
   256
176
     0
 40
1.0
176
     0
 90
        2
176
     1
  1
strokes_ogs.tif
176
     1
290
     0
176
     1
 40
1.0
176
     1
 40
1.0
176
     1
  0
DICTIONARYVAR
  5
1B6
102
{ACAD_REACTORS
330
1B5
102
}
330
1B5
100
DictionaryVariables
280
     0
  1
1:1
  0
DICTIONARYVAR
  5
271
102
{ACAD_REACTORS
330
1B5
102
}
330
1B5
100
DictionaryVariables
280
     0
  1
STANDARD
  0
DICTIONARYVAR
  5
270
102
{ACAD_REACTORS
330
1B5
102
}
330
1B5
100
DictionaryVariables
280
     0
  1
STANDARD
  0
DICTIONARYVAR
  5
272
102
{ACAD_REACTORS
330
1B5
102
}
330
1B5
100
DictionaryVariables
280
     0
  1
Imperial24
  0
DICTIONARYVAR
  5
273
102
{ACAD_REACTORS
330
1B5
102
}
330
1B5
100
DictionaryVariables
280
     0
  1
Imperial24
  0
DICTIONARYVAR
  5
257
102
{ACAD_REACTORS
330
1B5
102
}
330
1B5
100
DictionaryVariables
280
     0
  1
RGB:95,95,95
  0
DICTIONARYVAR
  5
274
102
{ACAD_REACTORS
330
1B5
102
}
330
1B5
100
DictionaryVariables
280
     0
  1
1
  0
DICTIONARYVAR
  5
275
102
{ACAD_REACTORS
330
1B5
102
}
330
1B5
100
DictionaryVariables
280
     0
  1
15
  0
XRECORD
  5
1B4
102
{ACAD_REACTORS
330
1B3
102
}
330
1B3
100
AcDbXrecord
280
     1
1000
This DWG file was created in ArchiCAD(TM)®
  0
DICTIONARY
  5
360
330
1E6
100
AcDbDictionary
280
     1
281
     1
  3
ACAD_ROUNDTRIP_2008_TABLESTYLE_CELLSTYLEMAP
360
361
  0
CELLSTYLEMAP
  5
361
102
{ACAD_REACTORS
330
360
102
}
330
360
100
AcDbCellStyleMap
 90
        3
300
CELLSTYLE
  1
TABLEFORMAT_BEGIN
 90
        5
170
     1
 91
        0
 92
    32768
 62
   257
 93
        1
300
CONTENTFORMAT
  1
CONTENTFORMAT_BEGIN
 90
        0
 91
        0
 92
      512
 93
        0
300

 40
0.0
140
1.0
 94
        5
 62
     0
340
11
144
0.25
309
CONTENTFORMAT_END
171
     0
 94
        0
309
TABLEFORMAT_END
  1
CELLSTYLE_BEGIN
 90
        1
 91
        1
300
_TITLE
309
CELLSTYLE_END
300
CELLSTYLE
  1
TABLEFORMAT_BEGIN
 90
        5
170
     1
 91
        0
 92
        0
 62
   257
 93
        1
300
CONTENTFORMAT
  1
CONTENTFORMAT_BEGIN
 90
        0
 91
        0
 92
      512
 93
        0
300

 40
0.0
140
1.0
 94
        5
 62
     0
340
11
144
0.18
309
CONTENTFORMAT_END
171
     0
 94
        0
309
TABLEFORMAT_END
  1
CELLSTYLE_BEGIN
 90
        2
 91
        1
300
_HEADER
309
CELLSTYLE_END
300
CELLSTYLE
  1
TABLEFORMAT_BEGIN
 90
        5
170
     1
 91
        0
 92
        0
 62
   257
 93
        1
300
CONTENTFORMAT
  1
CONTENTFORMAT_BEGIN
 90
        0
 91
        0
 92
      512
 93
        0
300

 40
0.0
140
1.0
 94
        2
 62
     0
340
11
144
0.18
309
CONTENTFORMAT_END
171
     0
 94
        0
309
TABLEFORMAT_END
  1
CELLSTYLE_BEGIN
 90
        3
 91
        2
300
_DATA
309
CELLSTYLE_END
  0
ENDSEC
  0
SECTION
  2
ACDSDATA
 70
     2
 71
     8
  0
ACDSSCHEMA
 90
        0
  1
AcDb_Thumbnail_Schema
  2
AcDbDs::ID
280
    10
 91
        8
  2
Thumbnail_Data
280
    15
 91
        0
101
ACDSRECORD
 95
        0
 90
        1
  2
AcDbDs::TreatedAsObjectData
280
     1
291
     1
101
ACDSRECORD
 95
        0
 90
        2
  2
AcDbDs::Legacy
280
     1
291
     1
101
ACDSRECORD
  1
AcDbDs::ID
 90
        3
  2
AcDs:Indexable
280
     1
291
     1
101
ACDSRECORD
  1
AcDbDs::ID
 90
        4
  2
AcDbDs::HandleAttribute
280
     7
282
     1
  0
ACDSSCHEMA
 90
        1
  1
AcDbDs::TreatedAsObjectDataSchema
  2
AcDbDs::TreatedAsObjectData
280
     1
 91
        0
  0
ACDSSCHEMA
 90
        2
  1
AcDbDs::LegacySchema
  2
AcDbDs::Legacy
280
     1
 91
        0
  0
ACDSSCHEMA
 90
        3
  1
AcDbDs::IndexedPropertySchema
  2
AcDs:Indexable
280
     1
 91
        0
  0
ACDSSCHEMA
 90
        4
  1
AcDbDs::HandleAttributeSchema
  2
AcDbDs::HandleAttribute
280
     7
 91
        1
284
     1
  0
ACDSRECORD
 90
        0
  2
AcDbDs::ID
280
    10
320
22
  2
Thumbnail_Data
280
    15
 94
     1965
310
89504E470D0A1A0A0000000D49484452000001000000007F080300000037AFECF400000300504C5445212830FFFFFF2128300000000000000000000000000000000000000000000000000000330000660000990000CC0000FF0033000033330033660033990033CC0033FF0066000066330066660066990066CC0066FF0099
310
000099330099660099990099CC0099FF00CC0000CC3300CC6600CC9900CCCC00CCFF00FF0000FF3300FF6600FF9900FFCC00FFFF3300003300333300663300993300CC3300FF3333003333333333663333993333CC3333FF3366003366333366663366993366CC3366FF3399003399333399663399993399CC3399FF33CC00
310
33CC3333CC6633CC9933CCCC33CCFF33FF0033FF3333FF6633FF9933FFCC33FFFF6600006600336600666600996600CC6600FF6633006633336633666633996633CC6633FF6666006666336666666666996666CC6666FF6699006699336699666699996699CC6699FF66CC0066CC3366CC6666CC9966CCCC66CCFF66FF0066
310
FF3366FF6666FF9966FFCC66FFFF9900009900339900669900999900CC9900FF9933009933339933669933999933CC9933FF9966009966339966669966999966CC9966FF9999009999339999669999999999CC9999FF99CC0099CC3399CC6699CC9999CCCC99CCFF99FF0099FF3399FF6699FF9999FFCC99FFFFCC0000CC00
310
33CC0066CC0099CC00CCCC00FFCC3300CC3333CC3366CC3399CC33CCCC33FFCC6600CC6633CC6666CC6699CC66CCCC66FFCC9900CC9933CC9966CC9999CC99CCCC99FFCCCC00CCCC33CCCC66CCCC99CCCCCCCCCCFFCCFF00CCFF33CCFF66CCFF99CCFFCCCCFFFFFF0000FF0033FF0066FF0099FF00CCFF00FFFF3300FF3333
310
FF3366FF3399FF33CCFF33FFFF6600FF6633FF6666FF6699FF66CCFF66FFFF9900FF9933FF9966FF9999FF99CCFF99FFFFCC00FFCC33FFCC66FFCC99FFCCCCFFCCFFFFFF00FFFF33FFFF66FFFF99FFFFCCFFFFFF0000000D0D0D1A1A1A2828283535354343435050505D5D5D6B6B6B787878868686939393A1A1A1AEAEAEBB
310
BBBBC9C9C9D6D6D6E4E4E4F1F1F1FFFFFF0000000000000000000000000000000000000000000000000000000000002E4550F10000027E4944415478DAEDDD4D72E23010056071FF7B249B619B43988DFA06B38085365A58D67E5A36F6305816142153E57EEF25A9A82A908A3FA496FC13E31CC3300CC3300CC330B5E47765
310
B7002F3CE530A5D78C8D41BFF60BD03D933B80DF32F4BAFD49FA5E64741028804174EB0F49373CF57E6A79AC2130F4E2F543FCF124FE70F4DA0BA000FA833F79F93AF5AAF0E96590C10B560F905F221FFAFA4BA7FD402D3A396201E898BF9C2FE7F365285340F9768602405F07FCE8EF210001084000021080000420000108
310
4000021080000420000108400002FC3780D04AFB58B81180D603D1013086000156A9D6006300B90950AB0190008687400B2040002CA9CCF561EEF30FAE91DB35409A13522D856163216404A0D503AE3F68F5000343208E690038DB002E96562C45B0302C1D7F6964E345308E002A106279A50101A6661CE7BC9CC60DCFE96F
310
0306C011600448F79F3800A51854008275003717413701A4B1FE2D0D5D033D5A086513D3E016C0134BE15D03943F3F4EDB5F04B6006CEF0DEAD6CFC300134005E64A582D82F735C020806B00AC6B80E51E10011742773D0011609A0137CF0CDDD600BB7B833A0A82B6B6F606B35980A5B2C5E60111E33560CA7C0C78752C08
310
06C0AD000214805B01AC8BE0C600B1715438BF745074FF00213CBA32C2F81020C0A3FC3304EAFF586FBC07DC16414800F81A10E001AAEB00AC5920A303581E028D0488BDC177DC26CAD6CED06D9AD70ADFEC2AEC18E0C907A203181E0204200001084000021080000420000108000AF0861B63EE1C603ECD810B703DE7F3FA
310
4DD50960A406C0F680EB89CEBC79477594590014800B217480EEFBEF2FB27380E7C77BB79A2BC186803D00F4B7D96118866118866118C664FE003F173A4621DBE5E00000000049454E44AE426082646C4628BC9579B978B6B43C2D6C79FF81CF7FFFA4E85EF1B579D3B63B6EFB0570577E4EEFA5008FBC917580AE63000108
310
400002108000042000010840000210800004200001084000021080000420802980474F7A7709905CD04A008300D185CEFA7F85000420400F69D01C40B6A37EBB075616702EAA2601CC0164472A30C02F4FBFE444DC5337430000000049454E44AE4260824F50D94B5482B932390DE1B0E703D4E5030CBF4FF019E1F0ADF900
310
7840387C6B3E009E2F01C3F900CB2F5199100E9F3083579949056610E742C7C28810020F493193A0045059A0A2017D5F22C6D6979C7E1EFFACE3E04311BFE16CD33A0E1F4EDE0473A2337111405A54937DF61DFEDE7DFA9697FECEA40940BA5B2DFBEB3BBC7CB5247F4E74263C7CCEF33C231CB498AFA733C007CC7FC65569
310
A95F5F672F01A3D2EFE5B03EFED414D89601DB048CBB852F70896D4F836282C5AA28883B3707DF483A9D512101F8E269205A6E3E4D08583BE47EE76DDFA7D7E1B319E0EC905BCE4B778B6016833E761A7076C825E3A67BF3A71070F22DC3CDB70F1FEC9003A03BE5661370AF0414249E4800D820806C10B3454061879C361D
310
701B01D51D7290EF942B6C1D76381C0E87C3E170381C0E87C3E170381C0E87C3E170381C8ED7E30FFDEC8BC4EBB5A7D20000000049454E44AE426082
  0
ENDSEC
  0
EOF
