  0
SECTION
  2
HEADER
  9
$ACADVER
  1
AC1032
  9
$ACADMAINTVER
 90
       55
  9
$DWGCODEPAGE
  3
ANSI_1252
  9
$LASTSAVEDBY
  1
Ben
  9
$REQUIREDVERSIONS
160
                 0
  9
$INSBASE
 10
0.0
 20
0.0
 30
0.0
  9
$EXTMIN
 10
26129.34163910072
 20
-8955.636997234249
 30
0.0
  9
$EXTMAX
 10
26502.48336618671
 20
-8415.58738159545
 30
0.0
  9
$LIMMIN
 10
0.0
 20
0.0
  9
$LIMMAX
 10
12.0
 20
9.0
  9
$ORTHOMODE
 70
     0
  9
$REGENMODE
 70
     1
  9
$FILLMODE
 70
     1
  9
$QTEXTMODE
 70
     0
  9
$MIRRTEXT
 70
     1
  9
$LTSCALE
 40
5.0
  9
$ATTMODE
 70
     1
  9
$TEXTSIZE
 40
0.2
  9
$TRACEWID
 40
0.05
  9
$TEXTSTYLE
  7
Standard
  9
$CLAYER
  8
Specialized_Lines
  9
$CELTYPE
  6
PLASTER
  9
$CECOLOR
 62
   256
  9
$CELTSCALE
 40
3.0
  9
$DISPSILH
 70
     0
  9
$DIMSCALE
 40
1.0
  9
$DIMASZ
 40
0.18
  9
$DIMEXO
 40
0.0625
  9
$DIMDLI
 40
0.38
  9
$DIMRND
 40
0.0
  9
$DIMDLE
 40
0.0
  9
$DIMEXE
 40
0.18
  9
$DIMTP
 40
0.0
  9
$DIMTM
 40
0.0
  9
$DIMTXT
 40
0.18
  9
$DIMCEN
 40
0.09
  9
$DIMTSZ
 40
0.0
  9
$DIMTOL
 70
     0
  9
$DIMLIM
 70
     0
  9
$DIMTIH
 70
     1
  9
$DIMTOH
 70
     1
  9
$DIMSE1
 70
     0
  9
$DIMSE2
 70
     0
  9
$DIMTAD
 70
     0
  9
$DIMZIN
 70
     0
  9
$DIMBLK
  1

  9
$DIMASO
 70
     1
  9
$DIMSHO
 70
     1
  9
$DIMPOST
  1

  9
$DIMAPOST
  1

  9
$DIMALT
 70
     0
  9
$DIMALTD
 70
     2
  9
$DIMALTF
 40
25.4
  9
$DIMLFAC
 40
1.0
  9
$DIMTOFL
 70
     0
  9
$DIMTVP
 40
0.0
  9
$DIMTIX
 70
     0
  9
$DIMSOXD
 70
     0
  9
$DIMSAH
 70
     0
  9
$DIMBLK1
  1

  9
$DIMBLK2
  1

  9
$DIMSTYLE
  2
Standard
  9
$DIMCLRD
 70
     0
  9
$DIMCLRE
 70
     0
  9
$DIMCLRT
 70
     0
  9
$DIMTFAC
 40
1.0
  9
$DIMGAP
 40
0.09
  9
$DIMJUST
 70
     0
  9
$DIMSD1
 70
     0
  9
$DIMSD2
 70
     0
  9
$DIMTOLJ
 70
     1
  9
$DIMTZIN
 70
     0
  9
$DIMALTZ
 70
     0
  9
$DIMALTTZ
 70
     0
  9
$DIMUPT
 70
     0
  9
$DIMDEC
 70
     4
  9
$DIMTDEC
 70
     4
  9
$DIMALTU
 70
     2
  9
$DIMALTTD
 70
     2
  9
$DIMTXSTY
  7
Standard
  9
$DIMAUNIT
 70
     0
  9
$DIMADEC
 70
     0
  9
$DIMALTRND
 40
0.0
  9
$DIMAZIN
 70
     0
  9
$DIMDSEP
 70
    46
  9
$DIMATFIT
 70
     3
  9
$DIMFRAC
 70
     0
  9
$DIMLDRBLK
  1

  9
$DIMLUNIT
 70
     2
  9
$DIMLWD
 70
    -2
  9
$DIMLWE
 70
    -2
  9
$DIMTMOVE
 70
     0
  9
$DIMFXL
 40
1.0
  9
$DIMFXLON
 70
     0
  9
$DIMJOGANG
 40
0.7853981633974483
  9
$DIMTFILL
 70
     0
  9
$DIMTFILLCLR
 70
     0
  9
$DIMARCSYM
 70
     0
  9
$DIMLTYPE
  6

  9
$DIMLTEX1
  6

  9
$DIMLTEX2
  6

  9
$DIMTXTDIRECTION
 70
     0
  9
$LUNITS
 70
     2
  9
$LUPREC
 70
     4
  9
$SKETCHINC
 40
0.1
  9
$FILLETRAD
 40
0.5
  9
$AUNITS
 70
     0
  9
$AUPREC
 70
     0
  9
$MENU
  1
.
  9
$ELEVATION
 40
0.0
  9
$PELEVATION
 40
0.0
  9
$THICKNESS
 40
0.0
  9
$LIMCHECK
 70
     0
  9
$CHAMFERA
 40
0.5
  9
$CHAMFERB
 40
0.5
  9
$CHAMFERC
 40
1.0
  9
$CHAMFERD
 40
0.0
  9
$SKPOLY
 70
     0
  9
$TDCREATE
 40
2456216.553252315
  9
$TDUCREATE
 40
2456216.011588507
  9
$TDUPDATE
 40
2458610.669675926
  9
$TDUUPDATE
 40
2458610.169675926
  9
$TDINDWG
 40
0.0343932292
  9
$TDUSRTIMER
 40
0.0343932292
  9
$USRTIMER
 70
     1
  9
$ANGBASE
 50
0.0
  9
$ANGDIR
 70
     0
  9
$PDMODE
 70
     0
  9
$PDSIZE
 40
0.0
  9
$PLINEWID
 40
0.0
  9
$SPLFRAME
 70
     0
  9
$SPLINETYPE
 70
     6
  9
$SPLINESEGS
 70
     8
  9
$HANDSEED
  5
6C9
  9
$SURFTAB1
 70
     6
  9
$SURFTAB2
 70
     6
  9
$SURFTYPE
 70
     6
  9
$SURFU
 70
     6
  9
$SURFV
 70
     6
  9
$UCSBASE
  2

  9
$UCSNAME
  2

  9
$UCSORG
 10
0.0
 20
0.0
 30
0.0
  9
$UCSXDIR
 10
1.0
 20
0.0
 30
0.0
  9
$UCSYDIR
 10
0.0
 20
1.0
 30
0.0
  9
$UCSORTHOREF
  2

  9
$UCSORTHOVIEW
 70
     0
  9
$UCSORGTOP
 10
0.0
 20
0.0
 30
0.0
  9
$UCSORGBOTTOM
 10
0.0
 20
0.0
 30
0.0
  9
$UCSORGLEFT
 10
0.0
 20
0.0
 30
0.0
  9
$UCSORGRIGHT
 10
0.0
 20
0.0
 30
0.0
  9
$UCSORGFRONT
 10
0.0
 20
0.0
 30
0.0
  9
$UCSORGBACK
 10
0.0
 20
0.0
 30
0.0
  9
$PUCSBASE
  2

  9
$PUCSNAME
  2

  9
$PUCSORG
 10
0.0
 20
0.0
 30
0.0
  9
$PUCSXDIR
 10
1.0
 20
0.0
 30
0.0
  9
$PUCSYDIR
 10
0.0
 20
1.0
 30
0.0
  9
$PUCSORTHOREF
  2

  9
$PUCSORTHOVIEW
 70
     0
  9
$PUCSORGTOP
 10
0.0
 20
0.0
 30
0.0
  9
$PUCSORGBOTTOM
 10
0.0
 20
0.0
 30
0.0
  9
$PUCSORGLEFT
 10
0.0
 20
0.0
 30
0.0
  9
$PUCSORGRIGHT
 10
0.0
 20
0.0
 30
0.0
  9
$PUCSORGFRONT
 10
0.0
 20
0.0
 30
0.0
  9
$PUCSORGBACK
 10
0.0
 20
0.0
 30
0.0
  9
$USERI1
 70
     0
  9
$USERI2
 70
     0
  9
$USERI3
 70
     0
  9
$USERI4
 70
     0
  9
$USERI5
 70
     0
  9
$USERR1
 40
0.0
  9
$USERR2
 40
0.0
  9
$USERR3
 40
0.0
  9
$USERR4
 40
0.0
  9
$USERR5
 40
0.0
  9
$WORLDVIEW
 70
     1
  9
$SHADEDGE
 70
     3
  9
$SHADEDIF
 70
    70
  9
$TILEMODE
 70
     1
  9
$MAXACTVP
 70
    64
  9
$PINSBASE
 10
0.0
 20
0.0
 30
0.0
  9
$PLIMCHECK
 70
     0
  9
$PEXTMIN
 10
1.000000000000000E+20
 20
1.000000000000000E+20
 30
1.000000000000000E+20
  9
$PEXTMAX
 10
-1.000000000000000E+20
 20
-1.000000000000000E+20
 30
-1.000000000000000E+20
  9
$PLIMMIN
 10
0.0
 20
0.0
  9
$PLIMMAX
 10
12.0
 20
9.0
  9
$UNITMODE
 70
     0
  9
$VISRETAIN
 70
     1
  9
$PLINEGEN
 70
     0
  9
$PSLTSCALE
 70
     1
  9
$TREEDEPTH
 70
  3020
  9
$CMLSTYLE
  2
Standard
  9
$CMLJUST
 70
     0
  9
$CMLSCALE
 40
1.0
  9
$PROXYGRAPHICS
 70
     1
  9
$MEASUREMENT
 70
     0
  9
$CELWEIGHT
370
    -1
  9
$ENDCAPS
280
     0
  9
$JOINSTYLE
280
     0
  9
$LWDISPLAY
290
     1
  9
$INSUNITS
 70
     0
  9
$HYPERLINKBASE
  1

  9
$STYLESHEET
  1

  9
$XEDIT
290
     1
  9
$CEPSNTYPE
380
     0
  9
$PSTYLEMODE
290
     1
  9
$FINGERPRINTGUID
  2
{431B528C-BE52-4DDB-9DFD-AC1A579A3E7F}
  9
$VERSIONGUID
  2
{83F109FE-8CD3-4543-B436-A161F2D7F5AF}
  9
$EXTNAMES
290
     1
  9
$PSVPSCALE
 40
0.0
  9
$OLESTARTUP
290
     0
  9
$SORTENTS
280
   127
  9
$INDEXCTL
280
     0
  9
$HIDETEXT
280
     1
  9
$XCLIPFRAME
280
     0
  9
$HALOGAP
280
     0
  9
$OBSCOLOR
 70
   257
  9
$OBSLTYPE
280
     0
  9
$INTERSECTIONDISPLAY
280
     0
  9
$INTERSECTIONCOLOR
 70
   257
  9
$DIMASSOC
280
     2
  9
$PROJECTNAME
  1

  9
$CAMERADISPLAY
290
     0
  9
$LENSLENGTH
 40
50.0
  9
$CAMERAHEIGHT
 40
0.0
  9
$STEPSPERSEC
 40
2.0
  9
$STEPSIZE
 40
6.0
  9
$3DDWFPREC
 40
2.0
  9
$PSOLWIDTH
 40
0.25
  9
$PSOLHEIGHT
 40
4.0
  9
$LOFTANG1
 40
1.570796326794896
  9
$LOFTANG2
 40
1.570796326794896
  9
$LOFTMAG1
 40
0.0
  9
$LOFTMAG2
 40
0.0
  9
$LOFTPARAM
 70
     7
  9
$LOFTNORMALS
280
     1
  9
$LATITUDE
 40
37.795
  9
$LONGITUDE
 40
-122.394
  9
$NORTHDIRECTION
 40
0.0
  9
$TIMEZONE
 70
 -8000
  9
$LIGHTGLYPHDISPLAY
280
     1
  9
$TILEMODELIGHTSYNCH
280
     1
  9
$CMATERIAL
347
3C
  9
$SOLIDHIST
280
     1
  9
$SHOWHIST
280
     1
  9
$DWFFRAME
280
     2
  9
$DGNFRAME
280
     2
  9
$REALWORLDSCALE
290
     1
  9
$INTERFERECOLOR
 62
   256
  9
$INTERFEREOBJVS
345
33
  9
$INTERFEREVPVS
346
244
  9
$CSHADOW
280
     0
  9
$SHADOWPLANELOCATION
 40
0.0
  0
ENDSEC
  0
SECTION
  2
CLASSES
  0
CLASS
  1
ACDBDICTIONARYWDFLT
  2
AcDbDictionaryWithDefault
  3
ObjectDBX Classes
 90
        0
 91
        1
280
     0
281
     0
  0
CLASS
  1
VISUALSTYLE
  2
AcDbVisualStyle
  3
ObjectDBX Classes
 90
     4095
 91
       26
280
     0
281
     0
  0
CLASS
  1
MATERIAL
  2
AcDbMaterial
  3
ObjectDBX Classes
 90
     1153
 91
        3
280
     0
281
     0
  0
CLASS
  1
SCALE
  2
AcDbScale
  3
ObjectDBX Classes
 90
     1153
 91
       33
280
     0
281
     0
  0
CLASS
  1
DICTIONARYVAR
  2
AcDbDictionaryVar
  3
ObjectDBX Classes
 90
        0
 91
        8
280
     0
281
     0
  0
CLASS
  1
TABLESTYLE
  2
AcDbTableStyle
  3
ObjectDBX Classes
 90
     4095
 91
        1
280
     0
281
     0
  0
CLASS
  1
MLEADERSTYLE
  2
AcDbMLeaderStyle
  3
ACDB_MLEADERSTYLE_CLASS
 90
     4095
 91
        1
280
     0
281
     0
  0
CLASS
  1
ACDBSECTIONVIEWSTYLE
  2
AcDbSectionViewStyle
  3
ObjectDBX Classes
 90
     1025
 91
        2
280
     0
281
     0
  0
CLASS
  1
ACDBDETAILVIEWSTYLE
  2
AcDbDetailViewStyle
  3
ObjectDBX Classes
 90
     1025
 91
        2
280
     0
281
     0
  0
CLASS
  1
EXACXREFPANELOBJECT
  2
ExAcXREFPanelObject
  3
EXAC_ESW
 90
     1025
 91
        1
280
     0
281
     0
  0
CLASS
  1
NPOCOLLECTION
  2
AcDbImpNonPersistentObjectsCollection
  3
ObjectDBX Classes
 90
     1153
 91
        1
280
     0
281
     0
  0
CLASS
  1
IMAGE
  2
AcDbRasterImage
  3
ISM
 90
     2175
 91
        1
280
     0
281
     1
  0
CLASS
  1
IMAGEDEF_REACTOR
  2
AcDbRasterImageDefReactor
  3
ISM
 90
        1
 91
        1
280
     0
281
     0
  0
CLASS
  1
SORTENTSTABLE
  2
AcDbSortentsTable
  3
ObjectDBX Classes
 90
        0
 91
        3
280
     0
281
     0
  0
CLASS
  1
IMAGEDEF
  2
AcDbRasterImageDef
  3
ISM
 90
        0
 91
        1
280
     0
281
     0
  0
CLASS
  1
RASTERVARIABLES
  2
AcDbRasterVariables
  3
ISM
 90
        0
 91
        1
280
     0
281
     0
  0
CLASS
  1
ACAD_EVALUATION_GRAPH
  2
AcDbEvalGraph
  3
ObjectDBX Classes
 90
     1153
 91
        0
280
     0
281
     0
  0
CLASS
  1
ACAECUSTOBJ
  2
AcAeEditorObj
  3
AcAeEditorObj
 90
     1024
 91
        0
280
     0
281
     0
  0
CLASS
  1
ACDB_DYNAMICBLOCKPURGEPREVENTER_VERSION
  2
AcDbDynamicBlockPurgePreventer
  3
ObjectDBX Classes
 90
     1153
 91
        1
280
     0
281
     0
  0
CLASS
  1
ACDBASSOCNETWORK
  2
AcDbAssocNetwork
  3
ObjectDBX Classes
 90
     1025
 91
        3
280
     0
281
     0
  0
CLASS
  1
ACDBASSOC2DCONSTRAINTGROUP
  2
AcDbAssoc2dConstraintGroup
  3
ObjectDBX Classes
 90
     1025
 91
        2
280
     0
281
     0
  0
CLASS
  1
ACDBASSOCGEOMDEPENDENCY
  2
AcDbAssocGeomDependency
  3
ObjectDBX Classes
 90
     1025
 91
       13
280
     0
281
     0
  0
CLASS
  1
PDFDEFINITION
  2
AcDbPdfDefinition
  3
ObjectDBX Classes
 90
     1153
 91
        1
280
     0
281
     0
  0
CLASS
  1
PDFUNDERLAY
  2
AcDbPdfReference
  3
ObjectDBX Classes
 90
     4095
 91
        1
280
     0
281
     1
  0
CLASS
  1
SPATIAL_FILTER
  2
AcDbSpatialFilter
  3
ObjectDBX Classes
 90
        0
 91
       18
280
     0
281
     0
  0
CLASS
  1
CELLSTYLEMAP
  2
AcDbCellStyleMap
  3
ObjectDBX Classes
 90
     1152
 91
        1
280
     0
281
     0
  0
ENDSEC
  0
SECTION
  2
TABLES
  0
TABLE
  2
VPORT
  5
8
330
0
100
AcDbSymbolTable
 70
     1
  0
VPORT
  5
29
330
8
100
AcDbSymbolTableRecord
100
AcDbViewportTableRecord
  2
*Active
 70
     0
 10
0.0
 20
0.0
 11
1.0
 21
1.0
 12
26302.18436165618
 22
-8413.329152755469
 13
0.0
 23
0.0
 14
0.5
 24
0.5
 15
0.5
 25
0.5
 16
0.0
 26
0.0
 36
1.0
 17
0.0
 27
0.0
 37
0.0
 40
287.1331022313162
 41
2.005224660397074
 42
50.0
 43
0.0
 44
0.0
 50
0.0
 51
0.0
 71
     0
 72
   100
 73
     1
 74
     3
 75
     0
 76
     0
 77
     0
 78
     0
281
     0
 65
     1
110
0.0
120
0.0
130
0.0
111
1.0
121
0.0
131
0.0
112
0.0
122
1.0
132
0.0
 79
     0
146
0.0
348
2F
 60
     3
 61
     5
292
     1
282
     1
141
0.0
142
0.0
 63
   250
1001
ACAD_NAV_VCDISPLAY
1070
     3
  0
ENDTAB
  0
TABLE
  2
LTYPE
  5
5
330
0
100
AcDbSymbolTable
 70
     6
  0
LTYPE
  5
14
330
5
100
AcDbSymbolTableRecord
100
AcDbLinetypeTableRecord
  2
ByBlock
 70
     0
  3

 72
    65
 73
     0
 40
0.0
  0
LTYPE
  5
15
330
5
100
AcDbSymbolTableRecord
100
AcDbLinetypeTableRecord
  2
ByLayer
 70
     0
  3

 72
    65
 73
     0
 40
0.0
  0
LTYPE
  5
16
330
5
100
AcDbSymbolTableRecord
100
AcDbLinetypeTableRecord
  2
Continuous
 70
     0
  3
Solid line
 72
    65
 73
     0
 40
0.0
  0
LTYPE
  5
1D3
330
5
100
AcDbSymbolTableRecord
100
AcDbLinetypeTableRecord
  2
Sketch
 70
     0
  3
??????????
 72
    65
 73
     3
 40
40.0
 49
0.0
 74
     4
 75
     1
340
1D4
 46
0.3174603174603174
 50
0.0
 44
0.0
 45
0.0
 49
-40.0
 74
     0
 49
0.0
 74
     0
  0
LTYPE
  5
1ED
330
5
100
AcDbSymbolTableRecord
100
AcDbLinetypeTableRecord
  2
Hidden
 70
     0
  3
- - - - - 
 72
    65
 73
     2
 40
4.938889980316162
 49
2.822222709655761
 74
     0
 49
-2.1166672706604
 74
     0
  0
LTYPE
  5
25E
330
5
100
AcDbSymbolTableRecord
100
AcDbLinetypeTableRecord
  2
ZIGZAG
 70
     0
  3
Zig zag /\/\/\/\/\/\/\/\/\/\/\/\/\/\/\/\/\/\/\/
 72
    65
 73
     4
 40
0.8001000000000001
 49
0.0001
 74
     0
 49
-0.2
 74
     4
 75
   131
340
263
 46
0.2
 50
0.0
 44
-0.2
 45
0.0
 49
-0.4
 74
     4
 75
   131
340
263
 46
0.2
 50
180.0
 44
0.2
 45
0.0
 49
-0.2
 74
     0
  0
LTYPE
  5
25F
330
5
100
AcDbSymbolTableRecord
100
AcDbLinetypeTableRecord
  2
DASHEDX2
 70
     0
  3
Dashed (2x) ____  ____  ____  ____  ____  ___
 72
    65
 73
     2
 40
1.5
 49
1.0
 74
     0
 49
-0.5
 74
     0
  0
LTYPE
  5
356
330
5
100
AcDbSymbolTableRecord
100
AcDbLinetypeTableRecord
  2
PLASTER
 70
     0
  3
PLASTER
 72
    65
 73
     2
 40
2.379214999999999
 49
0.000024
 74
     4
 75
     1
340
357
 46
0.2
 50
0.0
 44
0.0
 45
0.0
 49
-2.379191
 74
     0
  0
ENDTAB
  0
TABLE
  2
LAYER
  5
2
102
{ACAD_XDICTIONARY
360
26A
102
}
330
0
100
AcDbSymbolTable
 70
     7
  0
LAYER
  5
10
102
{ACAD_XDICTIONARY
360
295
102
}
330
2
100
AcDbSymbolTableRecord
100
AcDbLayerTableRecord
  2
0
 70
     0
 62
     7
  6
Continuous
370
    -3
390
F
347
3E
348
0
  0
LAYER
  5
46
102
{ACAD_XDICTIONARY
360
297
102
}
330
2
100
AcDbSymbolTableRecord
100
AcDbLayerTableRecord
  2
Specialized_Fills
 70
     0
 62
     7
  6
Continuous
370
    -3
390
F
347
3E
348
0
  0
LAYER
  5
1D1
102
{ACAD_XDICTIONARY
360
299
102
}
330
2
100
AcDbSymbolTableRecord
100
AcDbLayerTableRecord
  2
Specialized_Lines
 70
     0
 62
     7
  6
Continuous
370
    -3
390
F
347
3E
348
0
  0
LAYER
  5
1D8
102
{ACAD_XDICTIONARY
360
29B
102
}
330
2
100
AcDbSymbolTableRecord
100
AcDbLayerTableRecord
  2
Specialized_Text
 70
     0
 62
     7
  6
Continuous
370
    -3
390
F
347
3E
348
0
  0
LAYER
  5
260
102
{ACAD_XDICTIONARY
360
261
102
}
330
2
100
AcDbSymbolTableRecord
100
AcDbLayerTableRecord
  2
Viewport
 70
     0
 62
     7
  6
Continuous
370
    -3
390
F
347
3E
348
0
1001
AcAecLayerStandard
1000

1000

1001
AcCmTransparency
1071
        0
  0
LAYER
  5
3E2
330
2
100
AcDbSymbolTableRecord
100
AcDbLayerTableRecord
  2
eps
 70
     0
 62
   254
  6
Continuous
370
    -3
390
F
347
3E
348
0
1001
AcAecLayerStandard
1000

1000

1001
AcCmTransparency
1071
        0
  0
LAYER
  5
4CD
102
{ACAD_XDICTIONARY
360
4CE
102
}
330
2
100
AcDbSymbolTableRecord
100
AcDbLayerTableRecord
  2
TEXT
 70
     0
 62
    18
420
        0
430
Standard$black
  6
Continuous
370
     0
390
F
347
3E
348
0
1001
AcCmTransparency
1071
 33554687
  0
ENDTAB
  0
TABLE
  2
STYLE
  5
3
330
0
100
AcDbSymbolTable
 70
     7
  0
STYLE
  5
11
330
3
100
AcDbSymbolTableRecord
100
AcDbTextStyleTableRecord
  2
Standard
 70
     0
 40
0.0
 41
1.0
 50
0.0
 71
     0
 42
0.2
  3
txt
  4
BIGFONT.SHX
  0
STYLE
  5
1D4
330
3
100
AcDbSymbolTableRecord
100
AcDbTextStyleTableRecord
  2

 70
     1
 40
0.2
 41
1.0
 50
0.0
 71
     0
 42
0.2
  3
22D Garage Door Head_ PLASTERED HEAD1.Shx
  4

  0
STYLE
  5
1FE
330
3
100
AcDbSymbolTableRecord
100
AcDbTextStyleTableRecord
  2
GENERATED_STYLE_1
 70
     0
 40
0.0
 41
1.0
 50
0.0
 71
     0
 42
0.2
  3
ARIALUNI.TTF
  4

1001
ACAD
1000
Arial Unicode MS
1071
       34
  0
STYLE
  5
262
330
3
100
AcDbSymbolTableRecord
100
AcDbTextStyleTableRecord
  2
GENERATED_STYLE_2
 70
     0
 40
0.0
 41
1.0
 50
0.0
 71
     0
 42
0.2
  3
ARIALUNI.TTF
  4

1001
ACAD
1000
Arial Unicode MS
1071
       34
  0
STYLE
  5
263
330
3
100
AcDbSymbolTableRecord
100
AcDbTextStyleTableRecord
  2

 70
     1
 40
0.0
 41
1.0
 50
0.0
 71
     0
 42
0.2
  3
ltypeshp.shx
  4

  0
STYLE
  5
357
330
3
100
AcDbSymbolTableRecord
100
AcDbTextStyleTableRecord
  2

 70
     1
 40
0.0
 41
1.0
 50
0.0
 71
     0
 42
0.2
  3
P:\VERT-X CONSULTING LTD\2013\10 OCT\1310-015- SPECIALIZED CONSTRUCTION PRODUCTS - CONTRACT DRAUGHTING\DRAWINGS\PLASTER.SHX
  4

  0
STYLE
  5
691
330
3
100
AcDbSymbolTableRecord
100
AcDbTextStyleTableRecord
  2
1-2 SPECIALIZED
 70
     0
 40
4.25
 41
1.0
 50
0.0
 71
     0
 42
4.25
  3
ARIALUNI.TTF
  4

1001
ACAD
1000
Arial Unicode MS
1071
       34
  0
ENDTAB
  0
TABLE
  2
VIEW
  5
6
330
0
100
AcDbSymbolTable
 70
     0
  0
ENDTAB
  0
TABLE
  2
UCS
  5
7
330
0
100
AcDbSymbolTable
 70
     0
  0
ENDTAB
  0
TABLE
  2
APPID
  5
9
330
0
100
AcDbSymbolTable
 70
    17
  0
APPID
  5
12
330
9
100
AcDbSymbolTableRecord
100
AcDbRegAppTableRecord
  2
ACAD
 70
     0
  0
APPID
  5
264
330
9
100
AcDbSymbolTableRecord
100
AcDbRegAppTableRecord
  2
ACAD_PSEXT
 70
     0
  0
APPID
  5
265
330
9
100
AcDbSymbolTableRecord
100
AcDbRegAppTableRecord
  2
ACAD_NAV_VCDISPLAY
 70
     0
  0
APPID
  5
266
330
9
100
AcDbSymbolTableRecord
100
AcDbRegAppTableRecord
  2
AcAecLayerStandard
 70
     0
  0
APPID
  5
267
330
9
100
AcDbSymbolTableRecord
100
AcDbRegAppTableRecord
  2
AcCmTransparency
 70
     0
  0
APPID
  5
268
330
9
100
AcDbSymbolTableRecord
100
AcDbRegAppTableRecord
  2
GradientColor1ACI
 70
     0
  0
APPID
  5
269
330
9
100
AcDbSymbolTableRecord
100
AcDbRegAppTableRecord
  2
GradientColor2ACI
 70
     0
  0
APPID
  5
2B0
330
9
100
AcDbSymbolTableRecord
100
AcDbRegAppTableRecord
  2
ACAD_EXEMPT_FROM_CAD_STANDARDS
 70
     0
  0
APPID
  5
2CC
330
9
100
AcDbSymbolTableRecord
100
AcDbRegAppTableRecord
  2
ACAUTHENVIRON
 70
     0
  0
APPID
  5
2D0
330
9
100
AcDbSymbolTableRecord
100
AcDbRegAppTableRecord
  2
AcDbDynamicBlockTrueName
 70
     0
  0
APPID
  5
2D1
330
9
100
AcDbSymbolTableRecord
100
AcDbRegAppTableRecord
  2
AcDbDynamicBlockGUID
 70
     0
  0
APPID
  5
3E5
330
9
100
AcDbSymbolTableRecord
100
AcDbRegAppTableRecord
  2
AcadAnnotative
 70
     0
  0
APPID
  5
3E6
330
9
100
AcDbSymbolTableRecord
100
AcDbRegAppTableRecord
  2
ACAD_DSTYLE_DIMJAG
 70
     0
  0
APPID
  5
3E7
330
9
100
AcDbSymbolTableRecord
100
AcDbRegAppTableRecord
  2
ACAD_DSTYLE_DIMTALN
 70
     0
  0
APPID
  5
3F5
330
9
100
AcDbSymbolTableRecord
100
AcDbRegAppTableRecord
  2
AdeskUnderlayLayerOverrideData
 70
     0
  0
APPID
  5
41C
330
9
100
AcDbSymbolTableRecord
100
AcDbRegAppTableRecord
  2
AcDbDynamicBlockTrueName2
 70
     0
  0
APPID
  5
438
330
9
100
AcDbSymbolTableRecord
100
AcDbRegAppTableRecord
  2
BNS_SPRHATCH
 70
     0
  0
ENDTAB
  0
TABLE
  2
DIMSTYLE
  5
A
330
0
100
AcDbSymbolTable
 70
     4
100
AcDbDimStyleTable
 71
     1
340
27
  0
DIMSTYLE
105
27
330
A
100
AcDbSymbolTableRecord
100
AcDbDimStyleTableRecord
  2
Standard
 70
     0
340
11
  0
DIMSTYLE
105
201
330
A
100
AcDbSymbolTableRecord
100
AcDbDimStyleTableRecord
  2
GENERATED_STYLE__1
 70
     0
 41
7.295999999999999
172
     1
341
202
  0
DIMSTYLE
105
3E3
330
A
100
AcDbSymbolTableRecord
100
AcDbDimStyleTableRecord
  2
Annotative
 70
     0
 40
0.0
 41
2.5
 42
0.625
 43
3.75
 44
1.25
 73
     0
 74
     0
 77
     1
 78
     8
140
2.5
141
2.5
143
0.03937007874016
147
0.625
171
     3
172
     1
271
     2
272
     2
274
     3
278
    44
283
     0
284
     8
340
11
1001
AcadAnnotative
1000
AnnotativeData
1002
{
1070
     1
1070
     1
1002
}
1001
ACAD_DSTYLE_DIMJAG
1070
   388
1040
1.5
1001
ACAD_DSTYLE_DIMTALN
1070
   392
1070
     0
  0
DIMSTYLE
105
3E4
330
A
100
AcDbSymbolTableRecord
100
AcDbDimStyleTableRecord
  2
ISO-25
 70
     0
 41
2.5
 42
0.625
 43
3.75
 44
1.25
 73
     0
 74
     0
 77
     1
 78
     8
140
2.5
141
2.5
143
0.03937007874016
147
0.625
171
     3
172
     1
271
     2
272
     2
274
     3
278
    44
283
     0
284
     8
340
11
  0
ENDTAB
  0
TABLE
  2
BLOCK_RECORD
  5
1
330
0
100
AcDbSymbolTable
 70
     8
  0
BLOCK_RECORD
  5
1F
102
{ACAD_XDICTIONARY
360
30F
102
}
330
1
100
AcDbSymbolTableRecord
100
AcDbBlockTableRecord
  2
*Model_Space
340
22
 70
     0
280
     1
281
     0
  0
BLOCK_RECORD
  5
1B
330
1
100
AcDbSymbolTableRecord
100
AcDbBlockTableRecord
  2
*Paper_Space
340
1E
 70
     0
280
     1
281
     0
  0
BLOCK_RECORD
  5
23
330
1
100
AcDbSymbolTableRecord
100
AcDbBlockTableRecord
  2
*Paper_Space0
340
26
 70
     0
280
     1
281
     0
  0
BLOCK_RECORD
  5
3F
102
{ACAD_XDICTIONARY
360
2DC
102
}
330
1
100
AcDbSymbolTableRecord
100
AcDbBlockTableRecord
  2
Fill_1
340
0
 70
     0
280
     1
281
     0
1001
AcDbDynamicBlockGUID
1000
{378447CF-A7EE-40ED-888C-0FF5692FD86E}
  0
BLOCK_RECORD
  5
1DE
102
{ACAD_XDICTIONARY
360
2CD
102
}
330
1
100
AcDbSymbolTableRecord
100
AcDbBlockTableRecord
  2
Line_1
340
0
102
{BLKREFS
331
1E6
102
}
 70
     0
280
     1
281
     0
1001
AcDbDynamicBlockGUID
1000
{2B1C0BD1-1AD6-4AC9-9294-A414305FFEB2}
  0
BLOCK_RECORD
  5
202
330
1
100
AcDbSymbolTableRecord
100
AcDbBlockTableRecord
  2
ARROWHEAD_5
340
0
 70
     0
280
     1
281
     0
  0
BLOCK_RECORD
  5
219
330
1
100
AcDbSymbolTableRecord
100
AcDbBlockTableRecord
  2
22D Garage Door Head_ PLASTERED_STORY_MARKER
340
0
 70
     0
280
     1
281
     0
  0
BLOCK_RECORD
  5
3C9
102
{ACAD_XDICTIONARY
360
3CB
102
}
330
1
100
AcDbSymbolTableRecord
100
AcDbBlockTableRecord
  2
A$C3BAF1DC7
340
0
 70
     0
280
     1
281
     0
  0
BLOCK_RECORD
  5
3CF
330
1
100
AcDbSymbolTableRecord
100
AcDbBlockTableRecord
  2
therma
340
0
310
2800000020000000200000000100080000000000000400000000000000000000000000000000000000000000000080000080000000808000800000008000800080800000C0C0C000C0DCC000F0CAA6000020400000206000002080000020A0000020C0000020E00000400000004020000040400000406000004080000040A0
310
000040C0000040E00000600000006020000060400000606000006080000060A0000060C0000060E00000800000008020000080400000806000008080000080A0000080C0000080E00000A0000000A0200000A0400000A0600000A0800000A0A00000A0C00000A0E00000C0000000C0200000C0400000C0600000C0800000C0
310
A00000C0C00000C0E00000E0000000E0200000E0400000E0600000E0800000E0A00000E0C00000E0E00040000000400020004000400040006000400080004000A0004000C0004000E00040200000402020004020400040206000402080004020A0004020C0004020E000404000004040200040404000404060004040800040
310
40A0004040C0004040E00040600000406020004060400040606000406080004060A0004060C0004060E00040800000408020004080400040806000408080004080A0004080C0004080E00040A0000040A0200040A0400040A0600040A0800040A0A00040A0C00040A0E00040C0000040C0200040C0400040C0600040C08000
310
40C0A00040C0C00040C0E00040E0000040E0200040E0400040E0600040E0800040E0A00040E0C00040E0E00080000000800020008000400080006000800080008000A0008000C0008000E00080200000802020008020400080206000802080008020A0008020C0008020E00080400000804020008040400080406000804080
310
008040A0008040C0008040E00080600000806020008060400080606000806080008060A0008060C0008060E00080800000808020008080400080806000808080008080A0008080C0008080E00080A0000080A0200080A0400080A0600080A0800080A0A00080A0C00080A0E00080C0000080C0200080C0400080C0600080C0
310
800080C0A00080C0C00080C0E00080E0000080E0200080E0400080E0600080E0800080E0A00080E0C00080E0E000C0000000C0002000C0004000C0006000C0008000C000A000C000C000C000E000C0200000C0202000C0204000C0206000C0208000C020A000C020C000C020E000C0400000C0402000C0404000C0406000C0
310
408000C040A000C040C000C040E000C0600000C0602000C0604000C0606000C0608000C060A000C060C000C060E000C0800000C0802000C0804000C0806000C0808000C080A000C080C000C080E000C0A00000C0A02000C0A04000C0A06000C0A08000C0A0A000C0A0C000C0A0E000C0C00000C0C02000C0C04000C0C06000
310
C0C08000C0C0A000F0FBFF00A4A0A000808080000000FF0000FF000000FFFF00FF000000FF00FF00FFFF0000FFFFFF0049494949494949494949494949494949494949494949494949494949494949494949494949494949494949494949494949494949494949494949070749494949494949494949494949070707074949
310
49494907494949494949070707070749494949494949494949490749490707490707070707074949490707070707074949494949070707070749074949070749070707070707074949070707070707074949494907070707070707070707490707070707070707074907070707070707494949070707070707074907074949
310
07070707070707070749070707070707494949490707070707070749494949490707070707070707074949070707074949494949490707070707074907074949070707070707070707070707494949494949494949070707070707070707070749070707070707070707070749494949494949494949494949490707070707
310
07494907070707070707070707494949494949494907070707494907070707070749494949494949490707070749494949494949490707070749490707070707074949494949494949070707074949494949494907070707074949070707070707494949494949494949494949494949494949494907070707494949070707
310
07494949494949494949494949490749494949494949070707070707070749494949070707070749494949490707070707494949494949494907070707070749490707494949070749494949070707070707494949494949070707070707070749074949494949074949490707070707070749494949494907070707070707
310
07490749494949490749494907070707070707494949494949070707070707070749070749494907494949494907070707070749494949494907070707070707074949070707070707070707490707070707494949494949490707070707070707494949494949490707070749494949494949494949494949490707070707
310
07494949494949494907070707494907074949494949494949494949070707074949494949494949490707070707070707074949494949494907070707494949070707494949070707070707070707070707074949494949070707070707490707070707490707070707074907070707070707494949494907070707070749
310
07070707074907070707070749070707070707074949494949070707070707490707070707490707070707074907070707070749494949494907070707070749490707074949070707070707494907070707074949494949490707070707494949494949494949070707070749494949494949494949494949494907074949
310
4949494949494949490707494949494949494949494949494949494949494949494949494949494949494949494949494949494949494949
102
{BLKREFS
331
60F
331
610
331
611
331
612
331
613
331
614
331
615
331
616
331
617
331
618
331
619
331
61A
331
61B
331
61C
331
61D
331
61E
331
61F
331
620
331
621
331
622
331
623
331
624
331
625
331
626
102
}
 70
     0
280
     1
281
     1
  0
BLOCK_RECORD
  5
3FB
102
{ACAD_XDICTIONARY
360
3FC
102
}
330
1
100
AcDbSymbolTableRecord
100
AcDbBlockTableRecord
  2
BASE FLASHING
340
0
310
2800000020000000200000000100080000000000000400000000000000000000000000000000000000000000000080000080000000808000800000008000800080800000C0C0C000C0DCC000F0CAA6000020400000206000002080000020A0000020C0000020E00000400000004020000040400000406000004080000040A0
310
000040C0000040E00000600000006020000060400000606000006080000060A0000060C0000060E00000800000008020000080400000806000008080000080A0000080C0000080E00000A0000000A0200000A0400000A0600000A0800000A0A00000A0C00000A0E00000C0000000C0200000C0400000C0600000C0800000C0
310
A00000C0C00000C0E00000E0000000E0200000E0400000E0600000E0800000E0A00000E0C00000E0E00040000000400020004000400040006000400080004000A0004000C0004000E00040200000402020004020400040206000402080004020A0004020C0004020E000404000004040200040404000404060004040800040
310
40A0004040C0004040E00040600000406020004060400040606000406080004060A0004060C0004060E00040800000408020004080400040806000408080004080A0004080C0004080E00040A0000040A0200040A0400040A0600040A0800040A0A00040A0C00040A0E00040C0000040C0200040C0400040C0600040C08000
310
40C0A00040C0C00040C0E00040E0000040E0200040E0400040E0600040E0800040E0A00040E0C00040E0E00080000000800020008000400080006000800080008000A0008000C0008000E00080200000802020008020400080206000802080008020A0008020C0008020E00080400000804020008040400080406000804080
310
008040A0008040C0008040E00080600000806020008060400080606000806080008060A0008060C0008060E00080800000808020008080400080806000808080008080A0008080C0008080E00080A0000080A0200080A0400080A0600080A0800080A0A00080A0C00080A0E00080C0000080C0200080C0400080C0600080C0
310
800080C0A00080C0C00080C0E00080E0000080E0200080E0400080E0600080E0800080E0A00080E0C00080E0E000C0000000C0002000C0004000C0006000C0008000C000A000C000C000C000E000C0200000C0202000C0204000C0206000C0208000C020A000C020C000C020E000C0400000C0402000C0404000C0406000C0
310
408000C040A000C040C000C040E000C0600000C0602000C0604000C0606000C0608000C060A000C060C000C060E000C0800000C0802000C0804000C0806000C0808000C080A000C080C000C080E000C0A00000C0A02000C0A04000C0A06000C0A08000C0A0A000C0A0C000C0A0E000C0C00000C0C02000C0C04000C0C06000
310
C0C08000C0C0A000F0FBFF00A4A0A000808080000000FF0000FF000000FFFF00FF000000FF00FF00FFFF0000FFFFFF0049494949494949494949494949494949494949494949494949494949494949494949494949494949494949494949494949494949494949494949494949494949494949494949494949494949494949
310
49494949494949494949494949494949494949494949494949494949494949494949494949494949494949494949494949494949494949494949494949494949494949494949494949494949494949494949494949494949494949494949494949494949494949494949494949494949494949494949494949494949494949
310
49494949494949494949494949494949494949494949494949494949494949494949494949494949494949494949494949494949494949494949494949494949494949494949494949494949494949494949494949494949494949494949494949494949494949494949494949494949494949494949494949494949494949
310
49494949494949494949494949494949494949494949494949494949494949494949494949494949494949494949494949494949FFFF494949494949494949494949494949494949494949494949494949494949FFFFFFFFFFFFFFFFFFFFFFFFFFFFFFFFFFFFFFFFFFFFFFFFFFFF494949494949FFFFFFFFFFFFFFFFFFFFFF
310
FFFFFFFFFFFFFFFFFFFFFFFFFFFFFF494949494949FFFF49494949494949494949494949494949494949494949FFFF494949494949FFFF49494949494949494949494949494949494949494949FFFFFFFFFFFF4949FFFF49494949494949494949494949494949494949494949FFFFFFFFFFFF4949FFFF4949494949494949
310
4949494949494949494949494949FFFF494949494949FFFF49494949494949494949494949494949494949494949FFFF49494949494949494949494949494949494949494949494949494949494949494949494949494949494949494949494949494949494949494949494949494949494949494949494949494949494949
310
49494949494949494949494949494949494949494949494949494949494949494949494949494949494949494949494949494949494949494949494949494949494949494949494949494949494949494949494949494949494949494949494949494949494949494949494949494949494949494949494949494949494949
310
49494949494949494949494949494949494949494949494949494949494949494949494949494949494949494949494949494949494949494949494949494949494949494949494949494949494949494949494949494949494949494949494949494949494949494949494949494949494949494949494949494949494949
310
4949494949494949494949494949494949494949494949494949494949494949494949494949494949494949494949494949494949494949
 70
     0
280
     1
281
     0
1001
AcDbDynamicBlockTrueName2
1000
BASE FLASHING
1001
AcDbDynamicBlockGUID
1000
{9E37DA8F-0CA8-B04B-9BD5-492C3BAF44EE}
  0
ENDTAB
  0
ENDSEC
  0
SECTION
  2
BLOCKS
  0
BLOCK
  5
20
330
1F
100
AcDbEntity
  8
0
100
AcDbBlockBegin
  2
*Model_Space
 70
     0
 10
0.0
 20
0.0
 30
0.0
  3
*Model_Space
  1

  0
ENDBLK
  5
21
330
1F
100
AcDbEntity
  8
0
100
AcDbBlockEnd
  0
BLOCK
  5
1C
330
1B
100
AcDbEntity
 67
     1
  8
0
100
AcDbBlockBegin
  2
*Paper_Space
 70
     0
 10
0.0
 20
0.0
 30
0.0
  3
*Paper_Space
  1

  0
ENDBLK
  5
1D
330
1B
100
AcDbEntity
 67
     1
  8
0
100
AcDbBlockEnd
  0
BLOCK
  5
24
330
23
100
AcDbEntity
 67
     1
  8
0
100
AcDbBlockBegin
  2
*Paper_Space0
 70
     0
 10
0.0
 20
0.0
 30
0.0
  3
*Paper_Space0
  1

  0
ENDBLK
  5
25
330
23
100
AcDbEntity
 67
     1
  8
0
100
AcDbBlockEnd
  0
BLOCK
  5
40
330
3F
100
AcDbEntity
  8
0
100
AcDbBlockBegin
  2
Fill_1
 70
     0
 10
0.0
 20
0.0
 30
0.0
  3
Fill_1
  1

  0
LINE
  5
2D7
102
{ACAD_REACTORS
330
2EA
102
}
330
3F
100
AcDbEntity
  8
Specialized_Fills
  6
Continuous
100
AcDbLine
 10
26155.12700685298
 20
-8574.859726353022
 30
0.0
 11
26205.32700685298
 21
-8574.859726353022
 31
0.0
  0
LINE
  5
2D8
102
{ACAD_REACTORS
330
2EA
102
}
330
3F
100
AcDbEntity
  8
Specialized_Fills
  6
Continuous
100
AcDbLine
 10
26205.32700685298
 20
-8574.859726353022
 30
0.0
 11
26205.32700685298
 21
-8806.606645244807
 31
0.0
  0
LINE
  5
2D9
102
{ACAD_REACTORS
330
2EA
102
}
330
3F
100
AcDbEntity
  8
Specialized_Fills
  6
Continuous
100
AcDbLine
 10
26205.32700685298
 20
-8806.606645244807
 30
0.0
 11
26198.32700685298
 21
-8806.606645244807
 31
0.0
  0
LINE
  5
2DA
102
{ACAD_REACTORS
330
2EA
102
}
330
3F
100
AcDbEntity
  8
Specialized_Fills
  6
Continuous
100
AcDbLine
 10
26198.32700685298
 20
-8806.606645244807
 30
0.0
 11
26155.12700685298
 21
-8806.606645244807
 31
0.0
  0
LINE
  5
2DB
102
{ACAD_REACTORS
330
2EA
102
}
330
3F
100
AcDbEntity
  8
Specialized_Fills
  6
Continuous
100
AcDbLine
 10
26155.12700685298
 20
-8806.606645244807
 30
0.0
 11
26155.12700685298
 21
-8574.859726353022
 31
0.0
  0
HATCH
  5
2EA
330
3F
100
AcDbEntity
  8
0
 62
   251
420
  6250335
100
AcDbHatch
 10
0.0
 20
0.0
 30
0.0
210
0.0
220
0.0
230
1.0
  2
HPCRC1E0
 70
     0
 71
     1
 91
        1
 92
        7
 72
     0
 73
     1
 93
        5
 10
26205.32700685298
 20
-8574.859726353022
 10
26155.12700685298
 20
-8574.859726353022
 10
26155.12700685298
 20
-8806.606645244807
 10
26198.32700685298
 20
-8806.606645244807
 10
26205.32700685298
 20
-8806.606645244807
 97
        5
330
2D7
330
2DB
330
2DA
330
2D9
330
2D8
 75
     1
 76
     2
 52
0.0
 41
0.12
 77
     0
 78
    78
 53
82.8749847
 43
0.0
 44
4.2
 45
-0.0000004961129005
 46
8.399999852931037
 79
     2
 49
0.9674709324
 49
-66.75549316799998
 53
75.96376039999999
 43
0.12
 44
5.16
 45
-0.000000348785556
 46
8.399999709154096
 79
     2
 49
0.4947726600000001
 49
-34.139315184
 53
63.43495179999999
 43
0.24
 44
5.639999999999999
 45
-0.0000000286036308
 46
8.400000041591663
 79
     2
 49
1.073312639999999
 49
-17.70965881199999
 53
45.0
 43
0.72
 44
6.599999999999999
 45
0.0000000000000009
 46
8.400000002875099
 79
     2
 49
1.527350688
 49
-10.352043456
 53
33.6900673
 43
1.799999999999999
 44
7.679999999999999
 45
0.0000001596020127
 46
8.399999824188462
 79
     2
 49
0.4326661440000001
 49
-29.85396423600001
 53
33.6900673
 43
10.2
 44
7.679999999999999
 45
0.0000001596020127
 46
8.399999824188462
 79
     2
 49
0.4326661440000001
 49
-29.85396423600001
 53
33.6900673
 43
18.6
 44
7.679999999999999
 45
0.0000001596020127
 46
8.399999824188462
 79
     2
 49
0.4326661440000001
 49
-29.85396423600001
 53
26.5650501
 43
2.16
 44
7.919999999999999
 45
-0.0000000460215162
 46
8.400000143556356
 79
     2
 49
0.26832816
 49
-18.514643556
 53
26.5650501
 43
10.56
 44
7.919999999999999
 45
-0.0000000460215162
 46
8.400000143556356
 79
     2
 49
0.26832816
 49
-18.514643556
 53
18.434948
 43
2.399999999999999
 44
8.039999999999999
 45
0.0000002686412607
 46
8.399999851558131
 79
     2
 49
0.3794733239999999
 49
-26.183659056
 53
18.434948
 43
10.8
 44
8.039999999999999
 45
0.0000002686412607
 46
8.399999851558131
 79
     2
 49
0.3794733239999999
 49
-26.183659056
 53
18.434948
 43
19.2
 44
8.039999999999999
 45
0.0000002686412607
 46
8.399999851558131
 79
     2
 49
0.3794733239999999
 49
-26.183659056
 53
26.5650501
 43
2.759999999999999
 44
8.16
 45
-0.0000000460215162
 46
8.400000143556356
 79
     2
 49
0.26832816
 49
-18.514643556
 53
26.5650501
 43
11.16
 44
8.16
 45
-0.0000000460215162
 46
8.400000143556356
 79
     2
 49
0.26832816
 49
-18.514643556
 53
11.3099327
 43
3.0
 44
8.279999999999999
 45
-0.0000000543109101
 46
8.400000069389928
 79
     2
 49
0.6118823435999998
 49
-42.21988036799999
 53
11.3099327
 43
11.4
 44
8.279999999999999
 45
-0.0000000543109101
 46
8.400000069389928
 79
     2
 49
0.6118823435999998
 49
-42.21988036799999
 53
11.3099327
 43
19.8
 44
8.279999999999999
 45
-0.0000000543109101
 46
8.400000069389928
 79
     2
 49
0.6118823435999998
 49
-42.21988036799999
 53
11.3099327
 43
28.2
 44
8.279999999999999
 45
-0.0000000543109101
 46
8.400000069389928
 79
     2
 49
0.6118823435999998
 49
-42.21988036799999
 53
11.3099327
 43
36.6
 44
8.279999999999999
 45
-0.0000000543109101
 46
8.400000069389928
 79
     2
 49
0.6118823435999998
 49
-42.21988036799999
 53
0.0
 43
3.599999999999999
 44
8.4
 45
0.0
 46
8.4
 79
     2
 49
1.199999999999999
 49
-7.199999999999999
 53
348.6900673
 43
4.799999999999999
 44
8.4
 45
0.0000000543109101
 46
8.400000069389928
 79
     2
 49
0.6118823435999998
 49
-42.21988036799999
 53
348.6900673
 43
13.2
 44
8.4
 45
0.0000000543109101
 46
8.400000069389928
 79
     2
 49
0.6118823435999998
 49
-42.21988036799999
 53
348.6900673
 43
21.6
 44
8.4
 45
0.0000000543109101
 46
8.400000069389928
 79
     2
 49
0.6118823435999998
 49
-42.21988036799999
 53
348.6900673
 43
30.0
 44
8.4
 45
0.0000000543109101
 46
8.400000069389928
 79
     2
 49
0.6118823435999998
 49
-42.21988036799999
 53
348.6900673
 43
38.4
 44
8.4
 45
0.0000000543109101
 46
8.400000069389928
 79
     2
 49
0.6118823435999998
 49
-42.21988036799999
 53
333.4349499
 43
5.399999999999999
 44
8.279999999999999
 45
0.0000000460215162
 46
8.400000143556356
 79
     2
 49
0.2683281599999999
 49
-18.514643556
 53
333.4349499
 43
13.8
 44
8.279999999999999
 45
0.0000000460215162
 46
8.400000143556356
 79
     2
 49
0.2683281599999999
 49
-18.514643556
 53
341.565052
 43
5.639999999999999
 44
8.16
 45
-0.0000002686412607
 46
8.399999851558131
 79
     2
 49
0.379473324
 49
-26.183659056
 53
341.565052
 43
14.04
 44
8.16
 45
-0.0000002686412607
 46
8.399999851558131
 79
     2
 49
0.379473324
 49
-26.183659056
 53
341.565052
 43
22.44
 44
8.16
 45
-0.0000002686412607
 46
8.399999851558131
 79
     2
 49
0.379473324
 49
-26.183659056
 53
333.4349499
 43
6.0
 44
8.039999999999999
 45
0.0000000460215162
 46
8.400000143556356
 79
     2
 49
0.2683281599999999
 49
-18.514643556
 53
333.4349499
 43
14.4
 44
8.039999999999999
 45
0.0000000460215162
 46
8.400000143556356
 79
     2
 49
0.2683281599999999
 49
-18.514643556
 53
326.3099327
 43
6.24
 44
7.919999999999999
 45
-0.0000001596020127
 46
8.399999824188462
 79
     2
 49
0.4326661440000001
 49
-29.85396423600001
 53
326.3099327
 43
14.64
 44
7.919999999999999
 45
-0.0000001596020127
 46
8.399999824188462
 79
     2
 49
0.4326661440000001
 49
-29.85396423600001
 53
326.3099327
 43
23.04
 44
7.919999999999999
 45
-0.0000001596020127
 46
8.399999824188462
 79
     2
 49
0.4326661440000001
 49
-29.85396423600001
 53
315.0
 43
6.599999999999999
 44
7.679999999999999
 45
-0.0000000000000009
 46
8.400000002875099
 79
     2
 49
1.527350688
 49
-10.352043456
 53
296.5650482
 43
7.679999999999999
 44
6.599999999999999
 45
0.0000000286036308
 46
8.400000041591663
 79
     2
 49
1.073312639999999
 49
-17.70965881199999
 53
284.0362396
 43
8.16
 44
5.639999999999999
 45
0.000000348785556
 46
8.399999709154096
 79
     2
 49
0.4947726600000001
 49
-34.139315184
 53
277.1250153
 43
8.279999999999999
 44
5.16
 45
0.0000004961129005
 46
8.399999852931037
 79
     2
 49
0.9674709324
 49
-66.75549316799998
 53
277.1250153
 43
0.0
 44
4.2
 45
0.0000004961129005
 46
8.399999852931037
 79
     2
 49
0.9674709324
 49
-66.75549316799998
 53
284.0362396
 43
0.12
 44
3.239999999999999
 45
0.000000348785556
 46
8.399999709154096
 79
     2
 49
0.4947726600000001
 49
-34.139315184
 53
296.5650482
 43
0.24
 44
2.759999999999999
 45
0.0000000286036308
 46
8.400000041591663
 79
     2
 49
1.073312639999999
 49
-17.70965881199999
 53
315.0
 43
0.72
 44
1.799999999999999
 45
-0.0000000000000009
 46
8.400000002875099
 79
     2
 49
1.527350688
 49
-10.352043456
 53
326.3099327
 43
1.799999999999999
 44
0.72
 45
-0.0000001596020127
 46
8.399999824188462
 79
     2
 49
0.4326661440000001
 49
-29.85396423600001
 53
326.3099327
 43
10.2
 44
0.72
 45
-0.0000001596020127
 46
8.399999824188462
 79
     2
 49
0.4326661440000001
 49
-29.85396423600001
 53
326.3099327
 43
18.6
 44
0.72
 45
-0.0000001596020127
 46
8.399999824188462
 79
     2
 49
0.4326661440000001
 49
-29.85396423600001
 53
333.4349499
 43
2.16
 44
0.48
 45
0.0000000460215162
 46
8.400000143556356
 79
     2
 49
0.2683281599999999
 49
-18.514643556
 53
333.4349499
 43
10.56
 44
0.48
 45
0.0000000460215162
 46
8.400000143556356
 79
     2
 49
0.2683281599999999
 49
-18.514643556
 53
341.565052
 43
2.399999999999999
 44
0.36
 45
-0.0000002686412607
 46
8.399999851558131
 79
     2
 49
0.379473324
 49
-26.183659056
 53
341.565052
 43
10.8
 44
0.36
 45
-0.0000002686412607
 46
8.399999851558131
 79
     2
 49
0.379473324
 49
-26.183659056
 53
341.565052
 43
19.2
 44
0.36
 45
-0.0000002686412607
 46
8.399999851558131
 79
     2
 49
0.379473324
 49
-26.183659056
 53
333.4349499
 43
2.759999999999999
 44
0.24
 45
0.0000000460215162
 46
8.400000143556356
 79
     2
 49
0.2683281599999999
 49
-18.514643556
 53
333.4349499
 43
11.16
 44
0.24
 45
0.0000000460215162
 46
8.400000143556356
 79
     2
 49
0.2683281599999999
 49
-18.514643556
 53
348.6900673
 43
3.0
 44
0.12
 45
0.0000000543109101
 46
8.400000069389928
 79
     2
 49
0.6118823435999998
 49
-42.21988036799999
 53
348.6900673
 43
11.4
 44
0.12
 45
0.0000000543109101
 46
8.400000069389928
 79
     2
 49
0.6118823435999998
 49
-42.21988036799999
 53
348.6900673
 43
19.8
 44
0.12
 45
0.0000000543109101
 46
8.400000069389928
 79
     2
 49
0.6118823435999998
 49
-42.21988036799999
 53
348.6900673
 43
28.2
 44
0.12
 45
0.0000000543109101
 46
8.400000069389928
 79
     2
 49
0.6118823435999998
 49
-42.21988036799999
 53
348.6900673
 43
36.6
 44
0.12
 45
0.0000000543109101
 46
8.400000069389928
 79
     2
 49
0.6118823435999998
 49
-42.21988036799999
 53
0.0
 43
3.599999999999999
 44
0.0
 45
0.0
 46
8.4
 79
     2
 49
1.199999999999999
 49
-7.199999999999999
 53
11.3099327
 43
4.799999999999999
 44
0.0
 45
-0.0000000543109101
 46
8.400000069389928
 79
     2
 49
0.6118823435999998
 49
-42.21988036799999
 53
11.3099327
 43
13.2
 44
0.0
 45
-0.0000000543109101
 46
8.400000069389928
 79
     2
 49
0.6118823435999998
 49
-42.21988036799999
 53
11.3099327
 43
21.6
 44
0.0
 45
-0.0000000543109101
 46
8.400000069389928
 79
     2
 49
0.6118823435999998
 49
-42.21988036799999
 53
11.3099327
 43
30.0
 44
0.0
 45
-0.0000000543109101
 46
8.400000069389928
 79
     2
 49
0.6118823435999998
 49
-42.21988036799999
 53
11.3099327
 43
38.4
 44
0.0
 45
-0.0000000543109101
 46
8.400000069389928
 79
     2
 49
0.6118823435999998
 49
-42.21988036799999
 53
26.5650501
 43
5.399999999999999
 44
0.12
 45
-0.0000000460215162
 46
8.400000143556356
 79
     2
 49
0.26832816
 49
-18.514643556
 53
26.5650501
 43
13.8
 44
0.12
 45
-0.0000000460215162
 46
8.400000143556356
 79
     2
 49
0.26832816
 49
-18.514643556
 53
18.434948
 43
5.639999999999999
 44
0.24
 45
0.0000002686412607
 46
8.399999851558131
 79
     2
 49
0.3794733239999999
 49
-26.183659056
 53
18.434948
 43
14.04
 44
0.24
 45
0.0000002686412607
 46
8.399999851558131
 79
     2
 49
0.3794733239999999
 49
-26.183659056
 53
18.434948
 43
22.44
 44
0.24
 45
0.0000002686412607
 46
8.399999851558131
 79
     2
 49
0.3794733239999999
 49
-26.183659056
 53
26.5650501
 43
6.0
 44
0.36
 45
-0.0000000460215162
 46
8.400000143556356
 79
     2
 49
0.26832816
 49
-18.514643556
 53
26.5650501
 43
14.4
 44
0.36
 45
-0.0000000460215162
 46
8.400000143556356
 79
     2
 49
0.26832816
 49
-18.514643556
 53
33.6900673
 43
6.24
 44
0.48
 45
0.0000001596020127
 46
8.399999824188462
 79
     2
 49
0.4326661440000001
 49
-29.85396423600001
 53
33.6900673
 43
14.64
 44
0.48
 45
0.0000001596020127
 46
8.399999824188462
 79
     2
 49
0.4326661440000001
 49
-29.85396423600001
 53
33.6900673
 43
23.04
 44
0.48
 45
0.0000001596020127
 46
8.399999824188462
 79
     2
 49
0.4326661440000001
 49
-29.85396423600001
 53
45.0
 43
6.599999999999999
 44
0.72
 45
0.0000000000000009
 46
8.400000002875099
 79
     2
 49
1.527350688
 49
-10.352043456
 53
63.43495179999999
 43
7.679999999999999
 44
1.799999999999999
 45
-0.0000000286036308
 46
8.400000041591663
 79
     2
 49
1.073312639999999
 49
-17.70965881199999
 53
75.96376039999999
 43
8.16
 44
2.759999999999999
 45
-0.000000348785556
 46
8.399999709154096
 79
     2
 49
0.4947726600000001
 49
-34.139315184
 53
82.8749847
 43
8.279999999999999
 44
3.239999999999999
 45
-0.0000004961129005
 46
8.399999852931037
 79
     2
 49
0.9674709324
 49
-66.75549316799998
 47
0.338316669915021
 98
        1
 10
26189.71119803255
 20
-8602.770851210216
1001
GradientColor1ACI
1070
     5
1001
GradientColor2ACI
1070
     2
1001
ACAD
1010
0.0
1020
0.0
1030
0.0
  0
ENDBLK
  5
41
330
3F
100
AcDbEntity
  8
0
100
AcDbBlockEnd
  0
BLOCK
  5
1DF
330
1DE
100
AcDbEntity
  8
0
100
AcDbBlockBegin
  2
Line_1
 70
     0
 10
26244.10863486651
 20
-8821.290973151889
 30
0.0
  3
Line_1
  1

  0
LINE
  5
2C7
330
1DE
100
AcDbEntity
  8
Specialized_Lines
  6
Continuous
 62
   251
420
  6250335
370
    13
100
AcDbLine
 10
26244.10863486651
 20
-8821.290973151889
 30
0.0
 11
26236.7242746723
 21
-8813.906612957687
 31
0.0
  0
LINE
  5
2C8
330
1DE
100
AcDbEntity
  8
Specialized_Lines
  6
Continuous
 62
   251
420
  6250335
370
    20
100
AcDbLine
 10
26231.44635894685
 20
-8808.628697232235
 30
0.0
 11
26238.13848823468
 21
-8812.492399395315
 31
0.0
  0
LINE
  5
2C9
330
1DE
100
AcDbEntity
  8
Specialized_Lines
  6
Continuous
 62
   251
420
  6250335
370
    20
100
AcDbLine
 10
26231.44635894685
 20
-8808.628697232235
 30
0.0
 11
26235.31006110993
 21
-8815.320826520062
 31
0.0
  0
LINE
  5
2CA
330
1DE
100
AcDbEntity
  8
Specialized_Lines
  6
Continuous
 62
   251
420
  6250335
370
    20
100
AcDbLine
 10
26238.13848823468
 20
-8812.492399395315
 30
0.0
 11
26235.31006110993
 21
-8815.320826520062
 31
0.0
  0
HATCH
  5
2CB
330
1DE
100
AcDbEntity
  8
Specialized_Lines
  6
Continuous
 62
   251
420
  6250335
370
    20
100
AcDbHatch
 10
0.0
 20
0.0
 30
0.0
210
0.0
220
0.0
230
1.0
  2
SOLID
 70
     1
 71
     0
 91
        1
 92
        2
 72
     0
 73
     1
 93
        3
 10
26231.44635894685
 20
-8808.628697232235
 10
26238.13848823468
 20
-8812.492399395315
 10
26235.31006110993
 20
-8815.320826520062
 97
        0
 75
     0
 76
     1
 98
        0
450
        0
451
        0
460
0.0
461
0.0
452
        1
462
0.0
453
        0
470

  0
ENDBLK
  5
1E0
330
1DE
100
AcDbEntity
  8
0
100
AcDbBlockEnd
  0
BLOCK
  5
203
330
202
100
AcDbEntity
  8
0
100
AcDbBlockBegin
  2
ARROWHEAD_5
 70
     0
 10
0.0
 20
0.0
 30
0.0
  3
ARROWHEAD_5
  1

  0
SOLID
  5
205
330
202
100
AcDbEntity
  8
0
  6
Continuous
 62
     0
370
     0
100
AcDbTrace
 10
-1.0
 20
0.2679
 30
0.0
 11
0.0
 21
0.0
 31
0.0
 12
-1.0
 22
-0.2679
 32
0.0
 13
-1.0
 23
0.2679
 33
0.0
  0
LINE
  5
206
330
202
100
AcDbEntity
  8
0
  6
Continuous
 62
     0
370
     0
100
AcDbLine
 10
0.0
 20
0.0
 30
0.0
 11
-1.0
 21
0.0
 31
0.0
  0
ENDBLK
  5
204
330
202
100
AcDbEntity
  8
0
100
AcDbBlockEnd
  0
BLOCK
  5
21A
330
219
100
AcDbEntity
  8
0
100
AcDbBlockBegin
  2
22D Garage Door Head_ PLASTERED_STORY_MARKER
 70
     0
 10
0.0
 20
0.0
 30
0.0
  3
22D Garage Door Head_ PLASTERED_STORY_MARKER
  1

  0
ENDBLK
  5
21B
330
219
100
AcDbEntity
  8
0
100
AcDbBlockEnd
  0
BLOCK
  5
3CD
330
3C9
100
AcDbEntity
  8
0
 48
3.0
100
AcDbBlockBegin
  2
A$C3BAF1DC7
 70
     0
 10
0.0
 20
0.0
 30
0.0
  3
A$C3BAF1DC7
  1

  0
LINE
  5
3CA
330
3C9
100
AcDbEntity
  8
Specialized_Lines
  6
PLASTER
 48
3.0
100
AcDbLine
 10
0.0000000557192834
 20
-0.0000005026449799
 30
0.0
 11
17.55708529159892
 21
5.830844892323511
 31
0.0
  0
ENDBLK
  5
3CE
330
3C9
100
AcDbEntity
  8
0
 48
3.0
100
AcDbBlockEnd
  0
BLOCK
  5
3D0
330
3CF
100
AcDbEntity
  8
0
 62
     7
420
 16777215
100
AcDbBlockBegin
  2
therma
 70
     0
 10
0.0
 20
0.0
 30
0.0
  3
therma
  1

  0
HATCH
  5
3D1
330
3CF
100
AcDbEntity
  8
eps
 62
   254
100
AcDbHatch
 10
0.0
 20
0.0
 30
0.0
210
0.0
220
0.0
230
1.0
  2
SOLID
 70
     1
 71
     1
 91
       13
 92
        7
 72
     1
 73
     1
 93
        2
 10
5.153274474768295
 20
-2.088877458424576
 42
1.0
 10
-0.8467255252317045
 20
-2.088877458424576
 42
1.0
 97
        1
330
3D2
 92
        7
 72
     1
 73
     1
 93
        2
 10
11.18338068794492
 20
-3.150707591624268
 42
1.0
 10
7.183380687944918
 20
-3.150707591624268
 42
1.0
 97
        1
330
3D3
 92
        7
 72
     1
 73
     1
 93
        2
 10
1.50424343474242
 20
-10.22395803436757
 42
1.0
 10
9.50424343474242
 20
-10.22395803436757
 42
1.0
 97
        1
330
3D4
 92
        7
 72
     1
 73
     1
 93
        2
 10
3.121692185625761
 20
-16.43286101922513
 42
1.0
 10
-0.8783078143742386
 20
-16.43286101922513
 42
1.0
 97
        1
330
3D5
 92
        7
 72
     1
 73
     1
 93
        2
 10
20.23028334799255
 20
-23.4014379273367
 42
1.0
 10
12.23028334799255
 20
-23.4014379273367
 42
1.0
 97
        1
330
3DE
 92
        7
 72
     1
 73
     1
 93
        2
 10
5.872128148083902
 20
-23.17290683493138
 42
1.0
 10
-0.1278718519160975
 20
-23.17290683493138
 42
1.0
 97
        1
330
3E0
 92
        7
 72
     1
 73
     1
 93
        2
 10
5.625021722852579
 20
-18.32128648862363
 42
1.0
 10
11.62502172285258
 20
-18.32128648862363
 42
1.0
 97
        1
330
3D9
 92
        7
 72
     1
 73
     1
 93
        2
 10
18.81562264413605
 20
-2.148910809607514
 42
1.0
 10
12.81562264413605
 20
-2.148910809607514
 42
1.0
 97
        1
330
3DB
 92
        7
 72
     1
 73
     1
 93
        2
 10
21.01098252133033
 20
-7.164015699477204
 42
1.0
 10
17.01098252133033
 20
-7.164015699477204
 42
1.0
 97
        1
330
3D8
 92
        7
 72
     1
 73
     1
 93
        2
 10
26.60587034827131
 20
-3.646358717532166
 42
1.0
 10
20.60587034827131
 20
-3.646358717532166
 42
1.0
 97
        1
330
3DD
 92
        7
 72
     1
 73
     1
 93
        2
 10
21.80413181950371
 20
-11.85245936021328
 42
1.0
 10
27.80413181950371
 20
-11.85245936021328
 42
1.0
 97
        1
330
3DF
 92
        7
 72
     1
 73
     1
 93
        2
 10
24.00715224641408
 20
-19.56290887698651
 42
1.0
 10
20.00715224641408
 20
-19.56290887698651
 42
1.0
 97
        1
330
3D7
 92
        7
 72
     1
 73
     1
 93
        2
 10
22.40377860212266
 20
-25.5089748094988
 42
1.0
 10
28.40377860212266
 20
-25.5089748094988
 42
1.0
 97
        1
330
3DC
 75
     1
 76
     1
 47
0.1543695318342555
 98
       13
 10
3.629268677542313
 20
-2.522538144440659
 10
9.4972407657051
 20
-3.564040262551316
 10
6.236338855102985
 20
-10.02363147243977
 10
1.887609562473699
 20
-16.96595259413243
 10
15.59743406924917
 20
-23.78728337988377
 10
3.820206121295086
 20
-23.42523594603063
 10
7.987802866017773
 20
-17.81103782758236
 10
15.65781158521804
 20
-2.175576020331391
 10
18.73758094779714
 20
-7.427726734728821
 10
24.41461559220716
 20
-4.04707803234578
 10
24.23348304430056
 20
-10.38567890629292
 10
22.36126400144804
 20
-17.69035534963132
 10
25.07928431521668
 20
-24.14963870152951
450
        0
451
        0
460
0.0
461
0.0
452
        0
462
1.0
453
        2
463
0.0
 63
     5
421
      255
463
1.0
 63
     2
421
 16776960
470
LINEAR
1001
GradientColor1ACI
1070
     5
1001
GradientColor2ACI
1070
     2
1001
ACAD
1010
0.0
1020
0.0
1030
0.0
  0
CIRCLE
  5
3D2
102
{ACAD_REACTORS
330
3D1
102
}
330
3CF
100
AcDbEntity
  8
eps
 62
   254
100
AcDbCircle
 10
2.153274474768295
 20
-2.088877458424576
 30
0.0
 40
3.0
  0
CIRCLE
  5
3D3
102
{ACAD_REACTORS
330
3D1
102
}
330
3CF
100
AcDbEntity
  8
eps
 62
   254
100
AcDbCircle
 10
9.183380687944918
 20
-3.150707591624268
 30
0.0
 40
2.0
  0
CIRCLE
  5
3D4
102
{ACAD_REACTORS
330
3D1
102
}
330
3CF
100
AcDbEntity
  8
eps
 62
   254
100
AcDbCircle
 10
5.50424343474242
 20
-10.22395803436757
 30
0.0
 40
4.0
  0
CIRCLE
  5
3D5
102
{ACAD_REACTORS
330
3D1
102
}
330
3CF
100
AcDbEntity
  8
eps
 62
   254
100
AcDbCircle
 10
1.121692185625761
 20
-16.43286101922513
 30
0.0
 40
2.0
  0
CIRCLE
  5
3D6
330
3CF
100
AcDbEntity
  8
eps
 62
   254
100
AcDbCircle
 10
8.703972890144541
 20
-26.21122040256978
 30
0.0
 40
2.0
  0
CIRCLE
  5
3D7
102
{ACAD_REACTORS
330
3D1
102
}
330
3CF
100
AcDbEntity
  8
eps
 62
   254
100
AcDbCircle
 10
22.00715224641408
 20
-19.56290887698651
 30
0.0
 40
2.0
  0
CIRCLE
  5
3D8
102
{ACAD_REACTORS
330
3D1
102
}
330
3CF
100
AcDbEntity
  8
eps
 62
   254
100
AcDbCircle
 10
19.01098252133033
 20
-7.164015699477204
 30
0.0
 40
2.0
  0
CIRCLE
  5
3D9
102
{ACAD_REACTORS
330
3D1
102
}
330
3CF
100
AcDbEntity
  8
eps
 62
   254
100
AcDbCircle
 10
8.625021722852579
 20
-18.32128648862363
 30
0.0
 40
3.0
  0
CIRCLE
  5
3DA
330
3CF
100
AcDbEntity
  8
eps
 62
   254
100
AcDbCircle
 10
14.19781484395298
 20
-11.79242597922803
 30
0.0
 40
3.0
  0
CIRCLE
  5
3DB
102
{ACAD_REACTORS
330
3D1
102
}
330
3CF
100
AcDbEntity
  8
eps
 62
   254
100
AcDbCircle
 10
15.81562264413605
 20
-2.148910809607514
 30
0.0
 40
3.0
  0
CIRCLE
  5
3DC
102
{ACAD_REACTORS
330
3D1
102
}
330
3CF
100
AcDbEntity
  8
eps
 62
   254
100
AcDbCircle
 10
25.40377860212266
 20
-25.5089748094988
 30
0.0
 40
3.0
  0
CIRCLE
  5
3DD
102
{ACAD_REACTORS
330
3D1
102
}
330
3CF
100
AcDbEntity
  8
eps
 62
   254
100
AcDbCircle
 10
23.60587034827131
 20
-3.646358717532166
 30
0.0
 40
3.0
  0
CIRCLE
  5
3DE
102
{ACAD_REACTORS
330
3D1
102
}
330
3CF
100
AcDbEntity
  8
eps
 62
   254
100
AcDbCircle
 10
16.23028334799255
 20
-23.4014379273367
 30
0.0
 40
4.0
  0
CIRCLE
  5
3DF
102
{ACAD_REACTORS
330
3D1
102
}
330
3CF
100
AcDbEntity
  8
eps
 62
   254
100
AcDbCircle
 10
24.80413181950371
 20
-11.85245936021328
 30
0.0
 40
3.0
  0
CIRCLE
  5
3E0
102
{ACAD_REACTORS
330
3D1
102
}
330
3CF
100
AcDbEntity
  8
eps
 62
   254
100
AcDbCircle
 10
2.872128148083902
 20
-23.17290683493138
 30
0.0
 40
3.0
  0
ENDBLK
  5
3E1
330
3CF
100
AcDbEntity
  8
0
 62
     7
420
 16777215
100
AcDbBlockEnd
  0
BLOCK
  5
406
330
3FB
100
AcDbEntity
  8
0
 48
3.0
100
AcDbBlockBegin
  2
BASE FLASHING
 70
     0
 10
0.0
 20
0.0
 30
0.0
  3
BASE FLASHING
  1

  0
LINE
  5
407
330
3FB
100
AcDbEntity
  8
Specialized_Lines
  6
Continuous
100
AcDbLine
 10
7797.578786902071
 20
3997.530308442822
 30
0.0
 11
7747.578786902071
 21
3997.530308442822
 31
0.0
  0
HATCH
  5
408
330
3FB
100
AcDbEntity
  8
0
  6
Continuous
 62
    30
420
 16742400
 48
3.0
100
AcDbHatch
 10
0.0
 20
0.0
 30
0.0
210
0.0
220
0.0
230
1.0
  2
SOLID
 70
     1
 71
     0
 91
        1
 92
        7
 72
     0
 73
     1
 93
       18
 10
7811.864026827585
 20
4006.530308442822
 10
7798.778786902072
 20
4006.530308442822
 10
7798.778786902072
 20
4015.530308442822
 10
7797.578786902071
 20
4014.330308442821
 10
7797.578786902072
 20
3997.530308442822
 10
7722.227315039494
 20
3997.530308442822
 10
7722.227315039494
 20
4014.681780305398
 10
7721.378786902072
 20
4015.530308442822
 10
7721.378786902071
 20
3995.4817803054
 10
7722.227315039494
 20
3996.330308442823
 10
7725.681730627222
 20
3996.330308442822
 10
7722.227315039495
 20
3992.875892855096
 10
7721.378786902071
 20
3993.724420992517
 10
7721.378786902071
 20
3990.330308442823
 10
7727.378786902069
 20
3996.330308442823
 10
7798.778786902072
 20
3996.330308442824
 10
7798.778786902072
 20
4005.330308442823
 10
7811.864026827585
 20
4005.330308442823
 97
        0
 75
     1
 76
     1
 47
0.1028394275951878
 98
        1
 10
7800.95723889595
 20
4005.7841323297
450
        0
451
        0
460
0.0
461
0.0
452
        0
462
1.0
453
        2
463
0.0
 63
     5
421
      255
463
1.0
 63
     2
421
 16776960
470
LINEAR
1001
GradientColor1ACI
1070
     5
1001
GradientColor2ACI
1070
     2
1001
ACAD
1010
0.0
1020
0.0
1030
0.0
  0
LINE
  5
409
102
{ACAD_REACTORS
330
403
102
}
330
3FB
100
AcDbEntity
  8
Specialized_Fills
  6
Continuous
100
AcDbLine
 10
7727.378786902069
 20
3996.330308442824
 30
0.0
 11
7721.378786902072
 21
3990.330308442825
 31
0.0
  0
LINE
  5
40A
330
3FB
100
AcDbEntity
  8
Specialized_Fills
  6
Continuous
100
AcDbLine
 10
7721.378786902071
 20
3990.330308442823
 30
0.0
 11
7721.378786902071
 21
3993.724420992517
 31
0.0
  0
LINE
  5
40B
330
3FB
100
AcDbEntity
  8
Specialized_Fills
  6
Continuous
100
AcDbLine
 10
7721.378786902071
 20
3993.724420992517
 30
0.0
 11
7722.227315039495
 21
3992.875892855096
 31
0.0
  0
LINE
  5
40C
330
3FB
100
AcDbEntity
  8
Specialized_Fills
  6
Continuous
100
AcDbLine
 10
7722.227315039495
 20
3992.875892855096
 30
0.0
 11
7725.681730627222
 21
3996.330308442822
 31
0.0
  0
LINE
  5
40D
330
3FB
100
AcDbEntity
  8
Specialized_Fills
  6
Continuous
100
AcDbLine
 10
7725.681730627222
 20
3996.330308442822
 30
0.0
 11
7722.227315039494
 21
3996.330308442823
 31
0.0
  0
LINE
  5
40E
330
3FB
100
AcDbEntity
  8
Specialized_Fills
  6
Continuous
100
AcDbLine
 10
7722.227315039494
 20
3996.330308442823
 30
0.0
 11
7721.378786902071
 21
3995.4817803054
 31
0.0
  0
LINE
  5
40F
330
3FB
100
AcDbEntity
  8
Specialized_Fills
  6
Continuous
100
AcDbLine
 10
7721.378786902071
 20
3995.4817803054
 30
0.0
 11
7721.378786902072
 21
4015.530308442822
 31
0.0
  0
LINE
  5
410
102
{ACAD_REACTORS
330
402
102
}
330
3FB
100
AcDbEntity
  8
Specialized_Fills
  6
Continuous
100
AcDbLine
 10
7721.378786902072
 20
4015.530308442822
 30
0.0
 11
7722.227315039494
 21
4014.681780305398
 31
0.0
  0
LINE
  5
411
102
{ACAD_REACTORS
330
404
102
}
330
3FB
100
AcDbEntity
  8
Specialized_Fills
  6
Continuous
100
AcDbLine
 10
7722.227315039494
 20
4014.681780305398
 30
0.0
 11
7722.227315039494
 21
3997.530308442822
 31
0.0
  0
LINE
  5
412
102
{ACAD_REACTORS
330
400
102
}
330
3FB
100
AcDbEntity
  8
Specialized_Fills
  6
Continuous
100
AcDbLine
 10
7722.227315039494
 20
3997.530308442822
 30
0.0
 11
7797.578786902072
 21
3997.530308442822
 31
0.0
  0
LINE
  5
413
330
3FB
100
AcDbEntity
  8
Specialized_Fills
  6
Continuous
100
AcDbLine
 10
7797.578786902072
 20
3997.530308442822
 30
0.0
 11
7797.578786902071
 21
4014.330308442821
 31
0.0
  0
LINE
  5
414
330
3FB
100
AcDbEntity
  8
Specialized_Fills
  6
Continuous
100
AcDbLine
 10
7797.578786902071
 20
4014.330308442821
 30
0.0
 11
7798.778786902072
 21
4015.530308442822
 31
0.0
  0
LINE
  5
415
330
3FB
100
AcDbEntity
  8
Specialized_Fills
  6
Continuous
100
AcDbLine
 10
7798.778786902072
 20
4015.530308442822
 30
0.0
 11
7798.778786902072
 21
4006.530308442822
 31
0.0
  0
LINE
  5
416
330
3FB
100
AcDbEntity
  8
Specialized_Fills
  6
Continuous
100
AcDbLine
 10
7798.778786902072
 20
4006.530308442822
 30
0.0
 11
7811.864026827585
 21
4006.530308442822
 31
0.0
  0
LINE
  5
417
330
3FB
100
AcDbEntity
  8
Specialized_Fills
  6
Continuous
100
AcDbLine
 10
7811.864026827585
 20
4006.530308442822
 30
0.0
 11
7811.864026827585
 21
4005.330308442823
 31
0.0
  0
LINE
  5
418
330
3FB
100
AcDbEntity
  8
Specialized_Fills
  6
Continuous
100
AcDbLine
 10
7811.864026827585
 20
4005.330308442823
 30
0.0
 11
7798.778786902072
 21
4005.330308442823
 31
0.0
  0
LINE
  5
419
330
3FB
100
AcDbEntity
  8
Specialized_Fills
  6
Continuous
100
AcDbLine
 10
7798.778786902072
 20
4005.330308442823
 30
0.0
 11
7798.778786902072
 21
3996.330308442824
 31
0.0
  0
LINE
  5
41A
102
{ACAD_REACTORS
330
401
102
}
330
3FB
100
AcDbEntity
  8
Specialized_Fills
  6
Continuous
100
AcDbLine
 10
7798.778786902072
 20
3996.330308442824
 30
0.0
 11
7727.378786902069
 21
3996.330308442824
 31
0.0
  0
ENDBLK
  5
41B
330
3FB
100
AcDbEntity
  8
0
 48
3.0
100
AcDbBlockEnd
  0
ENDSEC
  0
SECTION
  2
ENTITIES
  0
HATCH
  5
1C7
330
1F
100
AcDbEntity
  8
Specialized_Fills
  6
Continuous
 62
   254
420
 14671839
370
    13
100
AcDbHatch
 10
0.0
 20
0.0
 30
0.0
210
0.0
220
0.0
230
1.0
  2
SOLID
 70
     1
 71
     1
 91
        1
 92
        1
 93
        4
 72
     1
 10
26288.71258697993
 20
-8657.733556019712
 11
26333.71258697994
 21
-8657.733556019712
 72
     1
 10
26333.71258697994
 20
-8657.733556019712
 11
26333.71258697994
 21
-8797.733556019673
 72
     1
 10
26333.71258697994
 20
-8797.733556019673
 11
26288.71258697993
 21
-8797.733556019673
 72
     1
 10
26288.71258697993
 20
-8797.733556019673
 11
26288.71258697993
 21
-8657.733556019712
 97
        1
330
1C8
 75
     0
 76
     1
 98
        0
450
        0
451
        0
460
0.0
461
0.0
452
        1
462
0.0
453
        0
470

  0
LWPOLYLINE
  5
1C8
102
{ACAD_REACTORS
330
1C7
102
}
330
1F
100
AcDbEntity
  8
Specialized_Fills
  6
Continuous
100
AcDbPolyline
 90
        4
 70
   129
 43
0.0
 10
26288.71258697993
 20
-8657.733556019712
 10
26333.71258697994
 20
-8657.733556019712
 10
26333.71258697994
 20
-8797.733556019673
 10
26288.71258697993
 20
-8797.733556019673
  0
HATCH
  5
1C9
330
1F
100
AcDbEntity
  8
Specialized_Fills
  6
Continuous
 62
   254
420
 14671839
370
    13
100
AcDbHatch
 10
0.0
 20
0.0
 30
0.0
210
0.0
220
0.0
230
1.0
  2
SOLID
 70
     1
 71
     1
 91
        1
 92
        1
 93
        4
 72
     1
 10
26243.71258697991
 20
-8657.733556019516
 11
26288.71258697993
 21
-8657.733556019516
 72
     1
 10
26288.71258697993
 20
-8657.733556019516
 11
26288.71258697993
 21
-8797.733556019673
 72
     1
 10
26288.71258697993
 20
-8797.733556019673
 11
26243.71258697991
 21
-8797.733556019673
 72
     1
 10
26243.71258697991
 20
-8797.733556019673
 11
26243.71258697991
 21
-8657.733556019516
 97
        1
330
1CA
 75
     0
 76
     1
 98
        0
450
        0
451
        0
460
0.0
461
0.0
452
        1
462
0.0
453
        0
470

  0
LWPOLYLINE
  5
1CA
102
{ACAD_REACTORS
330
1C9
102
}
330
1F
100
AcDbEntity
  8
Specialized_Fills
  6
Continuous
100
AcDbPolyline
 90
        4
 70
   129
 43
0.0
 10
26243.71258697991
 20
-8657.733556019516
 10
26288.71258697993
 20
-8657.733556019516
 10
26288.71258697993
 20
-8797.733556019673
 10
26243.71258697991
 20
-8797.733556019673
  0
HATCH
  5
1CB
330
1F
100
AcDbEntity
  8
Specialized_Fills
  6
Continuous
100
AcDbHatch
 10
0.0
 20
0.0
 30
0.0
210
0.0
220
0.0
230
1.0
  2
LINES___ANGLED
 70
     0
 71
     1
 91
        1
 92
        1
 93
        4
 72
     1
 10
26240.8251611608
 20
-8765.93408582701
 11
26221.82516116079
 21
-8765.93408582701
 72
     1
 10
26221.82516116079
 20
-8765.93408582701
 11
26221.82516116079
 21
-8715.934085827013
 72
     1
 10
26221.82516116079
 20
-8715.934085827013
 11
26240.8251611608
 21
-8715.934085827013
 72
     1
 10
26240.8251611608
 20
-8715.934085827013
 11
26240.8251611608
 21
-8765.93408582701
 97
        1
330
1CC
 75
     0
 76
     2
 52
0.0
 41
1.0
 77
     0
 78
     1
 53
44.99999999999999
 43
15.0
 44
0.0
 45
-1.838477563650065
 46
1.838477563650065
 79
     0
 98
        0
  0
LWPOLYLINE
  5
1CC
102
{ACAD_REACTORS
330
1CB
102
}
330
1F
100
AcDbEntity
  8
Specialized_Fills
  6
Continuous
100
AcDbPolyline
 90
        4
 70
   129
 43
0.0
 10
26240.8251611608
 20
-8765.93408582701
 10
26221.82516116079
 20
-8765.93408582701
 10
26221.82516116079
 20
-8715.934085827013
 10
26240.8251611608
 20
-8715.934085827013
  0
HATCH
  5
1CD
330
1F
100
AcDbEntity
  8
Specialized_Fills
  6
Continuous
100
AcDbHatch
 10
0.0
 20
0.0
 30
0.0
210
0.0
220
0.0
230
1.0
  2
LINES___ANGLED
 70
     0
 71
     0
 91
        1
 92
        2
 72
     0
 73
     1
 93
        4
 10
26243.71258697995
 20
-8806.688179508981
 10
26344.71258697995
 20
-8806.688179508981
 10
26344.71258697995
 20
-8799.188179508981
 10
26243.71258697995
 20
-8799.188179508981
 97
        0
 75
     0
 76
     2
 52
0.0
 41
1.0
 77
     0
 78
     1
 53
270.0
 43
26206.85673716311
 44
-8806.916081099087
 45
2.599999904632567
 46
0.0
 79
     0
 98
        0
  0
HATCH
  5
1CE
330
1F
100
AcDbEntity
  8
Specialized_Fills
  6
Continuous
 62
   254
420
 14671839
370
    13
100
AcDbHatch
 10
0.0
 20
0.0
 30
0.0
210
0.0
220
0.0
230
1.0
  2
SOLID
 70
     1
 71
     1
 91
        1
 92
        1
 93
        4
 72
     1
 10
26344.71258697995
 20
-8797.733556019483
 11
26344.71258697995
 21
-8574.859726353022
 72
     1
 10
26344.71258697995
 20
-8574.859726353022
 11
26334.71258697991
 21
-8574.859726353022
 72
     1
 10
26334.71258697991
 20
-8574.859726353022
 11
26334.71258697991
 21
-8797.733556019483
 72
     1
 10
26334.71258697991
 20
-8797.733556019483
 11
26344.71258697995
 21
-8797.733556019483
 97
        1
330
1CF
 75
     0
 76
     1
 98
        0
450
        0
451
        0
460
0.0
461
0.0
452
        1
462
0.0
453
        0
470

  0
LWPOLYLINE
  5
1CF
102
{ACAD_REACTORS
330
1CE
102
}
330
1F
100
AcDbEntity
  8
Specialized_Fills
  6
Continuous
100
AcDbPolyline
 90
        4
 70
   129
 43
0.0
 10
26344.71258697995
 20
-8797.733556019483
 10
26344.71258697995
 20
-8574.859726353022
 10
26334.71258697991
 20
-8574.859726353022
 10
26334.71258697991
 20
-8797.733556019483
  0
LINE
  5
1D0
330
1F
100
AcDbEntity
  8
Specialized_Lines
  6
Continuous
100
AcDbLine
 10
26288.71258697991
 20
-8797.733556019483
 30
0.0
 11
26243.71258697991
 21
-8659.34805023898
 31
0.0
  0
LINE
  5
1D2
330
1F
100
AcDbEntity
  8
Specialized_Lines
  6
Continuous
100
AcDbLine
 10
26288.71258697991
 20
-8797.733556019483
 30
0.0
 11
26333.71258697993
 21
-8657.733556019516
 31
0.0
  0
LINE
  5
1D5
330
1F
100
AcDbEntity
  8
Specialized_Lines
  6
PLASTER
 48
3.0
100
AcDbLine
 10
26343.28339195379
 20
-8811.645169324075
 30
0.0
 11
26243.00641946762
 21
-8811.645169324075
 31
0.0
  0
LINE
  5
1D6
330
1F
100
AcDbEntity
  8
Specialized_Lines
  6
Continuous
100
AcDbLine
 10
26243.7125869799
 20
-8797.733556019483
 30
0.0
 11
26288.71258697991
 21
-8657.733556019516
 31
0.0
  0
LINE
  5
1DA
330
1F
100
AcDbEntity
  8
Specialized_Lines
  6
Continuous
100
AcDbLine
 10
26333.71258697993
 20
-8797.733556019483
 30
0.0
 11
26288.71258697991
 21
-8657.733556019516
 31
0.0
  0
LINE
  5
1DC
330
1F
100
AcDbEntity
  8
Specialized_Text
  6
Continuous
100
AcDbLine
 10
26333.71258697993
 20
-8657.733556019516
 30
0.0
 11
26243.7125869799
 21
-8657.733556019516
 31
0.0
  0
INSERT
  5
1E6
102
{ACAD_REACTORS
330
315
102
}
330
1F
100
AcDbEntity
  8
Specialized_Lines
  6
Continuous
 62
   251
420
  6250335
370
    13
100
AcDbBlockReference
  2
Line_1
 10
26264.912871425
 20
-8821.335766249299
 30
0.0
  0
LINE
  5
1E7
330
1F
100
AcDbEntity
  8
Specialized_Lines
  6
Continuous
100
AcDbLine
 10
26334.71258697991
 20
-8574.859726353022
 30
0.0
 11
26334.71258697991
 21
-8797.733556019483
 31
0.0
  0
LINE
  5
1E8
330
1F
100
AcDbEntity
  8
Specialized_Lines
  6
Continuous
100
AcDbLine
 10
26344.71258697995
 20
-8799.188179508981
 30
0.0
 11
26344.71258697995
 21
-8806.688179508981
 31
0.0
  0
LINE
  5
1E9
330
1F
100
AcDbEntity
  8
Specialized_Lines
  6
Continuous
100
AcDbLine
 10
26243.71258697995
 20
-8799.188179508981
 30
0.0
 11
26243.71258697995
 21
-8806.688179508981
 31
0.0
  0
LINE
  5
1EA
330
1F
100
AcDbEntity
  8
Specialized_Text
  6
Continuous
100
AcDbLine
 10
26344.71258697995
 20
-8799.188179508981
 30
0.0
 11
26243.71258697995
 21
-8799.188179508981
 31
0.0
  0
LINE
  5
1EB
330
1F
100
AcDbEntity
  8
Specialized_Text
  6
Continuous
100
AcDbLine
 10
26344.71258697995
 20
-8806.688179508981
 30
0.0
 11
26243.71258697995
 21
-8806.688179508981
 31
0.0
  0
LINE
  5
1EE
330
1F
100
AcDbEntity
  8
Specialized_Lines
  6
DASHEDX2
100
AcDbLine
 10
26342.30459991236
 20
-8809.57033301629
 30
0.0
 11
26244.83010523583
 21
-8809.57033301629
 31
0.0
  0
LINE
  5
1F0
330
1F
100
AcDbEntity
  8
Specialized_Lines
  6
Continuous
100
AcDbLine
 10
26344.71258697995
 20
-8797.733556019483
 30
0.0
 11
26334.71258697991
 21
-8797.733556019483
 31
0.0
  0
LINE
  5
1F1
330
1F
100
AcDbEntity
  8
Specialized_Lines
  6
Continuous
100
AcDbLine
 10
26344.71258697995
 20
-8574.859726353022
 30
0.0
 11
26344.71258697995
 21
-8797.733556019483
 31
0.0
  0
LINE
  5
1F2
330
1F
100
AcDbEntity
  8
Specialized_Lines
  6
Continuous
100
AcDbLine
 10
26243.7125869799
 20
-8574.859726353022
 30
0.0
 11
26243.71258697995
 21
-8797.733556019483
 31
0.0
  0
LINE
  5
1F3
330
1F
100
AcDbEntity
  8
Specialized_Lines
  6
Continuous
100
AcDbLine
 10
26333.71258697993
 20
-8574.859726353022
 30
0.0
 11
26333.71258697993
 21
-8797.733556019483
 31
0.0
  0
LINE
  5
1F4
102
{ACAD_REACTORS
330
316
102
}
330
1F
100
AcDbEntity
  8
Specialized_Lines
  6
Continuous
 62
   251
420
  6250335
370
    13
100
AcDbLine
 10
26342.30703950677
 20
-8821.356458499471
 30
0.0
 11
26264.912871425
 21
-8821.335766249299
 31
0.0
  0
LWPOLYLINE
  5
1F5
102
{ACAD_REACTORS
330
5BC
102
}
330
1F
100
AcDbEntity
  8
Specialized_Lines
  6
Continuous
100
AcDbPolyline
 90
        5
 70
   128
 43
0.0
 10
26220.32700685301
 20
-8592.099564086792
 10
26220.32700685301
 20
-8807.485007057843
 10
26213.32700685301
 20
-8807.485007057843
 10
26145.12700685301
 20
-8807.485007057843
 91
        3
 10
26145.12700685301
 20
-8574.859726353022
 91
        4
  0
LWPOLYLINE
  5
1F6
330
1F
100
AcDbEntity
  8
Specialized_Lines
  6
DASHEDX2
100
AcDbPolyline
 90
        2
 70
   128
 43
0.0
 10
26142.3628151276
 20
-8574.859726353022
 10
26142.08618518892
 20
-8826.380384356429
  0
LWPOLYLINE
  5
1F7
330
1F
100
AcDbEntity
  8
Specialized_Lines
  6
Continuous
100
AcDbPolyline
 90
        3
 70
   128
 43
0.0
 10
26333.71258697993
 20
-8574.859726353022
 10
26333.71258697993
 20
-8797.733556019483
 10
26288.71258697991
 20
-8797.733556019483
  0
LWPOLYLINE
  5
1F8
330
1F
100
AcDbEntity
  8
Specialized_Lines
  6
Continuous
100
AcDbPolyline
 90
        2
 70
   128
 43
0.0
 10
26243.7125869799
 20
-8797.733556019483
 10
26243.7125869799
 20
-8574.859726353022
  0
LWPOLYLINE
  5
1F9
102
{ACAD_REACTORS
330
4E0
102
}
330
1F
100
AcDbEntity
  8
Specialized_Lines
  6
DASHEDX2
100
AcDbPolyline
 90
        3
 70
   128
 43
0.0
 10
26242.84135467521
 20
-8774.579494700473
 10
26241.07290318832
 20
-8786.969262285595
 91
       24
 10
26241.07290318832
 20
-8801.136901823319
 91
       25
  0
LWPOLYLINE
  5
1FA
330
1F
100
AcDbEntity
  8
Specialized_Lines
  6
DASHEDX2
100
AcDbPolyline
 90
        2
 70
   128
 43
0.0
 10
26242.84135467521
 20
-8774.579494700459
 10
26242.84135467521
 20
-8574.859726353022
  0
LWPOLYLINE
  5
1FC
102
{ACAD_REACTORS
330
430
102
}
330
1F
100
AcDbEntity
  8
0
  6
Continuous
100
AcDbPolyline
 90
        6
 70
   128
 43
0.0
 10
26356.39278359081
 20
-8574.859726353022
 10
26282.6185714525
 20
-8574.859726353022
 10
26280.6185714525
 20
-8569.364771514113
 10
26276.6185714525
 20
-8580.354681191931
 10
26274.6185714525
 20
-8574.859726353022
 91
        9
 10
26132.32493585719
 20
-8574.859726353022
 91
       10
  0
ARC
  5
1FD
102
{ACAD_REACTORS
330
4DF
102
}
330
1F
100
AcDbEntity
  8
Specialized_Lines
  6
Continuous
100
AcDbCircle
 10
26236.8226257719
 20
-8802.489281964808
 30
0.0
 40
4.460245527278834
100
AcDbArc
 50
5.595573947106897
 51
80.91356527778334
  0
MTEXT
  5
1FF
102
{ACAD_REACTORS
330
200
102
}
330
1F
100
AcDbEntity
  8
Specialized_Text
  6
Continuous
100
AcDbMText
 10
26368.14431260378
 20
-8821.355756894005
 30
0.0
 40
5.5
 41
130.2040486899456
 46
16.29255828141499
 71
     4
 72
     1
  1
{20mm x 20mm PVC corner bead meshed into place}
  7
GENERATED_STYLE_1
 73
     1
 44
1.0
  0
LEADER
  5
200
330
1F
100
AcDbEntity
  8
Specialized_Text
  6
Continuous
 62
   251
420
  6250335
370
    13
100
AcDbLeader
  3
GENERATED_STYLE__1
 73
     0
 40
16.29115507048658
 41
111.1030013642565
 76
     3
 10
26329.64476358712
 20
-8807.95201435799
 30
0.0
 10
26342.30703950677
 20
-8821.356458499471
 30
0.0
 10
26368.05431260378
 20
-8821.355756894005
 30
0.0
340
1FF
  0
MTEXT
  5
207
102
{ACAD_REACTORS
330
208
102
}
330
1F
100
AcDbEntity
  8
Specialized_Text
  6
Continuous
100
AcDbMText
 10
26368.15153414459
 20
-8683.175572933727
 30
0.0
 40
5.5
 41
132.5628841550603
 46
16.37104420616348
 71
     4
 72
     1
  1
{mesh reinforcing and selected plaster finish}
  7
GENERATED_STYLE_1
 73
     1
 44
1.0
  0
LEADER
  5
208
330
1F
100
AcDbEntity
  8
Specialized_Text
  6
Continuous
 62
   251
420
  6250335
370
    13
100
AcDbLeader
  3
GENERATED_STYLE__1
 73
     0
 40
14.94804456571169
 41
127.3028649386084
 76
     2
 10
26142.88100602707
 20
-8682.426452963229
 30
0.0
 10
26368.06153414459
 20
-8683.175572933727
 30
0.0
340
207
  0
MTEXT
  5
209
102
{ACAD_REACTORS
330
20A
102
}
330
1F
100
AcDbEntity
  8
Specialized_Text
  6
Continuous
100
AcDbMText
 10
26368.15153414459
 20
-8624.287889123236
 30
0.0
 40
5.5
 41
131.1960055627893
 46
34.68212422861055
 71
     4
 72
     1
  1
{breather type building wrap as installed by builder continued into opening with flashing tape at corners}
  7
GENERATED_STYLE_1
 73
     1
 44
1.0
  0
LEADER
  5
20A
330
1F
100
AcDbEntity
  8
Specialized_Text
  6
Continuous
 62
   251
420
  6250335
370
    13
100
AcDbLeader
  3
GENERATED_STYLE__1
 73
     0
 40
25.54035925420646
 41
124.5791268758526
 76
     2
 10
26242.84135467521
 20
-8623.468535351412
 30
0.0
 10
26368.06153414459
 20
-8624.287889123236
 30
0.0
340
209
  0
MTEXT
  5
20B
102
{ACAD_REACTORS
330
20C
102
}
330
1F
100
AcDbEntity
  8
Specialized_Text
  6
Continuous
100
AcDbMText
 10
26368.15153414459
 20
-8802.866148499722
 30
0.0
 40
5.5
 41
93.54561784873993
 46
0.0
 71
     4
 72
     1
  1
{7.5mm fibre cement}
  7
GENERATED_STYLE_1
 73
     1
 44
1.0
  0
LEADER
  5
20C
330
1F
100
AcDbEntity
  8
Specialized_Text
  6
Continuous
 62
   251
420
  6250335
370
    13
100
AcDbLeader
  3
GENERATED_STYLE__1
 73
     0
 40
5.687585266030014
 41
67.4594133697135
 76
     2
 10
26341.35862041684
 20
-8802.652020278564
 30
0.0
 10
26368.06153414459
 20
-8802.866148499722
 30
0.0
340
20B
  0
MTEXT
  5
20D
102
{ACAD_REACTORS
330
20E
102
}
330
1F
100
AcDbEntity
  8
Specialized_Text
  6
Continuous
100
AcDbMText
 10
26368.15153414459
 20
-8584.559693480597
 30
0.0
 40
5.5
 41
93.54561784873993
 46
0.0
 71
     4
 72
     1
  1
{20mm cavity}
  7
GENERATED_STYLE_1
 73
     1
 44
1.0
  0
LEADER
  5
20E
330
1F
100
AcDbEntity
  8
Specialized_Text
  6
Continuous
 62
   251
420
  6250335
370
    13
100
AcDbLeader
  3
GENERATED_STYLE__1
 73
     0
 40
7.139495225102319
 41
42.82571623465211
 76
     2
 10
26225.47704812532
 20
-8583.762374080951
 30
0.0
 10
26368.06153414459
 20
-8584.559693480597
 30
0.0
340
20D
  0
MTEXT
  5
20F
102
{ACAD_REACTORS
330
210
102
}
330
1F
100
AcDbEntity
  8
Specialized_Text
  6
Continuous
100
AcDbMText
 10
26368.15153414459
 20
-8773.611219810907
 30
0.0
 40
5.5
 41
146.6284491057519
 46
14.88935662026401
 71
     4
 72
     1
  1
THERMASHELL proprietary PVC base bead
  7
GENERATED_STYLE_1
 73
     1
 44
1.0
  0
LEADER
  5
210
330
1F
100
AcDbEntity
  8
Specialized_Text
  6
Continuous
 62
   251
420
  6250335
370
    13
100
AcDbLeader
  3
GENERATED_STYLE__1
 73
     0
 40
14.85425193269668
 41
131.906207366985
 76
     3
 10
26221.52700685308
 20
-8789.485007057843
 30
0.0
 10
26246.185580298
 20
-8773.581875838186
 30
0.0
 10
26368.06153414459
 20
-8773.611219810907
 30
0.0
340
20F
  0
MTEXT
  5
211
102
{ACAD_REACTORS
330
212
102
}
330
1F
100
AcDbEntity
  8
Specialized_Text
  6
Continuous
100
AcDbMText
 10
26368.15153414459
 20
-8597.143358100835
 30
0.0
 40
5.5
 41
93.54561784873993
 46
0.0
 71
     4
 72
     1
  1
{10mm plasterboard}
  7
GENERATED_STYLE_1
 73
     1
 44
1.0
  0
LEADER
  5
212
330
1F
100
AcDbEntity
  8
Specialized_Text
  6
Continuous
 62
   251
420
  6250335
370
    13
100
AcDbLeader
  3
GENERATED_STYLE__1
 73
     0
 40
7.056957708049113
 41
64.80320600272851
 76
     2
 10
26342.31426104759
 20
-8596.376369593976
 30
0.0
 10
26368.06153414459
 20
-8597.143358100835
 30
0.0
340
211
  0
MTEXT
  5
215
102
{ACAD_REACTORS
330
216
102
}
330
1F
100
AcDbEntity
  8
Specialized_Text
  6
Continuous
100
AcDbMText
 10
26368.15153414459
 20
-8725.66322852553
 30
0.0
 40
5.5
 41
133.0166606059765
 46
62.40226723684518
 71
     4
 72
     1
  1
{discontinuous horizontal 45mm x 20mm ventilated EPS battens on 15° slope and no longer than 100mm as required for fixing}
  7
GENERATED_STYLE_1
 73
     1
 44
1.0
  0
LEADER
  5
216
330
1F
100
AcDbEntity
  8
Specialized_Text
  6
Continuous
 62
   251
420
  6250335
370
    13
100
AcDbLeader
  3
GENERATED_STYLE__1
 73
     0
 40
34.82708049113234
 41
124.9205320600273
 76
     2
 10
26231.67841274162
 20
-8724.880776239366
 30
0.0
 10
26368.06153414459
 20
-8725.66322852553
 30
0.0
340
215
  0
MTEXT
  5
217
102
{ACAD_REACTORS
330
218
102
}
330
1F
100
AcDbEntity
  8
Specialized_Text
  6
Continuous
100
AcDbMText
 10
26368.15153414459
 20
-8652.671833270899
 30
0.0
 40
5.5
 41
147.7654614518889
 46
34.73938410253043
 71
     4
 72
     1
  1
{\C30;\c30975;75mm Neopor® EPS}
  7
GENERATED_STYLE_1
 73
     1
 44
1.0
  0
LEADER
  5
218
330
1F
100
AcDbEntity
  8
Specialized_Text
  6
Continuous
 62
   251
420
  6250335
370
    13
100
AcDbLeader
  3
GENERATED_STYLE__1
 73
     0
 40
7.124488403819918
 41
71.08731241473397
 76
     2
 10
26186.30564250194
 20
-8651.927085613294
 30
0.0
 10
26368.06153414459
 20
-8652.671833270899
 30
0.0
340
217
  0
LINE
  5
286
330
1F
100
AcDbEntity
  8
Viewport
 62
     7
420
 16777215
370
     5
100
AcDbLine
 10
26502.48336618671
 20
-8415.58738159545
 30
0.0
 11
26502.48336618671
 21
-8955.636997234249
 31
0.0
  0
LINE
  5
287
330
1F
100
AcDbEntity
  8
Viewport
 62
     7
420
 16777215
370
     5
100
AcDbLine
 10
26502.48336618671
 20
-8955.636997234249
 30
0.0
 11
26129.34163910072
 21
-8955.636997234249
 31
0.0
  0
MTEXT
  5
28A
330
1F
100
AcDbEntity
  8
Specialized_Lines
 62
    30
420
 16742400
100
AcDbMText
 10
26207.6380038912
 20
-8914.304130522536
 30
0.0
 40
7.0
 41
63.23088711380842
 46
0.0
 71
     1
 72
     5
  1
THERMASHELL
  7
GENERATED_STYLE_2
 73
     1
 44
1.0
101
Embedded Object
 70
     1
 10
1.0
 20
0.0
 30
0.0
 11
26207.6380038912
 21
-8914.304130522536
 31
0.0
 40
63.23088711380842
 41
0.0
 42
71.73328785811732
 43
7.238744884038199
 71
     2
 72
     1
 44
63.23088711380842
 45
12.5
 73
     0
 74
     0
 46
0.0
  0
LINE
  5
28B
102
{ACAD_REACTORS
330
3FA
102
}
330
1F
100
AcDbEntity
  8
Viewport
 62
     7
420
 16777215
370
     5
100
AcDbLine
 10
26129.34163910072
 20
-8955.636997234249
 30
0.0
 11
26129.34163910072
 21
-8415.58738159545
 31
0.0
  0
LINE
  5
28C
102
{ACAD_REACTORS
330
3F9
102
}
330
1F
100
AcDbEntity
  8
Viewport
 62
     7
420
 16777215
370
     5
100
AcDbLine
 10
26502.48336618671
 20
-8415.58738159545
 30
0.0
 11
26129.34163910072
 21
-8415.58738159545
 31
0.0
  0
MTEXT
  5
28D
330
1F
100
AcDbEntity
  8
Specialized_Lines
100
AcDbMText
 10
26206.17103890565
 20
-8898.708843543365
 30
0.0
 40
10.0
 41
262.9131988985355
 46
0.0
 71
     1
 72
     5
  1
{\fArial|b1|i0|c0|p34;Garage Door Head: PLASTERED HEAD}
 73
     1
 44
1.0
101
Embedded Object
 70
     1
 10
1.0
 20
0.0
 30
0.0
 11
26206.17103890565
 21
-8898.708843543365
 31
0.0
 40
262.9131988985355
 41
0.0
 42
257.8990450204639
 43
13.11050477489768
 71
     2
 72
     1
 44
262.9131988985355
 45
12.5
 73
     0
 74
     0
 46
0.0
  0
MTEXT
  5
28E
330
1F
100
AcDbEntity
  8
Specialized_Lines
 62
    30
420
 16742400
100
AcDbMText
 10
26177.38618342428
 20
-8918.251815063021
 30
0.0
 40
4.0
 41
34.37092666967328
 46
0.0
 71
     5
 72
     5
  1
SCALE: 1:2
  7
GENERATED_STYLE_2
 73
     1
 44
1.0
101
Embedded Object
 70
     5
 10
1.0
 20
0.0
 30
0.0
 11
26177.38618342428
 21
-8918.251815063021
 31
0.0
 40
34.37092666967328
 41
0.0
 42
28.66030013642565
 43
4.136425648021827
 71
     2
 72
     1
 44
34.37092666967328
 45
12.5
 73
     0
 74
     0
 46
0.0
  0
HATCH
  5
28F
330
1F
100
AcDbEntity
  8
0
 62
    30
420
 16742400
370
     5
100
AcDbHatch
 10
0.0
 20
0.0
 30
0.0
210
0.0
220
0.0
230
1.0
  2
SOLID
 70
     1
 71
     0
 91
        1
 92
        1
 93
        4
 72
     1
 10
26200.5401688058
 20
-8913.228855562628
 11
26200.5401688058
 21
-8893.228855562631
 72
     1
 10
26200.5401688058
 20
-8893.228855562631
 11
26155.5401688058
 21
-8893.228855562631
 72
     1
 10
26155.5401688058
 20
-8893.228855562631
 11
26155.5401688058
 21
-8913.228855562628
 72
     1
 10
26155.5401688058
 20
-8913.228855562628
 11
26200.5401688058
 21
-8913.228855562628
 97
        0
 75
     1
 76
     1
 98
        1
 10
26185.95534199533
 20
-8907.095175059506
450
        0
451
        0
460
0.0
461
0.0
452
        0
462
1.0
453
        2
463
0.0
 63
     5
421
      255
463
1.0
 63
     2
421
 16776960
470
LINEAR
1001
GradientColor1ACI
1070
     5
1001
GradientColor2ACI
1070
     2
1001
ACAD
1010
0.0
1020
0.0
1030
0.0
  0
LWPOLYLINE
  5
290
330
1F
100
AcDbEntity
  8
0
370
     5
100
AcDbPolyline
 90
        5
 70
     0
 43
0.0
 10
26155.5401688058
 20
-8893.228855562631
 10
26155.5401688058
 20
-8913.228855562628
 10
26200.5401688058
 20
-8913.228855562628
 10
26200.5401688058
 20
-8893.228855562631
 10
26155.5401688058
 20
-8893.228855562631
  0
MTEXT
  5
291
330
1F
100
AcDbEntity
  8
Specialized_Lines
100
AcDbMText
 10
26178.24498389468
 20
-8903.423700209017
 30
0.0
 40
10.0
 41
90.34063603881987
 46
0.0
 71
     5
 72
     5
  1
{\fArial|b1|i0|c0|p34;22D}
 73
     1
 44
1.0
101
Embedded Object
 70
     5
 10
1.0
 20
0.0
 30
0.0
 11
26178.24498389468
 21
-8903.423700209017
 31
0.0
 40
90.34063603881987
 41
0.0
 42
24.58390177353342
 43
10.04092769440655
 71
     2
 72
     1
 44
90.34063603881987
 45
12.5
 73
     0
 74
     0
 46
0.0
  0
LWPOLYLINE
  5
292
330
1F
100
AcDbEntity
  8
0
370
     5
100
AcDbPolyline
 90
        4
 70
     0
 43
0.0
 10
26155.5401688058
 20
-8913.228855562628
 10
26155.5401688058
 20
-8923.22885556263
 10
26200.5401688058
 20
-8923.22885556263
 10
26200.5401688058
 20
-8913.228855562628
  0
HATCH
  5
392
330
1F
100
AcDbEntity
  8
0
 62
    30
420
 16742400
100
AcDbHatch
 10
0.0
 20
0.0
 30
0.0
210
0.0
220
0.0
230
1.0
  2
SOLID
 70
     1
 71
     1
 91
        1
 92
        7
 72
     0
 73
     1
 93
        4
 10
26155.46124576564
 20
-8937.050456741882
 10
26155.46124576564
 20
-8942.050456741881
 10
26160.46124576564
 20
-8942.050456741881
 10
26160.46124576564
 20
-8937.050456741882
 97
        1
330
393
 75
     1
 76
     1
 47
0.0321901215665183
 98
        1
 10
26157.25069389434
 20
-8938.473437332126
450
        0
451
        0
460
0.0
461
0.0
452
        0
462
1.0
453
        2
463
0.0
 63
     5
421
      255
463
1.0
 63
     2
421
 16776960
470
LINEAR
1001
GradientColor1ACI
1070
     5
1001
GradientColor2ACI
1070
     2
1001
ACAD
1010
0.0
1020
0.0
1030
0.0
  0
LWPOLYLINE
  5
393
102
{ACAD_REACTORS
330
392
102
}
330
1F
100
AcDbEntity
  8
0
 62
    30
420
 16742400
100
AcDbPolyline
 90
        4
 70
     1
 43
0.0
 10
26155.46124576564
 20
-8937.050456741882
 10
26160.46124576564
 20
-8937.050456741882
 10
26160.46124576564
 20
-8942.050456741881
 10
26155.46124576564
 20
-8942.050456741881
  0
LINE
  5
394
330
1F
100
AcDbEntity
  8
0
 62
    30
420
 16742400
100
AcDbLine
 10
26155.46124576564
 20
-8937.050456741882
 30
0.0
 11
26160.46124576564
 21
-8937.050456741882
 31
0.0
  0
LWPOLYLINE
  5
395
330
1F
100
AcDbEntity
  8
0
370
     5
100
AcDbPolyline
 90
        2
 70
     0
 43
0.0
 10
26160.46124576564
 20
-8939.550456741882
 10
26481.61530368932
 20
-8939.550456741882
  0
MTEXT
  5
396
330
1F
100
AcDbEntity
  8
Specialized_Text
  6
Continuous
100
AcDbMText
 10
26164.02492508078
 20
-8937.023989708288
 30
0.0
 40
3.0
 41
163.0041735515597
 46
0.0
 71
     4
 72
     1
  1
© copyright 2013 Specialized Construction Products Ltd
  7
GENERATED_STYLE_2
 73
     1
 44
1.0
  0
MTEXT
  5
397
330
1F
100
AcDbEntity
  8
Specialized_Text
  6
Continuous
100
AcDbMText
 10
26341.92592575446
 20
-8937.023989708288
 30
0.0
 40
3.0
 41
163.0041735515597
 46
0.0
 71
     4
 72
     1
  1
All Dimensions to be site checked before construction & installation
  7
GENERATED_STYLE_2
 73
     1
 44
1.0
  0
MTEXT
  5
398
330
1F
100
AcDbEntity
  8
Specialized_Text
  6
Continuous
 62
    30
420
 16742400
370
    20
100
AcDbMText
 10
26380.48129954367
 20
-8950.1478935284
 30
0.0
 40
5.5
 41
111.9228601720179
 46
0.0
 71
     7
 72
     1
  1
{\fArial Unicode MS|b1|i0|c0|p34;web \fArial Unicode MS|b0|i0|c0|p34;\C256;www.specialized.co.nz}
  7
GENERATED_STYLE_2
 73
     1
 44
1.12662050634974
  0
IMAGE
  5
39C
102
{ACAD_XDICTIONARY
360
6C4
102
}
330
1F
100
AcDbEntity
  8
0
 62
     7
420
 16777215
160
               140
310
8C0000000100000084000000060000000500000096B2080637C6D940042E74B8B284C0C0000000000000000096B2080637C6D94043E2DAC61B71C0C00000000000000000F8BA78EF9EE1D94043E2DAC61B71C0C00000000000000000F8BA78EF9EE1D940042E74B8B284C0C0000000000000000096B2080637C6D940042E74
310
B8B284C0C00000000000000000
100
AcDbRasterImage
 90
        0
 10
26392.85974328461
 20
-8457.396254084081
 30
0.0
 11
0.0434841820317712
 21
0.0
 31
0.0
 12
0.0
 22
0.0434841820317712
 32
0.0
 13
2521.0
 23
901.0
340
376
 70
     7
280
     0
281
    50
282
    50
283
     0
290
     0
360
39D
 71
     1
 91
        2
 14
-0.5
 24
-0.5
 14
2520.5
 24
900.5
  0
LWPOLYLINE
  5
39E
330
1F
100
AcDbEntity
  8
Specialized_Lines
  6
PLASTER
 48
3.0
100
AcDbPolyline
 90
        4
 70
     0
 43
0.0
 10
26141.62700685317
 20
-8828.885007057845
 10
26140.77337557293
 20
-8828.562614628985
 10
26139.90009542259
 20
-8827.779906398399
 10
26139.8425728044
 20
-8574.859726353022
  0
HATCH
  5
3AB
330
1F
100
AcDbEntity
  8
Specialized_Fills
  6
Continuous
 62
    30
420
 16742400
370
    20
100
AcDbHatch
 10
0.0
 20
0.0
 30
0.0
210
0.0
220
0.0
230
1.0
  2
SOLID
 70
     1
 71
     1
 91
        1
 92
        1
 93
        7
 72
     2
 10
26346.39342514553
 20
-8788.685007057848
 40
0.6500000000014552
 50
180.0
 51
360.0
 73
     0
 72
     1
 10
26347.04342514553
 20
-8788.685007057848
 11
26347.04342514553
 21
-8808.135007057847
 72
     2
 10
26346.49342514553
 20
-8808.135007057845
 40
0.5499999999992724
 50
0.0000000003789695
 51
90.00000000037898
 73
     0
 72
     1
 10
26346.49342514552
 20
-8808.685007057844
 11
26327.04342514553
 21
-8808.685007057844
 72
     2
 10
26327.04342514553
 20
-8808.035007057844
 40
0.6499999999996362
 50
90.0
 51
270.0
 73
     0
 72
     1
 10
26327.04342514553
 20
-8807.385007057844
 11
26345.74342514553
 21
-8807.385007057844
 72
     1
 10
26345.74342514553
 20
-8807.385007057844
 11
26345.74342514553
 21
-8788.685007057848
 97
        1
330
3AC
 75
     0
 76
     1
 98
        0
450
        0
451
        0
460
0.0
461
0.0
452
        1
462
0.0
453
        0
470

  0
LWPOLYLINE
  5
3AC
102
{ACAD_REACTORS
330
3AB
102
}
330
1F
100
AcDbEntity
  8
Specialized_Fills
  6
Continuous
100
AcDbPolyline
 90
        7
 70
   129
 43
0.0
 10
26345.74342514553
 20
-8788.685007057848
 42
-0.9999999999999998
 10
26347.04342514553
 20
-8788.685007057848
 10
26347.04342514553
 20
-8808.135007057847
 42
-0.414213562373566
 10
26346.49342514552
 20
-8808.685007057844
 10
26327.04342514553
 20
-8808.685007057844
 42
-0.9999999999999998
 10
26327.04342514553
 20
-8807.385007057844
 10
26345.74342514553
 20
-8807.385007057844
  0
HATCH
  5
3AD
330
1F
100
AcDbEntity
  8
Specialized_Fills
  6
Continuous
 62
    30
420
 16742400
370
    20
100
AcDbHatch
 10
0.0
 20
0.0
 30
0.0
210
0.0
220
0.0
230
1.0
  2
SOLID
 70
     1
 71
     1
 91
        1
 92
        1
 93
        7
 72
     2
 10
26242.40976392885
 20
-8788.685007057848
 40
0.6499999999978173
 50
0.0
 51
180.0
 73
     1
 72
     1
 10
26241.75976392884
 20
-8788.685007057848
 11
26241.75976392884
 21
-8808.135007057847
 72
     2
 10
26242.30976392884
 20
-8808.135007057845
 40
0.5499999999992724
 50
180.000000000379
 51
270.000000000379
 73
     1
 72
     1
 10
26242.30976392885
 20
-8808.685007057844
 11
26261.75976392884
 21
-8808.685007057844
 72
     2
 10
26261.75976392884
 20
-8808.035007057844
 40
0.6499999999996362
 50
270.0
 51
450.0
 73
     1
 72
     1
 10
26261.75976392884
 20
-8807.385007057844
 11
26243.05976392884
 21
-8807.385007057844
 72
     1
 10
26243.05976392884
 20
-8807.385007057844
 11
26243.05976392884
 21
-8788.685007057848
 97
        1
330
3AE
 75
     0
 76
     1
 98
        0
450
        0
451
        0
460
0.0
461
0.0
452
        1
462
0.0
453
        0
470

  0
LWPOLYLINE
  5
3AE
102
{ACAD_REACTORS
330
3AD
102
}
330
1F
100
AcDbEntity
  8
Specialized_Fills
  6
Continuous
100
AcDbPolyline
 90
        7
 70
   129
 43
0.0
 10
26243.05976392884
 20
-8788.685007057848
 42
0.9999999999999998
 10
26241.75976392884
 20
-8788.685007057848
 10
26241.75976392884
 20
-8808.135007057847
 42
0.414213562373566
 10
26242.30976392885
 20
-8808.685007057844
 10
26261.75976392884
 20
-8808.685007057844
 42
0.9999999999999998
 10
26261.75976392884
 20
-8807.385007057844
 10
26243.05976392884
 20
-8807.385007057844
  0
LWPOLYLINE
  5
3AF
330
1F
100
AcDbEntity
  8
Specialized_Lines
  6
PLASTER
 48
3.0
100
AcDbPolyline
 90
        2
 70
     0
 43
0.0
 10
26243.00641946762
 20
-8811.645169324075
 10
26242.30976392884
 20
-8808.685007057846
  0
LWPOLYLINE
  5
3B0
330
1F
100
AcDbEntity
  8
Specialized_Lines
  6
PLASTER
 48
3.0
100
AcDbPolyline
 90
        2
 70
     0
 43
0.0
 10
26343.28339195379
 20
-8811.645169324075
 10
26346.49342514552
 20
-8808.685007057844
  0
PDFUNDERLAY
  5
3F7
330
1F
100
AcDbEntity
  8
0
 62
     7
420
 16777215
160
                 8
310
0800000000000000
100
AcDbUnderlayReference
340
3ED
 10
26244.83954264488
 20
-8556.629003105372
 30
0.0
 41
14.64050888668862
 42
14.64050888668862
 43
14.64050888668862
281
   100
282
     0
 11
0.918513357764084
 21
9.215030932800971
 11
6.878692319585923
 21
7.080213791027176
  0
LINE
  5
432
330
1F
100
AcDbEntity
  8
Specialized_Fills
  6
Continuous
100
AcDbLine
 10
26170.12700685298
 20
-8574.859726353022
 30
0.0
 11
26220.32700685298
 21
-8574.859726353022
 31
0.0
  0
LINE
  5
433
330
1F
100
AcDbEntity
  8
Specialized_Fills
  6
Continuous
100
AcDbLine
 10
26220.32700685298
 20
-8574.859726353022
 30
0.0
 11
26220.32700685297
 21
-8790.245169324073
 31
0.0
  0
LINE
  5
435
330
1F
100
AcDbEntity
  8
Specialized_Fills
  6
Continuous
100
AcDbLine
 10
26213.32700685301
 20
-8807.485007057843
 30
0.0
 11
26170.12700685301
 21
-8807.485007057843
 31
0.0
  0
LINE
  5
436
330
1F
100
AcDbEntity
  8
Specialized_Fills
  6
Continuous
100
AcDbLine
 10
26145.12700685301
 20
-8807.485007057843
 30
0.0
 11
26145.12700685301
 21
-8592.099564086792
 31
0.0
  0
HATCH
  5
4D7
330
1F
100
AcDbEntity
  8
Specialized_Lines
 62
    30
420
 16742400
100
AcDbHatch
 10
0.0
 20
0.0
 30
0.0
210
0.0
220
0.0
230
1.0
  2
SOLID
 70
     1
 71
     1
 91
        2
 92
       16
 93
        5
 72
     1
 10
26151.351858776
 20
-8825.188653087913
 11
26149.01982717617
 21
-8821.149455871877
 72
     1
 10
26149.01982717617
 20
-8821.149455871877
 11
26148.32700685313
 21
-8821.149455871877
 72
     1
 10
26148.32700685313
 20
-8821.149455871877
 11
26148.32700685313
 21
-8808.685007057844
 72
     1
 10
26148.32700685313
 20
-8808.685007057844
 11
26216.63113193452
 21
-8808.685007057844
 72
     1
 10
26216.63113193452
 20
-8808.685007057844
 11
26151.351858776
 21
-8825.188653087913
 97
        1
330
4D8
 92
        1
 93
       40
 72
     1
 10
26144.12700685317
 20
-8827.015211396384
 11
26141.62700685317
 21
-8827.647251446419
 72
     1
 10
26141.62700685317
 20
-8827.647251446419
 11
26141.62700685317
 21
-8828.885007057845
 72
     1
 10
26141.62700685317
 20
-8828.885007057845
 11
26221.52700685308
 21
-8808.685007057844
 72
     1
 10
26221.52700685308
 20
-8808.685007057844
 11
26221.52700685308
 21
-8798.685007057844
 72
     1
 10
26221.52700685308
 20
-8798.685007057844
 11
26237.52700685308
 21
-8798.685007057844
 72
     1
 10
26237.52700685308
 20
-8798.685007057844
 11
26237.52700685308
 21
-8797.485007057842
 72
     1
 10
26237.52700685308
 20
-8797.485007057842
 11
26221.52700685308
 21
-8797.485007057842
 72
     1
 10
26221.52700685308
 20
-8797.485007057842
 11
26221.52700685308
 21
-8789.485007057843
 72
     1
 10
26221.52700685308
 20
-8789.485007057843
 11
26220.32700685301
 21
-8789.485007057843
 72
     1
 10
26220.32700685301
 20
-8789.485007057843
 11
26220.32700685289
 21
-8793.800966771163
 72
     1
 10
26220.32700685289
 20
-8793.800966771163
 11
26219.38731423212
 21
-8794.142986914518
 72
     1
 10
26219.38731423212
 20
-8794.142986914518
 11
26220.32700685301
 21
-8794.485007057843
 72
     1
 10
26220.32700685301
 20
-8794.485007057843
 11
26220.32700685301
 21
-8807.485007057843
 72
     1
 10
26220.32700685301
 20
-8807.485007057843
 11
26145.32700685301
 21
-8807.485007057843
 72
     1
 10
26145.32700685301
 20
-8807.485007057843
 11
26145.32700685301
 21
-8794.485007057843
 72
     1
 10
26145.32700685301
 20
-8794.485007057843
 11
26146.26669947389
 21
-8794.142986914518
 72
     1
 10
26146.26669947389
 20
-8794.142986914518
 11
26145.32700685312
 21
-8793.800966771163
 72
     1
 10
26145.32700685312
 20
-8793.800966771163
 11
26145.32700685312
 21
-8789.485007057843
 72
     1
 10
26145.32700685312
 20
-8789.485007057843
 11
26144.12700685317
 21
-8789.485007057843
 72
     1
 10
26144.12700685317
 20
-8789.485007057843
 11
26144.12700685317
 21
-8808.685007057844
 72
     1
 10
26144.12700685317
 20
-8808.685007057844
 11
26144.12700685317
 21
-8809.885007057845
 72
     1
 10
26144.12700685317
 20
-8809.885007057845
 11
26144.8198271761
 21
-8808.685007057844
 72
     1
 10
26144.8198271761
 20
-8808.685007057844
 11
26147.12700685317
 21
-8808.685007057844
 72
     1
 10
26147.12700685317
 20
-8808.685007057844
 11
26147.12700685317
 21
-8812.985007057843
 72
     1
 10
26147.12700685317
 20
-8812.985007057843
 11
26147.12700685317
 21
-8813.585007057845
 72
     1
 10
26147.12700685317
 20
-8813.585007057845
 11
26144.12700685317
 21
-8812.385007057844
 72
     1
 10
26144.12700685317
 20
-8812.385007057844
 11
26144.12700685317
 21
-8816.415207057842
 72
     1
 10
26144.12700685317
 20
-8816.415207057842
 11
26147.12700685317
 21
-8815.215207057841
 72
     1
 10
26147.12700685317
 20
-8815.215207057841
 11
26147.12700685317
 21
-8815.815207057843
 72
     1
 10
26147.12700685317
 20
-8815.815207057843
 11
26147.12700685317
 21
-8819.515207057845
 72
     1
 10
26147.12700685317
 20
-8819.515207057845
 11
26147.12700685317
 21
-8820.115207057844
 72
     1
 10
26147.12700685317
 20
-8820.115207057844
 11
26144.12700685317
 21
-8818.915207057841
 72
     1
 10
26144.12700685317
 20
-8818.915207057841
 11
26144.12700685317
 21
-8823.515207057845
 72
     1
 10
26144.12700685317
 20
-8823.515207057845
 11
26144.80005361424
 21
-8822.349455871874
 72
     1
 10
26144.80005361424
 20
-8822.349455871874
 11
26147.12700685317
 21
-8822.349455871874
 72
     1
 10
26147.12700685317
 20
-8822.349455871874
 11
26148.32700685313
 21
-8822.349455871874
 72
     1
 10
26148.32700685313
 20
-8822.349455871874
 11
26150.14270964492
 21
-8825.494345358846
 72
     1
 10
26150.14270964492
 20
-8825.494345358846
 11
26144.63082117698
 21
-8826.887839064227
 72
     1
 10
26144.63082117698
 20
-8826.887839064227
 11
26144.12700685317
 21
-8826.015207057844
 72
     1
 10
26144.12700685317
 20
-8826.015207057844
 11
26144.12700685317
 21
-8827.015211396384
 97
        0
 75
     0
 76
     1
 98
        0
450
        0
451
        0
460
0.0
461
0.0
452
        0
462
0.0
453
        0
470

  0
REGION
  5
4D8
102
{ACAD_REACTORS
330
4D7
102
}
330
1F
100
AcDbEntity
  8
Specialized_Lines
 62
     7
100
AcDbModelerGeometry
290
     1
  2
{e7616859-62d3-47df-b35a-a305f96a8686}
  0
INSERT
  5
60F
102
{ACAD_XDICTIONARY
360
627
102
}
102
{ACAD_REACTORS
330
65D
102
}
330
1F
100
AcDbEntity
  8
Specialized_Lines
  6
Continuous
 48
3.0
100
AcDbBlockReference
  2
therma
 10
26145.12700685301
 20
-8780.80040795054
 30
0.0
1001
BNS_SPRHATCH
1010
-0.8783078243759518
1020
-28.50897481949869
1030
-0.00000001
1010
28.40377861212255
1020
-28.50897481949869
1030
-0.00000001
1010
28.40377861212255
1020
0.9111225515753176
1030
-0.00000001
1010
-0.8783078243759518
1020
0.9111225515753176
1030
-0.00000001
  0
INSERT
  5
610
102
{ACAD_XDICTIONARY
360
62A
102
}
102
{ACAD_REACTORS
330
65D
102
}
330
1F
100
AcDbEntity
  8
Specialized_Lines
  6
Continuous
 48
3.0
100
AcDbBlockReference
  2
therma
 10
26174.40909328951
 20
-8780.80040795054
 30
0.0
1001
BNS_SPRHATCH
1010
-0.8783078243759518
1020
-28.50897481949869
1030
-0.00000001
1010
28.40377861212255
1020
-28.50897481949869
1030
-0.00000001
1010
28.40377861212255
1020
0.9111225515753176
1030
-0.00000001
1010
-0.8783078243759518
1020
0.9111225515753176
1030
-0.00000001
  0
INSERT
  5
611
102
{ACAD_XDICTIONARY
360
62D
102
}
102
{ACAD_REACTORS
330
65D
102
}
330
1F
100
AcDbEntity
  8
Specialized_Lines
  6
Continuous
 48
3.0
100
AcDbBlockReference
  2
therma
 10
26203.691179726
 20
-8780.80040795054
 30
0.0
1001
BNS_SPRHATCH
1010
-0.8783078243759518
1020
-28.50897481949869
1030
-0.00000001
1010
28.40377861212255
1020
-28.50897481949869
1030
-0.00000001
1010
28.40377861212255
1020
0.9111225515753176
1030
-0.00000001
1010
-0.8783078243759518
1020
0.9111225515753176
1030
-0.00000001
  0
INSERT
  5
612
102
{ACAD_XDICTIONARY
360
630
102
}
102
{ACAD_REACTORS
330
65D
102
}
330
1F
100
AcDbEntity
  8
Specialized_Lines
  6
Continuous
 48
3.0
100
AcDbBlockReference
  2
therma
 10
26145.12700685301
 20
-8751.380310579465
 30
0.0
1001
BNS_SPRHATCH
1010
-0.8783078243759518
1020
-28.50897481949869
1030
-0.00000001
1010
28.40377861212255
1020
-28.50897481949869
1030
-0.00000001
1010
28.40377861212255
1020
0.9111225515753176
1030
-0.00000001
1010
-0.8783078243759518
1020
0.9111225515753176
1030
-0.00000001
  0
INSERT
  5
613
102
{ACAD_XDICTIONARY
360
633
102
}
102
{ACAD_REACTORS
330
65D
102
}
330
1F
100
AcDbEntity
  8
Specialized_Lines
  6
Continuous
 48
3.0
100
AcDbBlockReference
  2
therma
 10
26203.691179726
 20
-8751.380310579465
 30
0.0
1001
BNS_SPRHATCH
1010
-0.8783078243759518
1020
-28.50897481949869
1030
-0.00000001
1010
28.40377861212255
1020
-28.50897481949869
1030
-0.00000001
1010
28.40377861212255
1020
0.9111225515753176
1030
-0.00000001
1010
-0.8783078243759518
1020
0.9111225515753176
1030
-0.00000001
  0
INSERT
  5
614
102
{ACAD_XDICTIONARY
360
636
102
}
102
{ACAD_REACTORS
330
65D
102
}
330
1F
100
AcDbEntity
  8
Specialized_Lines
  6
Continuous
 48
3.0
100
AcDbBlockReference
  2
therma
 10
26145.12700685301
 20
-8721.96021320839
 30
0.0
1001
BNS_SPRHATCH
1010
-0.8783078243759518
1020
-28.50897481949869
1030
-0.00000001
1010
28.40377861212255
1020
-28.50897481949869
1030
-0.00000001
1010
28.40377861212255
1020
0.9111225515753176
1030
-0.00000001
1010
-0.8783078243759518
1020
0.9111225515753176
1030
-0.00000001
  0
INSERT
  5
615
102
{ACAD_XDICTIONARY
360
639
102
}
102
{ACAD_REACTORS
330
65D
102
}
330
1F
100
AcDbEntity
  8
Specialized_Lines
  6
Continuous
 48
3.0
100
AcDbBlockReference
  2
therma
 10
26203.691179726
 20
-8721.96021320839
 30
0.0
1001
BNS_SPRHATCH
1010
-0.8783078243759518
1020
-28.50897481949869
1030
-0.00000001
1010
28.40377861212255
1020
-28.50897481949869
1030
-0.00000001
1010
28.40377861212255
1020
0.9111225515753176
1030
-0.00000001
1010
-0.8783078243759518
1020
0.9111225515753176
1030
-0.00000001
  0
INSERT
  5
616
102
{ACAD_XDICTIONARY
360
63C
102
}
102
{ACAD_REACTORS
330
65D
102
}
330
1F
100
AcDbEntity
  8
Specialized_Lines
  6
Continuous
 48
3.0
100
AcDbBlockReference
  2
therma
 10
26145.12700685301
 20
-8692.540115837317
 30
0.0
1001
BNS_SPRHATCH
1010
-0.8783078243759518
1020
-28.50897481949869
1030
-0.00000001
1010
28.40377861212255
1020
-28.50897481949869
1030
-0.00000001
1010
28.40377861212255
1020
0.9111225515753176
1030
-0.00000001
1010
-0.8783078243759518
1020
0.9111225515753176
1030
-0.00000001
  0
INSERT
  5
617
102
{ACAD_XDICTIONARY
360
63F
102
}
102
{ACAD_REACTORS
330
65D
102
}
330
1F
100
AcDbEntity
  8
Specialized_Lines
  6
Continuous
 48
3.0
100
AcDbBlockReference
  2
therma
 10
26203.691179726
 20
-8692.540115837317
 30
0.0
1001
BNS_SPRHATCH
1010
-0.8783078243759518
1020
-28.50897481949869
1030
-0.00000001
1010
28.40377861212255
1020
-28.50897481949869
1030
-0.00000001
1010
28.40377861212255
1020
0.9111225515753176
1030
-0.00000001
1010
-0.8783078243759518
1020
0.9111225515753176
1030
-0.00000001
  0
INSERT
  5
618
102
{ACAD_XDICTIONARY
360
642
102
}
102
{ACAD_REACTORS
330
65D
102
}
330
1F
100
AcDbEntity
  8
Specialized_Lines
  6
Continuous
 48
3.0
100
AcDbBlockReference
  2
therma
 10
26145.12700685301
 20
-8663.120018466242
 30
0.0
1001
BNS_SPRHATCH
1010
-0.8783078243759518
1020
-28.50897481949869
1030
-0.00000001
1010
28.40377861212255
1020
-28.50897481949869
1030
-0.00000001
1010
28.40377861212255
1020
0.9111225515753176
1030
-0.00000001
1010
-0.8783078243759518
1020
0.9111225515753176
1030
-0.00000001
  0
INSERT
  5
619
102
{ACAD_XDICTIONARY
360
645
102
}
102
{ACAD_REACTORS
330
65D
102
}
330
1F
100
AcDbEntity
  8
Specialized_Lines
  6
Continuous
 48
3.0
100
AcDbBlockReference
  2
therma
 10
26203.691179726
 20
-8663.120018466242
 30
0.0
1001
BNS_SPRHATCH
1010
-0.8783078243759518
1020
-28.50897481949869
1030
-0.00000001
1010
28.40377861212255
1020
-28.50897481949869
1030
-0.00000001
1010
28.40377861212255
1020
0.9111225515753176
1030
-0.00000001
1010
-0.8783078243759518
1020
0.9111225515753176
1030
-0.00000001
  0
INSERT
  5
61A
102
{ACAD_XDICTIONARY
360
648
102
}
102
{ACAD_REACTORS
330
65D
102
}
330
1F
100
AcDbEntity
  8
Specialized_Lines
  6
Continuous
 48
3.0
100
AcDbBlockReference
  2
therma
 10
26145.12700685301
 20
-8633.699921095169
 30
0.0
1001
BNS_SPRHATCH
1010
-0.8783078243759518
1020
-28.50897481949869
1030
-0.00000001
1010
28.40377861212255
1020
-28.50897481949869
1030
-0.00000001
1010
28.40377861212255
1020
0.9111225515753176
1030
-0.00000001
1010
-0.8783078243759518
1020
0.9111225515753176
1030
-0.00000001
  0
INSERT
  5
61B
102
{ACAD_XDICTIONARY
360
64B
102
}
102
{ACAD_REACTORS
330
65D
102
}
330
1F
100
AcDbEntity
  8
Specialized_Lines
  6
Continuous
 48
3.0
100
AcDbBlockReference
  2
therma
 10
26203.691179726
 20
-8633.699921095169
 30
0.0
1001
BNS_SPRHATCH
1010
-0.8783078243759518
1020
-28.50897481949869
1030
-0.00000001
1010
28.40377861212255
1020
-28.50897481949869
1030
-0.00000001
1010
28.40377861212255
1020
0.9111225515753176
1030
-0.00000001
1010
-0.8783078243759518
1020
0.9111225515753176
1030
-0.00000001
  0
INSERT
  5
61C
102
{ACAD_XDICTIONARY
360
64E
102
}
102
{ACAD_REACTORS
330
65D
102
}
330
1F
100
AcDbEntity
  8
Specialized_Lines
  6
Continuous
 48
3.0
100
AcDbBlockReference
  2
therma
 10
26145.12700685301
 20
-8604.279823724095
 30
0.0
1001
BNS_SPRHATCH
1010
-0.8783078243759518
1020
-28.50897481949869
1030
-0.00000001
1010
28.40377861212255
1020
-28.50897481949869
1030
-0.00000001
1010
28.40377861212255
1020
0.9111225515753176
1030
-0.00000001
1010
-0.8783078243759518
1020
0.9111225515753176
1030
-0.00000001
  0
INSERT
  5
61D
102
{ACAD_XDICTIONARY
360
651
102
}
102
{ACAD_REACTORS
330
65D
102
}
330
1F
100
AcDbEntity
  8
Specialized_Lines
  6
Continuous
 48
3.0
100
AcDbBlockReference
  2
therma
 10
26203.691179726
 20
-8604.279823724095
 30
0.0
1001
BNS_SPRHATCH
1010
-0.8783078243759518
1020
-28.50897481949869
1030
-0.00000001
1010
28.40377861212255
1020
-28.50897481949869
1030
-0.00000001
1010
28.40377861212255
1020
0.9111225515753176
1030
-0.00000001
1010
-0.8783078243759518
1020
0.9111225515753176
1030
-0.00000001
  0
INSERT
  5
61E
102
{ACAD_XDICTIONARY
360
654
102
}
102
{ACAD_REACTORS
330
65D
102
}
330
1F
100
AcDbEntity
  8
Specialized_Lines
  6
Continuous
 48
3.0
100
AcDbBlockReference
  2
therma
 10
26145.12700685301
 20
-8574.859726353022
 30
0.0
1001
BNS_SPRHATCH
1010
-0.8783078243759518
1020
-28.50897481949869
1030
-0.00000001
1010
28.40377861212255
1020
-28.50897481949869
1030
-0.00000001
1010
28.40377861212255
1020
0.9111225515753176
1030
-0.00000001
1010
-0.8783078243759518
1020
0.9111225515753176
1030
-0.00000001
  0
INSERT
  5
61F
102
{ACAD_XDICTIONARY
360
657
102
}
102
{ACAD_REACTORS
330
65D
102
}
330
1F
100
AcDbEntity
  8
Specialized_Lines
  6
Continuous
 48
3.0
100
AcDbBlockReference
  2
therma
 10
26174.40909328951
 20
-8574.859726353022
 30
0.0
1001
BNS_SPRHATCH
1010
-0.8783078243759518
1020
-28.50897481949869
1030
-0.00000001
1010
28.40377861212255
1020
-28.50897481949869
1030
-0.00000001
1010
28.40377861212255
1020
0.9111225515753176
1030
-0.00000001
1010
-0.8783078243759518
1020
0.9111225515753176
1030
-0.00000001
  0
INSERT
  5
620
102
{ACAD_XDICTIONARY
360
65A
102
}
102
{ACAD_REACTORS
330
65D
102
}
330
1F
100
AcDbEntity
  8
Specialized_Lines
  6
Continuous
 48
3.0
100
AcDbBlockReference
  2
therma
 10
26203.691179726
 20
-8574.859726353022
 30
0.0
1001
BNS_SPRHATCH
1010
-0.8783078243759518
1020
-28.50897481949869
1030
-0.00000001
1010
28.40377861212255
1020
-28.50897481949869
1030
-0.00000001
1010
28.40377861212255
1020
0.9111225515753176
1030
-0.00000001
1010
-0.8783078243759518
1020
0.9111225515753176
1030
-0.00000001
  0
INSERT
  5
621
102
{ACAD_REACTORS
330
65D
102
}
330
1F
100
AcDbEntity
  8
Specialized_Lines
  6
Continuous
 48
3.0
100
AcDbBlockReference
  2
therma
 10
26174.40909328951
 20
-8751.380310579465
 30
0.0
1001
BNS_SPRHATCH
1010
-0.8783078243759518
1020
-28.50897481949869
1030
-0.00000001
1010
28.40377861212255
1020
-28.50897481949869
1030
-0.00000001
1010
28.40377861212255
1020
0.9111225515753176
1030
-0.00000001
1010
-0.8783078243759518
1020
0.9111225515753176
1030
-0.00000001
  0
INSERT
  5
622
102
{ACAD_REACTORS
330
65D
102
}
330
1F
100
AcDbEntity
  8
Specialized_Lines
  6
Continuous
 48
3.0
100
AcDbBlockReference
  2
therma
 10
26174.40909328951
 20
-8721.96021320839
 30
0.0
1001
BNS_SPRHATCH
1010
-0.8783078243759518
1020
-28.50897481949869
1030
-0.00000001
1010
28.40377861212255
1020
-28.50897481949869
1030
-0.00000001
1010
28.40377861212255
1020
0.9111225515753176
1030
-0.00000001
1010
-0.8783078243759518
1020
0.9111225515753176
1030
-0.00000001
  0
INSERT
  5
623
102
{ACAD_REACTORS
330
65D
102
}
330
1F
100
AcDbEntity
  8
Specialized_Lines
  6
Continuous
 48
3.0
100
AcDbBlockReference
  2
therma
 10
26174.40909328951
 20
-8692.540115837317
 30
0.0
1001
BNS_SPRHATCH
1010
-0.8783078243759518
1020
-28.50897481949869
1030
-0.00000001
1010
28.40377861212255
1020
-28.50897481949869
1030
-0.00000001
1010
28.40377861212255
1020
0.9111225515753176
1030
-0.00000001
1010
-0.8783078243759518
1020
0.9111225515753176
1030
-0.00000001
  0
INSERT
  5
624
102
{ACAD_REACTORS
330
65D
102
}
330
1F
100
AcDbEntity
  8
Specialized_Lines
  6
Continuous
 48
3.0
100
AcDbBlockReference
  2
therma
 10
26174.40909328951
 20
-8663.120018466242
 30
0.0
1001
BNS_SPRHATCH
1010
-0.8783078243759518
1020
-28.50897481949869
1030
-0.00000001
1010
28.40377861212255
1020
-28.50897481949869
1030
-0.00000001
1010
28.40377861212255
1020
0.9111225515753176
1030
-0.00000001
1010
-0.8783078243759518
1020
0.9111225515753176
1030
-0.00000001
  0
INSERT
  5
625
102
{ACAD_REACTORS
330
65D
102
}
330
1F
100
AcDbEntity
  8
Specialized_Lines
  6
Continuous
 48
3.0
100
AcDbBlockReference
  2
therma
 10
26174.40909328951
 20
-8633.699921095169
 30
0.0
1001
BNS_SPRHATCH
1010
-0.8783078243759518
1020
-28.50897481949869
1030
-0.00000001
1010
28.40377861212255
1020
-28.50897481949869
1030
-0.00000001
1010
28.40377861212255
1020
0.9111225515753176
1030
-0.00000001
1010
-0.8783078243759518
1020
0.9111225515753176
1030
-0.00000001
  0
INSERT
  5
626
102
{ACAD_REACTORS
330
65D
102
}
330
1F
100
AcDbEntity
  8
Specialized_Lines
  6
Continuous
 48
3.0
100
AcDbBlockReference
  2
therma
 10
26174.40909328951
 20
-8604.279823724095
 30
0.0
1001
BNS_SPRHATCH
1010
-0.8783078243759518
1020
-28.50897481949869
1030
-0.00000001
1010
28.40377861212255
1020
-28.50897481949869
1030
-0.00000001
1010
28.40377861212255
1020
0.9111225515753176
1030
-0.00000001
1010
-0.8783078243759518
1020
0.9111225515753176
1030
-0.00000001
  0
MTEXT
  5
6AE
330
1F
100
AcDbEntity
  8
Specialized_Lines
  6
Hidden
 62
    30
420
 16742400
100
AcDbMText
 10
26137.59639292941
 20
-8424.473631981161
 30
0.0
 40
4.25
 41
107.7955980620054
 46
0.0
 71
     1
 72
     5
  1
Note: This drawing is outside the scope of BRANZ Appraisal 510 (2013)
  7
1-2 SPECIALIZED
 73
     1
 44
1.0
101
Embedded Object
 70
     1
 10
1.0
 20
0.0
 30
0.0
 11
26137.59639292941
 21
-8424.473631981161
 31
0.0
 40
107.7955980620054
 41
0.0
 42
102.9247953615279
 43
12.65239881764438
 71
     2
 72
     1
 44
107.7955980620054
 45
21.25
 73
     0
 74
     0
 46
0.0
  0
ENDSEC
  0
SECTION
  2
OBJECTS
  0
DICTIONARY
  5
C
330
0
100
AcDbDictionary
281
     1
  3
ACAD_ASSOCNETWORK
350
312
  3
ACAD_CIP_PREVIOUS_PRODUCT_INFO
350
25A
  3
ACAD_COLOR
350
24E
  3
ACAD_DETAILVIEWSTYLE
350
253
  3
ACAD_GROUP
350
D
  3
ACAD_IMAGE_DICT
350
280
  3
ACAD_IMAGE_VARS
350
285
  3
ACAD_LAYOUT
350
1A
  3
ACAD_MATERIAL
350
3B
  3
ACAD_MLEADERSTYLE
350
241
  3
ACAD_MLINESTYLE
350
17
  3
ACAD_PDFDEFINITIONS
350
3EC
  3
ACAD_PLOTSETTINGS
350
19
  3
ACAD_PLOTSTYLENAME
350
E
  3
ACAD_SCALELIST
350
19F
  3
ACAD_SECTIONVIEWSTYLE
350
251
  3
ACAD_TABLESTYLE
350
240
  3
ACAD_VISUALSTYLE
350
2A
  3
ACDB_RECOMPOSE_DATA
350
6C8
  3
AcDbVariableDictionary
350
21E
  3
WATERMARKS
350
21C
  0
DICTIONARY
  5
26A
330
2
100
AcDbDictionary
280
     1
281
     1
  3
ACAD_LAYERSTATES
360
26B
  0
DICTIONARY
  5
295
330
10
100
AcDbDictionary
280
     1
281
     1
  3
ADSK_XREC_LAYER_RECONCILED
360
296
  0
DICTIONARY
  5
297
330
46
100
AcDbDictionary
280
     1
281
     1
  3
ADSK_XREC_LAYER_RECONCILED
360
298
  0
DICTIONARY
  5
299
330
1D1
100
AcDbDictionary
280
     1
281
     1
  3
ADSK_XREC_LAYER_RECONCILED
360
29A
  0
DICTIONARY
  5
29B
330
1D8
100
AcDbDictionary
280
     1
281
     1
  3
ADSK_XREC_LAYER_RECONCILED
360
29C
  0
DICTIONARY
  5
261
330
260
100
AcDbDictionary
280
     1
281
     1
  3
ADSK_XREC_LAYER_RECONCILED
360
29D
  0
DICTIONARY
  5
4CE
330
4CD
100
AcDbDictionary
280
     1
281
     1
  0
DICTIONARY
  5
30F
330
1F
100
AcDbDictionary
280
     1
281
     1
  3
ACAD_ASSOCNETWORK
360
310
  3
ACAD_SORTENTS
360
3B1
  0
DICTIONARY
  5
2DC
330
3F
100
AcDbDictionary
280
     1
281
     1
  3
ACAD_SORTENTS
360
2E8
  0
DICTIONARY
  5
2CD
330
1DE
100
AcDbDictionary
280
     1
281
     1
  0
DICTIONARY
  5
3CB
330
3C9
100
AcDbDictionary
280
     1
281
     1
  3
ACAD_SORTENTS
360
3CC
  0
DICTIONARY
  5
3FC
330
3FB
100
AcDbDictionary
280
     1
281
     1
  3
ACAD_ASSOCNETWORK
360
3FD
  3
AcDbDynamicBlockRoundTripPurgePreventer
360
405
  0
DICTIONARY
  5
6C4
330
39C
100
AcDbDictionary
280
     1
281
     1
  3
SDCO_XRTRSCLR
360
6C5
  0
IMAGEDEF_REACTOR
  5
39D
330
39C
100
AcDbRasterImageDefReactor
 90
        2
330
39C
  0
DICTIONARY
  5
627
330
60F
100
AcDbDictionary
280
     1
281
     1
  3
ACAD_FILTER
360
628
  0
DICTIONARY
  5
62A
330
610
100
AcDbDictionary
280
     1
281
     1
  3
ACAD_FILTER
360
62B
  0
DICTIONARY
  5
62D
330
611
100
AcDbDictionary
280
     1
281
     1
  3
ACAD_FILTER
360
62E
  0
DICTIONARY
  5
630
330
612
100
AcDbDictionary
280
     1
281
     1
  3
ACAD_FILTER
360
631
  0
DICTIONARY
  5
633
330
613
100
AcDbDictionary
280
     1
281
     1
  3
ACAD_FILTER
360
634
  0
DICTIONARY
  5
636
330
614
100
AcDbDictionary
280
     1
281
     1
  3
ACAD_FILTER
360
637
  0
DICTIONARY
  5
639
330
615
100
AcDbDictionary
280
     1
281
     1
  3
ACAD_FILTER
360
63A
  0
DICTIONARY
  5
63C
330
616
100
AcDbDictionary
280
     1
281
     1
  3
ACAD_FILTER
360
63D
  0
DICTIONARY
  5
63F
330
617
100
AcDbDictionary
280
     1
281
     1
  3
ACAD_FILTER
360
640
  0
DICTIONARY
  5
642
330
618
100
AcDbDictionary
280
     1
281
     1
  3
ACAD_FILTER
360
643
  0
DICTIONARY
  5
645
330
619
100
AcDbDictionary
280
     1
281
     1
  3
ACAD_FILTER
360
646
  0
DICTIONARY
  5
648
330
61A
100
AcDbDictionary
280
     1
281
     1
  3
ACAD_FILTER
360
649
  0
DICTIONARY
  5
64B
330
61B
100
AcDbDictionary
280
     1
281
     1
  3
ACAD_FILTER
360
64C
  0
DICTIONARY
  5
64E
330
61C
100
AcDbDictionary
280
     1
281
     1
  3
ACAD_FILTER
360
64F
  0
DICTIONARY
  5
651
330
61D
100
AcDbDictionary
280
     1
281
     1
  3
ACAD_FILTER
360
652
  0
DICTIONARY
  5
654
330
61E
100
AcDbDictionary
280
     1
281
     1
  3
ACAD_FILTER
360
655
  0
DICTIONARY
  5
657
330
61F
100
AcDbDictionary
280
     1
281
     1
  3
ACAD_FILTER
360
658
  0
DICTIONARY
  5
65A
330
620
100
AcDbDictionary
280
     1
281
     1
  3
ACAD_FILTER
360
65B
  0
DICTIONARY
  5
312
102
{ACAD_REACTORS
330
C
102
}
330
C
100
AcDbDictionary
281
     1
  3
ACAD_ASSOCNETWORK
350
313
  0
XRECORD
  5
25A
102
{ACAD_REACTORS
330
C
102
}
330
C
100
AcDbXrecord
280
     1
300
ACD
300
2019
300
BDSPRM_F_S
  0
DICTIONARY
  5
24E
102
{ACAD_REACTORS
330
C
102
}
330
C
100
AcDbDictionary
281
     1
  0
DICTIONARY
  5
253
102
{ACAD_REACTORS
330
C
102
}
330
C
100
AcDbDictionary
281
     1
  3
Imperial24
350
254
  3
Metric50
350
3E9
  0
DICTIONARY
  5
D
102
{ACAD_REACTORS
330
C
102
}
330
C
100
AcDbDictionary
281
     1
  3
*A1
350
65D
  0
DICTIONARY
  5
280
102
{ACAD_REACTORS
330
C
102
}
330
C
100
AcDbDictionary
281
     1
  3
logo sharp
350
376
  0
RASTERVARIABLES
  5
285
102
{ACAD_REACTORS
330
C
102
}
330
C
100
AcDbRasterVariables
 90
        0
 70
     1
 71
     1
 72
     0
  0
DICTIONARY
  5
1A
102
{ACAD_REACTORS
330
C
102
}
330
C
100
AcDbDictionary
281
     1
  3
Layout1
350
1E
  3
Layout2
350
26
  3
Model
350
22
  0
DICTIONARY
  5
3B
102
{ACAD_REACTORS
330
C
102
}
330
C
100
AcDbDictionary
281
     1
  3
ByBlock
350
3D
  3
ByLayer
350
3C
  3
Global
350
3E
  0
DICTIONARY
  5
241
102
{ACAD_REACTORS
330
C
102
}
330
C
100
AcDbDictionary
281
     1
  3
Standard
350
250
  0
DICTIONARY
  5
17
102
{ACAD_REACTORS
330
C
102
}
330
C
100
AcDbDictionary
281
     1
  3
Standard
350
18
  0
DICTIONARY
  5
3EC
102
{ACAD_REACTORS
330
C
102
}
330
C
100
AcDbDictionary
281
     1
  3
Thermashell Logo - 1
350
3ED
  0
DICTIONARY
  5
19
102
{ACAD_REACTORS
330
C
102
}
330
C
100
AcDbDictionary
281
     1
  0
ACDBDICTIONARYWDFLT
  5
E
102
{ACAD_REACTORS
330
C
102
}
330
C
100
AcDbDictionary
281
     1
  3
Normal
350
F
100
AcDbDictionaryWithDefault
340
F
  0
DICTIONARY
  5
19F
102
{ACAD_REACTORS
330
C
102
}
330
C
100
AcDbDictionary
281
     1
  3
A0
350
1A0
  3
A1
350
1A1
  3
A2
350
1A2
  3
A3
350
1A3
  3
A4
350
1A4
  3
A5
350
1A5
  3
A6
350
1A6
  3
A7
350
1A7
  3
A8
350
1A8
  3
A9
350
1A9
  3
B0
350
1AA
  3
B1
350
1AB
  3
B2
350
1AC
  3
B3
350
1AD
  3
B4
350
1AE
  3
B5
350
1AF
  3
B6
350
1B0
  3
B7
350
1B1
  3
B8
350
1B2
  3
B9
350
1B3
  3
C0
350
1B4
  3
C1
350
1B5
  3
C2
350
1B6
  3
C3
350
1B7
  3
C4
350
1B8
  3
C5
350
1B9
  3
C6
350
1BA
  3
C7
350
1BB
  3
C8
350
1BC
  3
C9
350
1BD
  3
D0
350
1BE
  3
D1
350
1BF
  3
D2
350
1C0
  0
DICTIONARY
  5
251
102
{ACAD_REACTORS
330
C
102
}
330
C
100
AcDbDictionary
281
     1
  3
Imperial24
350
252
  3
Metric50
350
3E8
  0
DICTIONARY
  5
240
102
{ACAD_REACTORS
330
C
102
}
330
C
100
AcDbDictionary
281
     1
  3
Standard
350
24F
  0
DICTIONARY
  5
2A
102
{ACAD_REACTORS
330
C
102
}
330
C
100
AcDbDictionary
281
     1
  3
2dWireframe
350
2F
  3
3D Hidden
350
31
  3
3dWireframe
350
30
  3
Basic
350
32
  3
Brighten
350
36
  3
ColorChange
350
3A
  3
Conceptual
350
34
  3
Dim
350
35
  3
EdgeColorOff
350
24D
  3
Facepattern
350
39
  3
Flat
350
2B
  3
FlatWithEdges
350
2C
  3
Gouraud
350
2D
  3
GouraudWithEdges
350
2E
  3
Hidden
350
245
  3
JitterOff
350
24B
  3
Linepattern
350
38
  3
OverhangOff
350
24C
  3
Realistic
350
33
  3
Shaded
350
24A
  3
Shaded with edges
350
249
  3
Shades of Gray
350
246
  3
Sketchy
350
247
  3
Thicken
350
37
  3
Wireframe
350
244
  3
X-Ray
350
248
  0
XRECORD
  5
6C8
102
{ACAD_REACTORS
330
C
102
}
330
C
100
AcDbXrecord
280
     1
 90
        1
330
24F
330
314
330
3FF
  0
DICTIONARY
  5
21E
102
{ACAD_REACTORS
330
C
102
}
330
C
100
AcDbDictionary
281
     1
  3
CANNOSCALE
350
21F
  3
CMLEADERSTYLE
350
2F9
  3
CTABLESTYLE
350
2F8
  3
CVIEWDETAILSTYLE
350
2FA
  3
CVIEWSECTIONSTYLE
350
2FB
  3
HPCOLOR
350
2E2
  3
LAYEREVAL
350
2FC
  3
LAYERNOTIFY
350
2FD
  0
DICTIONARY
  5
21C
102
{ACAD_REACTORS
330
C
102
}
330
C
100
AcDbDictionary
281
     1
  3
AC_WATERMARK
350
21D
  0
DICTIONARY
  5
26B
102
{ACAD_REACTORS
330
26A
102
}
330
26A
100
AcDbDictionary
281
     1
  0
XRECORD
  5
296
102
{ACAD_REACTORS
330
295
102
}
330
295
100
AcDbXrecord
280
     1
290
     1
  0
XRECORD
  5
298
102
{ACAD_REACTORS
330
297
102
}
330
297
100
AcDbXrecord
280
     1
290
     1
  0
XRECORD
  5
29A
102
{ACAD_REACTORS
330
299
102
}
330
299
100
AcDbXrecord
280
     1
290
     1
  0
XRECORD
  5
29C
102
{ACAD_REACTORS
330
29B
102
}
330
29B
100
AcDbXrecord
280
     1
290
     1
  0
XRECORD
  5
29D
102
{ACAD_REACTORS
330
261
102
}
330
261
100
AcDbXrecord
280
     1
290
     1
  0
DICTIONARY
  5
310
102
{ACAD_REACTORS
330
30F
102
}
330
30F
100
AcDbDictionary
281
     1
  3
ACAD_ASSOCNETWORK
350
311
  0
SORTENTSTABLE
  5
3B1
102
{ACAD_REACTORS
330
30F
102
}
330
30F
100
AcDbSortentsTable
330
1F
331
1C7
  5
3B0
331
1C8
  5
3F6
331
1C9
  5
3F7
331
1CA
  5
428
331
1CB
  5
431
331
1CC
  5
432
331
1CD
  5
433
331
1CE
  5
434
331
1CF
  5
435
331
1D0
  5
436
331
1D2
  5
463
331
1D5
  5
464
331
1D6
  5
465
331
1DA
  5
466
331
1DC
  5
467
331
1E6
  5
468
331
1E7
  5
469
331
1E8
  5
46A
331
1E9
  5
46B
331
1EA
  5
46C
331
1EB
  5
46D
331
1EE
  5
46E
331
1F0
  5
46F
331
1F1
  5
470
331
1F2
  5
471
331
1F3
  5
472
331
1F4
  5
473
331
1F5
  5
474
331
1F6
  5
475
331
1F7
  5
476
331
1F8
  5
477
331
1F9
  5
479
331
1FA
  5
4D7
331
1FC
  5
4D8
331
1FD
  5
54E
331
1FF
  5
54F
331
200
  5
550
331
207
  5
551
331
208
  5
552
331
209
  5
553
331
20A
  5
554
331
20B
  5
555
331
20C
  5
556
331
20D
  5
557
331
20E
  5
558
331
20F
  5
559
331
210
  5
626
331
211
  5
55A
331
212
  5
55B
331
215
  5
55C
331
216
  5
55D
331
217
  5
55E
331
218
  5
55F
331
286
  5
560
331
287
  5
561
331
28A
  5
562
331
28B
  5
563
331
28C
  5
564
331
28D
  5
565
331
28E
  5
60F
331
28F
  5
610
331
290
  5
611
331
291
  5
612
331
292
  5
613
331
392
  5
614
331
393
  5
615
331
394
  5
616
331
395
  5
617
331
396
  5
618
331
397
  5
619
331
398
  5
61A
331
39C
  5
61D
331
39E
  5
61E
331
3AB
  5
39E
331
3AC
  5
61F
331
3AD
  5
3AB
331
3AE
  5
620
331
3AF
  5
621
331
3B0
  5
622
331
3F7
  5
623
331
432
  5
3AC
331
433
  5
3AD
331
435
  5
3AE
331
436
  5
3AF
331
4D7
  5
624
331
4D8
  5
625
331
60F
  5
213
331
610
  5
214
331
611
  5
217
331
612
  5
218
331
613
  5
287
331
614
  5
28A
331
615
  5
28B
331
616
  5
28C
331
617
  5
28D
331
618
  5
28E
331
619
  5
28F
331
61A
  5
290
331
61B
  5
291
331
61C
  5
292
331
61D
  5
392
331
61E
  5
393
331
61F
  5
394
331
620
  5
395
331
621
  5
396
331
622
  5
397
331
623
  5
398
331
624
  5
399
331
625
  5
39A
331
626
  5
39C
  0
SORTENTSTABLE
  5
2E8
102
{ACAD_REACTORS
330
2DC
102
}
330
2DC
100
AcDbSortentsTable
330
3F
331
2EA
  5
2D9
331
2D8
  5
2DB
331
2D7
  5
2DA
331
2D9
  5
2E0
331
2DA
  5
2E3
331
2DB
  5
2E4
  0
SORTENTSTABLE
  5
3CC
102
{ACAD_REACTORS
330
3CB
102
}
330
3CB
100
AcDbSortentsTable
330
3C9
  0
DICTIONARY
  5
3FD
102
{ACAD_REACTORS
330
3FC
102
}
330
3FC
100
AcDbDictionary
281
     1
  3
ACAD_ASSOCNETWORK
350
3FE
  0
ACDB_DYNAMICBLOCKPURGEPREVENTER_VERSION
  5
405
102
{ACAD_REACTORS
330
3FC
102
}
330
3FC
100
AcDbDynamicBlockPurgePreventer
 70
     1
  0
XRECORD
  5
6C5
102
{ACAD_REACTORS
330
6C4
102
}
330
6C4
100
AcDbXrecord
280
     1
 90
        0
 70
     2
 70
     0
 90
        1
 90
        1
 90
        9
310
0000000000000000
  0
DICTIONARY
  5
628
102
{ACAD_REACTORS
330
627
102
}
330
627
100
AcDbDictionary
280
     1
281
     1
  3
SPATIAL
360
629
  0
DICTIONARY
  5
62B
102
{ACAD_REACTORS
330
62A
102
}
330
62A
100
AcDbDictionary
280
     1
281
     1
  3
SPATIAL
360
62C
  0
DICTIONARY
  5
62E
102
{ACAD_REACTORS
330
62D
102
}
330
62D
100
AcDbDictionary
280
     1
281
     1
  3
SPATIAL
360
62F
  0
DICTIONARY
  5
631
102
{ACAD_REACTORS
330
630
102
}
330
630
100
AcDbDictionary
280
     1
281
     1
  3
SPATIAL
360
632
  0
DICTIONARY
  5
634
102
{ACAD_REACTORS
330
633
102
}
330
633
100
AcDbDictionary
280
     1
281
     1
  3
SPATIAL
360
635
  0
DICTIONARY
  5
637
102
{ACAD_REACTORS
330
636
102
}
330
636
100
AcDbDictionary
280
     1
281
     1
  3
SPATIAL
360
638
  0
DICTIONARY
  5
63A
102
{ACAD_REACTORS
330
639
102
}
330
639
100
AcDbDictionary
280
     1
281
     1
  3
SPATIAL
360
63B
  0
DICTIONARY
  5
63D
102
{ACAD_REACTORS
330
63C
102
}
330
63C
100
AcDbDictionary
280
     1
281
     1
  3
SPATIAL
360
63E
  0
DICTIONARY
  5
640
102
{ACAD_REACTORS
330
63F
102
}
330
63F
100
AcDbDictionary
280
     1
281
     1
  3
SPATIAL
360
641
  0
DICTIONARY
  5
643
102
{ACAD_REACTORS
330
642
102
}
330
642
100
AcDbDictionary
280
     1
281
     1
  3
SPATIAL
360
644
  0
DICTIONARY
  5
646
102
{ACAD_REACTORS
330
645
102
}
330
645
100
AcDbDictionary
280
     1
281
     1
  3
SPATIAL
360
647
  0
DICTIONARY
  5
649
102
{ACAD_REACTORS
330
648
102
}
330
648
100
AcDbDictionary
280
     1
281
     1
  3
SPATIAL
360
64A
  0
DICTIONARY
  5
64C
102
{ACAD_REACTORS
330
64B
102
}
330
64B
100
AcDbDictionary
280
     1
281
     1
  3
SPATIAL
360
64D
  0
DICTIONARY
  5
64F
102
{ACAD_REACTORS
330
64E
102
}
330
64E
100
AcDbDictionary
280
     1
281
     1
  3
SPATIAL
360
650
  0
DICTIONARY
  5
652
102
{ACAD_REACTORS
330
651
102
}
330
651
100
AcDbDictionary
280
     1
281
     1
  3
SPATIAL
360
653
  0
DICTIONARY
  5
655
102
{ACAD_REACTORS
330
654
102
}
330
654
100
AcDbDictionary
280
     1
281
     1
  3
SPATIAL
360
656
  0
DICTIONARY
  5
658
102
{ACAD_REACTORS
330
657
102
}
330
657
100
AcDbDictionary
280
     1
281
     1
  3
SPATIAL
360
659
  0
DICTIONARY
  5
65B
102
{ACAD_REACTORS
330
65A
102
}
330
65A
100
AcDbDictionary
280
     1
281
     1
  3
SPATIAL
360
65C
  0
ACDBASSOCNETWORK
  5
313
102
{ACAD_REACTORS
330
312
102
}
330
312
100
AcDbAssocAction
 90
        2
 90
        0
330
0
360
0
 90
        0
 90
        0
 90
        0
 90
        0
 90
        0
 90
        0
 90
        0
100
AcDbAssocNetwork
 90
        0
 90
        3
 90
        2
330
311
330
3FE
 90
        0
  0
ACDBDETAILVIEWSTYLE
  5
254
102
{ACAD_REACTORS
330
253
102
}
330
253
100
AcDbModelDocViewStyle
 70
     0
  3
Imperial24
290
     0
300
Imperial24
 90
        0
100
AcDbDetailViewStyle
 70
     0
 71
     0
 90
        3
 71
     1
340
11
 62
   256
 40
0.24
340
0
 62
   256
 40
0.24
300

 40
0.36
280
     3
 71
     2
340
16
 90
       25
 62
   256
 71
     3
340
11
 62
   256
 40
0.24
 90
        1
 40
0.75
 90
        1
300
%<\AcVar ViewType \f "%tc1">% %<\AcVar ViewDetailId>%\PSCALE %<\AcVar ViewScale \f "%sn">%
 71
     4
340
16
 90
       25
 62
   256
340
16
 90
       25
 62
   256
280
     0
  0
ACDBDETAILVIEWSTYLE
  5
3E9
102
{ACAD_REACTORS
330
253
102
}
330
253
100
AcDbModelDocViewStyle
 70
     0
  3
Metric50
290
     0
300
Metric50
 90
        0
100
AcDbDetailViewStyle
 70
     0
 71
     0
 90
        3
 71
     1
340
11
 62
   256
 40
5.0
340
0
 62
   256
 40
5.0
300

 40
0.0
280
     1
 71
     2
340
16
 90
       25
 62
   256
 71
     3
340
11
 62
   256
 40
5.0
 90
        0
 40
15.0
 90
        1
300
%<\AcVar ViewDetailId>% (%<\AcVar ViewScale \f "%sn">%)
 71
     4
340
16
 90
       25
 62
   256
340
16
 90
       25
 62
   256
280
     0
  0
GROUP
  5
65D
102
{ACAD_REACTORS
330
D
102
}
330
D
100
AcDbGroup
300
Superhatch
 70
     1
 71
     1
340
60F
340
610
340
611
340
612
340
613
340
614
340
615
340
616
340
617
340
618
340
619
340
61A
340
61B
340
61C
340
61D
340
61E
340
61F
340
620
340
621
340
622
340
623
340
624
340
625
340
626
  0
IMAGEDEF
  5
376
102
{ACAD_REACTORS
330
280
330
39D
102
}
330
280
100
AcDbRasterImageDef
 90
        0
  1
P:\VERT-X CONSULTING LTD\2013\1310-015- Specialized Construction Products - Contract draughting (Scanned File)\Drawings\logo sharp.JPG
 10
2521.0
 20
901.0
 11
0.2645833333333333
 21
0.2645833333333333
280
     1
281
     5
  0
LAYOUT
  5
1E
102
{ACAD_REACTORS
330
1A
102
}
330
1A
100
AcDbPlotSettings
  1

  2
none_device
  4

  6

 40
0.0
 41
0.0
 42
0.0
 43
0.0
 44
0.0
 45
0.0
 46
0.0
 47
0.0
 48
0.0
 49
0.0
140
0.0
141
0.0
142
1.0
143
1.0
 70
   688
 72
     0
 73
     0
 74
     5
  7

 75
    16
147
1.0
 76
     0
 77
     2
 78
   300
148
0.0
149
0.0
100
AcDbLayout
  1
Layout1
 70
     1
 71
     1
 10
0.0
 20
0.0
 11
12.0
 21
9.0
 12
0.0
 22
0.0
 32
0.0
 14
1.000000000000000E+20
 24
1.000000000000000E+20
 34
1.000000000000000E+20
 15
-1.000000000000000E+20
 25
-1.000000000000000E+20
 35
-1.000000000000000E+20
146
0.0
 13
0.0
 23
0.0
 33
0.0
 16
1.0
 26
0.0
 36
0.0
 17
0.0
 27
1.0
 37
0.0
 76
     0
330
1B
  0
LAYOUT
  5
26
102
{ACAD_REACTORS
330
1A
102
}
330
1A
100
AcDbPlotSettings
  1

  2
none_device
  4

  6

 40
0.0
 41
0.0
 42
0.0
 43
0.0
 44
0.0
 45
0.0
 46
0.0
 47
0.0
 48
0.0
 49
0.0
140
0.0
141
0.0
142
1.0
143
1.0
 70
   688
 72
     0
 73
     0
 74
     5
  7

 75
    16
147
1.0
 76
     0
 77
     2
 78
   300
148
0.0
149
0.0
100
AcDbLayout
  1
Layout2
 70
     1
 71
     2
 10
0.0
 20
0.0
 11
0.0
 21
0.0
 12
0.0
 22
0.0
 32
0.0
 14
0.0
 24
0.0
 34
0.0
 15
0.0
 25
0.0
 35
0.0
146
0.0
 13
0.0
 23
0.0
 33
0.0
 16
1.0
 26
0.0
 36
0.0
 17
0.0
 27
1.0
 37
0.0
 76
     0
330
23
  0
LAYOUT
  5
22
102
{ACAD_REACTORS
330
1A
102
}
330
1A
100
AcDbPlotSettings
  1

  2
none_device
  4

  6

 40
0.0
 41
0.0
 42
0.0
 43
0.0
 44
0.0
 45
0.0
 46
0.0
 47
0.0
 48
0.0
 49
0.0
140
0.0
141
0.0
142
1.0
143
1.0
 70
  1712
 72
     0
 73
     0
 74
     0
  7

 75
     0
147
1.0
 76
     0
 77
     2
 78
   300
148
0.0
149
0.0
100
AcDbLayout
  1
Model
 70
     1
 71
     0
 10
0.0
 20
0.0
 11
12.0
 21
9.0
 12
0.0
 22
0.0
 32
0.0
 14
1.000000000000000E+20
 24
1.000000000000000E+20
 34
1.000000000000000E+20
 15
-1.000000000000000E+20
 25
-1.000000000000000E+20
 35
-1.000000000000000E+20
146
0.0
 13
0.0
 23
0.0
 33
0.0
 16
1.0
 26
0.0
 36
0.0
 17
0.0
 27
1.0
 37
0.0
 76
     0
330
1F
331
29
  0
MATERIAL
  5
3D
102
{ACAD_REACTORS
330
3B
102
}
330
3B
100
AcDbMaterial
  1
ByBlock
 73
     1
 78
     1
172
     1
176
     1
270
     1
274
     1
  0
MATERIAL
  5
3C
102
{ACAD_REACTORS
330
3B
102
}
330
3B
100
AcDbMaterial
  1
ByLayer
 73
     1
 78
     1
172
     1
176
     1
270
     1
274
     1
  0
MATERIAL
  5
3E
102
{ACAD_REACTORS
330
3B
102
}
330
3B
100
AcDbMaterial
  1
Global
 73
     1
 78
     1
172
     1
176
     1
270
     1
274
     1
  0
MLEADERSTYLE
  5
250
102
{ACAD_REACTORS
330
241
102
}
330
241
100
AcDbMLeaderStyle
179
     2
170
     2
171
     1
172
     0
 90
        2
 40
0.0
 41
0.0
173
     1
 91
-1056964608
340
14
 92
       -2
290
     1
 42
0.09
291
     1
 43
0.36
  3
Standard
 44
0.18
300

342
11
174
     1
178
     6
175
     1
176
     0
 93
-1056964608
 45
0.18
292
     0
297
     0
 46
0.18
 94
-1056964608
 47
1.0
 49
1.0
140
1.0
293
     1
141
0.0
294
     1
177
     0
142
1.0
295
     1
296
     0
143
0.125
271
     0
272
     9
273
     9
298
     1
  0
MLINESTYLE
  5
18
102
{ACAD_REACTORS
330
17
102
}
330
17
100
AcDbMlineStyle
  2
STANDARD
 70
     0
  3

 62
   256
 51
90.0
 52
90.0
 71
     2
 49
0.5
 62
   256
  6
BYLAYER
 49
-0.5
 62
   256
  6
BYLAYER
  0
PDFDEFINITION
  5
3ED
102
{ACAD_REACTORS
330
3EC
330
3F7
102
}
330
3EC
100
AcDbUnderlayDefinition
  1
..\received drawings\thermashell logo.pdf
  2
1
  0
ACDBPLACEHOLDER
  5
F
102
{ACAD_REACTORS
330
E
102
}
330
E
  0
SCALE
  5
1A0
102
{ACAD_REACTORS
330
19F
102
}
330
19F
100
AcDbScale
 70
     0
300
1:1
140
1.0
141
1.0
290
     1
  0
SCALE
  5
1A1
102
{ACAD_REACTORS
330
19F
102
}
330
19F
100
AcDbScale
 70
     0
300
1:2
140
1.0
141
2.0
290
     0
  0
SCALE
  5
1A2
102
{ACAD_REACTORS
330
19F
102
}
330
19F
100
AcDbScale
 70
     0
300
1:4
140
1.0
141
4.0
290
     0
  0
SCALE
  5
1A3
102
{ACAD_REACTORS
330
19F
102
}
330
19F
100
AcDbScale
 70
     0
300
1:5
140
1.0
141
5.0
290
     0
  0
SCALE
  5
1A4
102
{ACAD_REACTORS
330
19F
102
}
330
19F
100
AcDbScale
 70
     0
300
1:8
140
1.0
141
8.0
290
     0
  0
SCALE
  5
1A5
102
{ACAD_REACTORS
330
19F
102
}
330
19F
100
AcDbScale
 70
     0
300
1:10
140
1.0
141
10.0
290
     0
  0
SCALE
  5
1A6
102
{ACAD_REACTORS
330
19F
102
}
330
19F
100
AcDbScale
 70
     0
300
1:16
140
1.0
141
16.0
290
     0
  0
SCALE
  5
1A7
102
{ACAD_REACTORS
330
19F
102
}
330
19F
100
AcDbScale
 70
     0
300
1:20
140
1.0
141
20.0
290
     0
  0
SCALE
  5
1A8
102
{ACAD_REACTORS
330
19F
102
}
330
19F
100
AcDbScale
 70
     0
300
1:30
140
1.0
141
30.0
290
     0
  0
SCALE
  5
1A9
102
{ACAD_REACTORS
330
19F
102
}
330
19F
100
AcDbScale
 70
     0
300
1:40
140
1.0
141
40.0
290
     0
  0
SCALE
  5
1AA
102
{ACAD_REACTORS
330
19F
102
}
330
19F
100
AcDbScale
 70
     0
300
1:50
140
1.0
141
50.0
290
     0
  0
SCALE
  5
1AB
102
{ACAD_REACTORS
330
19F
102
}
330
19F
100
AcDbScale
 70
     0
300
1:100
140
1.0
141
100.0
290
     0
  0
SCALE
  5
1AC
102
{ACAD_REACTORS
330
19F
102
}
330
19F
100
AcDbScale
 70
     0
300
2:1
140
2.0
141
1.0
290
     0
  0
SCALE
  5
1AD
102
{ACAD_REACTORS
330
19F
102
}
330
19F
100
AcDbScale
 70
     0
300
4:1
140
4.0
141
1.0
290
     0
  0
SCALE
  5
1AE
102
{ACAD_REACTORS
330
19F
102
}
330
19F
100
AcDbScale
 70
     0
300
8:1
140
8.0
141
1.0
290
     0
  0
SCALE
  5
1AF
102
{ACAD_REACTORS
330
19F
102
}
330
19F
100
AcDbScale
 70
     0
300
10:1
140
10.0
141
1.0
290
     0
  0
SCALE
  5
1B0
102
{ACAD_REACTORS
330
19F
102
}
330
19F
100
AcDbScale
 70
     0
300
100:1
140
100.0
141
1.0
290
     0
  0
SCALE
  5
1B1
102
{ACAD_REACTORS
330
19F
102
}
330
19F
100
AcDbScale
 70
     0
300
1/128" = 1'-0"
140
0.0078125
141
12.0
290
     0
  0
SCALE
  5
1B2
102
{ACAD_REACTORS
330
19F
102
}
330
19F
100
AcDbScale
 70
     0
300
1/64" = 1'-0"
140
0.015625
141
12.0
290
     0
  0
SCALE
  5
1B3
102
{ACAD_REACTORS
330
19F
102
}
330
19F
100
AcDbScale
 70
     0
300
1/32" = 1'-0"
140
0.03125
141
12.0
290
     0
  0
SCALE
  5
1B4
102
{ACAD_REACTORS
330
19F
102
}
330
19F
100
AcDbScale
 70
     0
300
1/16" = 1'-0"
140
0.0625
141
12.0
290
     0
  0
SCALE
  5
1B5
102
{ACAD_REACTORS
330
19F
102
}
330
19F
100
AcDbScale
 70
     0
300
3/32" = 1'-0"
140
0.09375
141
12.0
290
     0
  0
SCALE
  5
1B6
102
{ACAD_REACTORS
330
19F
102
}
330
19F
100
AcDbScale
 70
     0
300
1/8" = 1'-0"
140
0.125
141
12.0
290
     0
  0
SCALE
  5
1B7
102
{ACAD_REACTORS
330
19F
102
}
330
19F
100
AcDbScale
 70
     0
300
3/16" = 1'-0"
140
0.1875
141
12.0
290
     0
  0
SCALE
  5
1B8
102
{ACAD_REACTORS
330
19F
102
}
330
19F
100
AcDbScale
 70
     0
300
1/4" = 1'-0"
140
0.25
141
12.0
290
     0
  0
SCALE
  5
1B9
102
{ACAD_REACTORS
330
19F
102
}
330
19F
100
AcDbScale
 70
     0
300
3/8" = 1'-0"
140
0.375
141
12.0
290
     0
  0
SCALE
  5
1BA
102
{ACAD_REACTORS
330
19F
102
}
330
19F
100
AcDbScale
 70
     0
300
1/2" = 1'-0"
140
0.5
141
12.0
290
     0
  0
SCALE
  5
1BB
102
{ACAD_REACTORS
330
19F
102
}
330
19F
100
AcDbScale
 70
     0
300
3/4" = 1'-0"
140
0.75
141
12.0
290
     0
  0
SCALE
  5
1BC
102
{ACAD_REACTORS
330
19F
102
}
330
19F
100
AcDbScale
 70
     0
300
1" = 1'-0"
140
1.0
141
12.0
290
     0
  0
SCALE
  5
1BD
102
{ACAD_REACTORS
330
19F
102
}
330
19F
100
AcDbScale
 70
     0
300
1-1/2" = 1'-0"
140
1.5
141
12.0
290
     0
  0
SCALE
  5
1BE
102
{ACAD_REACTORS
330
19F
102
}
330
19F
100
AcDbScale
 70
     0
300
3" = 1'-0"
140
3.0
141
12.0
290
     0
  0
SCALE
  5
1BF
102
{ACAD_REACTORS
330
19F
102
}
330
19F
100
AcDbScale
 70
     0
300
6" = 1'-0"
140
6.0
141
12.0
290
     0
  0
SCALE
  5
1C0
102
{ACAD_REACTORS
330
19F
102
}
330
19F
100
AcDbScale
 70
     0
300
1'-0" = 1'-0"
140
12.0
141
12.0
290
     0
  0
ACDBSECTIONVIEWSTYLE
  5
252
102
{ACAD_REACTORS
330
251
102
}
330
251
100
AcDbModelDocViewStyle
 70
     0
  3
Imperial24
290
     0
300
Imperial24
 90
        0
100
AcDbSectionViewStyle
 70
     0
 71
     0
 90
       78
 71
     1
340
11
 62
   256
 40
0.24
340
0
340
0
 62
   256
 40
0.24
300
I, O, Q, S, X, Z
 40
0.48
 90
        3
 40
0.18
 90
        1
 71
     2
340
16
 90
       25
 62
   256
340
16
 90
       50
 62
   256
 40
0.24
 40
0.0
 40
0.24
 71
     3
340
11
 62
   256
 40
0.24
 90
        1
 40
0.75
 90
        1
300
%<\AcVar ViewType \f "%tc1">% %<\AcVar ViewSectionStartId>%-%<\AcVar ViewSectionEndId>%\PSCALE %<\AcVar ViewScale \f "%sn">%
 71
     4
 62
   256
 62
   257
300
ANSI31
 40
1.0
 90
        0
290
     0
290
     0
 90
        6
 40
0.0
 40
1.570796326794896
 40
0.2617993877991494
 40
1.308996938995747
 40
-0.2617993877991494
 40
1.832595714594046
  0
ACDBSECTIONVIEWSTYLE
  5
3E8
102
{ACAD_REACTORS
330
251
102
}
330
251
100
AcDbModelDocViewStyle
 70
     0
  3
Metric50
290
     0
300
Metric50
 90
        0
100
AcDbSectionViewStyle
 70
     0
 71
     0
 90
      102
 71
     1
340
11
 62
   256
 40
5.0
340
0
340
0
 62
   256
 40
5.0
300
I, O, Q, S, X, Z
 40
10.0
 90
        0
 40
2.5
 90
        0
 71
     2
340
16
 90
       25
 62
   256
340
16
 90
       50
 62
   256
 40
5.0
 40
2.5
 40
5.0
 71
     3
340
11
 62
   256
 40
5.0
 90
        0
 40
15.0
 90
        1
300
%<\AcVar ViewSectionStartId>%-%<\AcVar ViewSectionEndId>% (%<\AcVar ViewScale \f "%sn">%)
 71
     4
 62
   256
 62
   257
300
ANSI31
 40
1.0
 90
        0
290
     0
290
     0
 90
        6
 40
0.0
 40
1.570796326794896
 40
0.2617993877991494
 40
1.308996938995747
 40
-0.2617993877991494
 40
1.832595714594046
  0
TABLESTYLE
  5
24F
102
{ACAD_XDICTIONARY
360
6C6
102
}
102
{ACAD_REACTORS
330
240
102
}
330
240
100
AcDbTableStyle
280
     0
  3
Standard
 70
     0
 71
     0
 40
0.06
 41
0.06
280
     0
281
     0
  7
Standard
140
0.18
170
     2
 62
     0
 63
     7
283
     0
 90
      512
 91
        0
  1

274
    -2
284
     1
 64
     0
275
    -2
285
     1
 65
     0
276
    -2
286
     1
 66
     0
277
    -2
287
     1
 67
     0
278
    -2
288
     1
 68
     0
279
    -2
289
     1
 69
     0
  7
Standard
140
0.25
170
     5
 62
     0
 63
     7
283
     0
 90
      512
 91
        0
  1

274
    -2
284
     1
 64
     0
275
    -2
285
     1
 65
     0
276
    -2
286
     1
 66
     0
277
    -2
287
     1
 67
     0
278
    -2
288
     1
 68
     0
279
    -2
289
     1
 69
     0
  7
Standard
140
0.18
170
     5
 62
     0
 63
     7
283
     0
 90
      512
 91
        0
  1

274
    -2
284
     1
 64
     0
275
    -2
285
     1
 65
     0
276
    -2
286
     1
 66
     0
277
    -2
287
     1
 67
     0
278
    -2
288
     1
 68
     0
279
    -2
289
     1
 69
     0
  0
VISUALSTYLE
  5
2F
102
{ACAD_REACTORS
330
2A
102
}
330
2A
100
AcDbVisualStyle
  2
2dWireframe
 70
     4
177
     3
291
     0
 70
    58
 90
        0
176
     1
 90
        2
176
     1
 90
        0
176
     1
 90
        0
176
     1
 40
0.6
176
     1
 40
30.0
176
     1
 62
     7
420
 16777215
176
     1
 90
        1
176
     1
 90
        4
176
     1
 62
     7
176
     1
 62
   257
176
     1
 90
        1
176
     1
 90
        1
176
     1
 40
1.0
176
     1
 90
        0
176
     1
 62
   257
176
     1
 40
1.0
176
     1
 90
        1
176
     1
 90
        6
176
     1
 90
        2
176
     1
 62
     7
176
     1
 90
        5
176
     1
 90
        0
176
     1
 90
        0
176
     1
290
     0
176
     1
 90
        1
176
     1
 40
0.0
176
     1
 90
        0
176
     1
290
     1
176
     1
290
     1
176
     1
290
     0
176
     1
290
     0
176
     1
290
     0
176
     1
290
     0
176
     1
290
     0
176
     1
290
     0
176
     1
290
     0
176
     1
 90
       50
176
     1
 40
0.0
176
     1
 40
1.0
176
     1
 90
        0
176
     1
 62
    18
420
        0
176
     1
 90
       50
176
     1
 90
        3
176
     1
 62
     5
420
      255
176
     1
290
     0
176
     1
 90
       50
176
     1
 90
       50
176
     1
 90
       50
176
     1
290
     0
176
     1
 90
       50
176
     1
 62
   256
176
     0
 40
1.0
176
     0
 90
        2
176
     1
  1
strokes_ogs.tif
176
     1
290
     0
176
     1
 40
1.0
176
     1
 40
1.0
176
     1
  0
VISUALSTYLE
  5
31
102
{ACAD_REACTORS
330
2A
102
}
330
2A
100
AcDbVisualStyle
  2
3D Hidden
 70
     6
177
     3
291
     0
 70
    58
 90
        1
176
     1
 90
        2
176
     1
 90
        2
176
     1
 90
        0
176
     1
 40
0.6
176
     1
 40
30.0
176
     1
 62
     7
420
 16777215
176
     1
 90
        2
176
     1
 90
        2
176
     1
 62
     7
176
     1
 62
   257
176
     1
 90
        2
176
     1
 90
        1
176
     1
 40
40.0
176
     1
 90
        0
176
     1
 62
   257
176
     1
 40
1.0
176
     1
 90
        1
176
     1
 90
        6
176
     1
 90
        2
176
     1
 62
     7
176
     1
 90
        3
176
     1
 90
        0
176
     1
 90
        0
176
     1
290
     0
176
     1
 90
        1
176
     1
 40
0.0
176
     1
 90
        0
176
     1
290
     0
176
     1
290
     1
176
     1
290
     1
176
     1
290
     0
176
     1
290
     0
176
     1
290
     0
176
     1
290
     0
176
     1
290
     0
176
     1
290
     0
176
     1
 90
       50
176
     1
 40
0.0
176
     1
 40
1.0
176
     1
 90
        0
176
     1
 62
    18
420
        0
176
     1
 90
       50
176
     1
 90
        3
176
     1
 62
     5
420
      255
176
     1
290
     0
176
     1
 90
       50
176
     1
 90
       50
176
     1
 90
       50
176
     1
290
     0
176
     1
 90
       50
176
     1
 62
   256
176
     0
 40
1.0
176
     0
 90
        2
176
     1
  1
strokes_ogs.tif
176
     1
290
     0
176
     1
 40
1.0
176
     1
 40
1.0
176
     1
  0
VISUALSTYLE
  5
30
102
{ACAD_REACTORS
330
2A
102
}
330
2A
100
AcDbVisualStyle
  2
3dWireframe
 70
     5
177
     3
291
     0
 70
    58
 90
        0
176
     1
 90
        2
176
     1
 90
        0
176
     1
 90
        0
176
     1
 40
0.6
176
     1
 40
30.0
176
     1
 62
     7
420
 16777215
176
     1
 90
        1
176
     1
 90
        4
176
     1
 62
     7
176
     1
 62
   257
176
     1
 90
        1
176
     1
 90
        1
176
     1
 40
1.0
176
     1
 90
        0
176
     1
 62
   257
176
     1
 40
1.0
176
     1
 90
        1
176
     1
 90
        6
176
     1
 90
        2
176
     1
 62
     7
176
     1
 90
        5
176
     1
 90
        0
176
     1
 90
        0
176
     1
290
     0
176
     1
 90
        1
176
     1
 40
0.0
176
     1
 90
        0
176
     1
290
     0
176
     1
290
     1
176
     1
290
     1
176
     1
290
     0
176
     1
290
     0
176
     1
290
     0
176
     1
290
     0
176
     1
290
     0
176
     1
290
     0
176
     1
 90
       50
176
     1
 40
0.0
176
     1
 40
1.0
176
     1
 90
        0
176
     1
 62
    18
420
        0
176
     1
 90
       50
176
     1
 90
        3
176
     1
 62
     5
420
      255
176
     1
290
     0
176
     1
 90
       50
176
     1
 90
       50
176
     1
 90
       50
176
     1
290
     0
176
     1
 90
       50
176
     1
 62
   256
176
     0
 40
1.0
176
     0
 90
        2
176
     1
  1
strokes_ogs.tif
176
     1
290
     0
176
     1
 40
1.0
176
     1
 40
1.0
176
     1
  0
VISUALSTYLE
  5
32
102
{ACAD_REACTORS
330
2A
102
}
330
2A
100
AcDbVisualStyle
  2
Basic
 70
     7
177
     3
291
     1
 70
    58
 90
        1
176
     1
 90
        0
176
     1
 90
        1
176
     1
 90
        0
176
     1
 40
0.6
176
     1
 40
30.0
176
     1
 62
     7
420
 16777215
176
     1
 90
        0
176
     1
 90
        4
176
     1
 62
     7
176
     1
 62
   257
176
     1
 90
        1
176
     1
 90
        1
176
     1
 40
1.0
176
     1
 90
        8
176
     1
 62
     7
176
     1
 40
1.0
176
     1
 90
        1
176
     1
 90
        6
176
     1
 90
        2
176
     1
 62
     7
176
     1
 90
        5
176
     1
 90
        0
176
     1
 90
        0
176
     1
290
     0
176
     1
 90
        1
176
     1
 40
0.0
176
     1
 90
        0
176
     1
290
     0
176
     1
290
     1
176
     1
290
     1
176
     1
290
     0
176
     1
290
     0
176
     1
290
     0
176
     1
290
     0
176
     1
290
     0
176
     1
290
     0
176
     1
 90
       50
176
     1
 40
0.0
176
     1
 40
1.0
176
     1
 90
        0
176
     1
 62
    18
420
        0
176
     1
 90
       50
176
     1
 90
        3
176
     1
 62
     5
420
      255
176
     1
290
     0
176
     1
 90
       50
176
     1
 90
       50
176
     1
 90
       50
176
     1
290
     0
176
     1
 90
       50
176
     1
 62
   256
176
     0
 40
1.0
176
     0
 90
        2
176
     1
  1
strokes_ogs.tif
176
     1
290
     0
176
     1
 40
1.0
176
     1
 40
1.0
176
     1
  0
VISUALSTYLE
  5
36
102
{ACAD_REACTORS
330
2A
102
}
330
2A
100
AcDbVisualStyle
  2
Brighten
 70
    12
177
     3
291
     1
 70
    58
 90
        2
176
     1
 90
        2
176
     1
 90
        0
176
     1
 90
        0
176
     1
 40
0.6
176
     1
 40
30.0
176
     1
 62
     7
420
 16777215
176
     1
 90
        1
176
     1
 90
        4
176
     1
 62
     7
176
     1
 62
   257
176
     1
 90
        1
176
     1
 90
        1
176
     1
 40
1.0
176
     1
 90
        8
176
     1
 62
     7
176
     1
 40
1.0
176
     1
 90
        1
176
     1
 90
        6
176
     1
 90
        2
176
     1
 62
     7
176
     1
 90
        5
176
     1
 90
        0
176
     1
 90
        0
176
     1
290
     0
176
     1
 90
        1
176
     1
 40
50.0
176
     1
 90
        0
176
     1
290
     0
176
     1
290
     1
176
     1
290
     1
176
     1
290
     0
176
     1
290
     0
176
     1
290
     0
176
     1
290
     0
176
     1
290
     0
176
     1
290
     0
176
     1
 90
       50
176
     1
 40
0.0
176
     1
 40
1.0
176
     1
 90
        0
176
     1
 62
    18
420
        0
176
     1
 90
       50
176
     1
 90
        3
176
     1
 62
     5
420
      255
176
     1
290
     0
176
     1
 90
       50
176
     1
 90
       50
176
     1
 90
       50
176
     1
290
     0
176
     1
 90
       50
176
     1
 62
   256
176
     0
 40
1.0
176
     0
 90
        2
176
     1
  1
strokes_ogs.tif
176
     1
290
     0
176
     1
 40
1.0
176
     1
 40
1.0
176
     1
  0
VISUALSTYLE
  5
3A
102
{ACAD_REACTORS
330
2A
102
}
330
2A
100
AcDbVisualStyle
  2
ColorChange
 70
    16
177
     3
291
     1
 70
    58
 90
        2
176
     1
 90
        2
176
     1
 90
        3
176
     1
 90
        0
176
     1
 40
0.6
176
     1
 40
30.0
176
     1
 62
     8
420
  8421504
176
     1
 90
        1
176
     1
 90
        4
176
     1
 62
     7
176
     1
 62
   257
176
     1
 90
        1
176
     1
 90
        1
176
     1
 40
1.0
176
     1
 90
        8
176
     1
 62
     8
420
  8421504
176
     1
 40
1.0
176
     1
 90
        1
176
     1
 90
        6
176
     1
 90
        2
176
     1
 62
     7
176
     1
 90
        5
176
     1
 90
        0
176
     1
 90
        0
176
     1
290
     0
176
     1
 90
        1
176
     1
 40
0.0
176
     1
 90
        0
176
     1
290
     0
176
     1
290
     1
176
     1
290
     1
176
     1
290
     0
176
     1
290
     0
176
     1
290
     0
176
     1
290
     0
176
     1
290
     0
176
     1
290
     0
176
     1
 90
       50
176
     1
 40
0.0
176
     1
 40
1.0
176
     1
 90
        0
176
     1
 62
    18
420
        0
176
     1
 90
       50
176
     1
 90
        3
176
     1
 62
     5
420
      255
176
     1
290
     0
176
     1
 90
       50
176
     1
 90
       50
176
     1
 90
       50
176
     1
290
     0
176
     1
 90
       50
176
     1
 62
   256
176
     0
 40
1.0
176
     0
 90
        2
176
     1
  1
strokes_ogs.tif
176
     1
290
     0
176
     1
 40
1.0
176
     1
 40
1.0
176
     1
  0
VISUALSTYLE
  5
34
102
{ACAD_REACTORS
330
2A
102
}
330
2A
100
AcDbVisualStyle
  2
Conceptual
 70
     9
177
     3
291
     0
 70
    58
 90
        3
176
     1
 90
        2
176
     1
 90
        0
176
     1
 90
        0
176
     1
 40
0.6
176
     1
 40
30.0
176
     1
 62
     7
420
 16777215
176
     1
 90
        2
176
     1
 90
        2
176
     1
 62
     7
176
     1
 62
   257
176
     1
 90
        1
176
     1
 90
        1
176
     1
 40
40.0
176
     1
 90
        8
176
     1
 62
     7
176
     1
 40
1.0
176
     1
 90
        1
176
     1
 90
        6
176
     1
 90
        2
176
     1
 62
     7
176
     1
 90
        3
176
     1
 90
        0
176
     1
 90
        0
176
     1
290
     0
176
     1
 90
        1
176
     1
 40
0.0
176
     1
 90
        0
176
     1
290
     0
176
     1
290
     1
176
     1
290
     1
176
     1
290
     0
176
     1
290
     0
176
     1
290
     0
176
     1
290
     0
176
     1
290
     0
176
     1
290
     0
176
     1
 90
       50
176
     1
 40
0.0
176
     1
 40
1.0
176
     1
 90
        0
176
     1
 62
    18
420
        0
176
     1
 90
       50
176
     1
 90
        3
176
     1
 62
     5
420
      255
176
     1
290
     0
176
     1
 90
       50
176
     1
 90
       50
176
     1
 90
       50
176
     1
290
     0
176
     1
 90
       50
176
     1
 62
   256
176
     0
 40
1.0
176
     0
 90
        2
176
     1
  1
strokes_ogs.tif
176
     1
290
     0
176
     1
 40
1.0
176
     1
 40
1.0
176
     1
  0
VISUALSTYLE
  5
35
102
{ACAD_REACTORS
330
2A
102
}
330
2A
100
AcDbVisualStyle
  2
Dim
 70
    11
177
     3
291
     1
 70
    58
 90
        2
176
     1
 90
        2
176
     1
 90
        0
176
     1
 90
        0
176
     1
 40
0.6
176
     1
 40
30.0
176
     1
 62
     7
420
 16777215
176
     1
 90
        1
176
     1
 90
        4
176
     1
 62
     7
176
     1
 62
   257
176
     1
 90
        1
176
     1
 90
        1
176
     1
 40
1.0
176
     1
 90
        8
176
     1
 62
     7
176
     1
 40
1.0
176
     1
 90
        1
176
     1
 90
        6
176
     1
 90
        2
176
     1
 62
     7
176
     1
 90
        5
176
     1
 90
        0
176
     1
 90
        0
176
     1
290
     0
176
     1
 90
        1
176
     1
 40
-50.0
176
     1
 90
        0
176
     1
290
     0
176
     1
290
     1
176
     1
290
     1
176
     1
290
     0
176
     1
290
     0
176
     1
290
     0
176
     1
290
     0
176
     1
290
     0
176
     1
290
     0
176
     1
 90
       50
176
     1
 40
0.0
176
     1
 40
1.0
176
     1
 90
        0
176
     1
 62
    18
420
        0
176
     1
 90
       50
176
     1
 90
        3
176
     1
 62
     5
420
      255
176
     1
290
     0
176
     1
 90
       50
176
     1
 90
       50
176
     1
 90
       50
176
     1
290
     0
176
     1
 90
       50
176
     1
 62
   256
176
     0
 40
1.0
176
     0
 90
        2
176
     1
  1
strokes_ogs.tif
176
     1
290
     0
176
     1
 40
1.0
176
     1
 40
1.0
176
     1
  0
VISUALSTYLE
  5
24D
102
{ACAD_REACTORS
330
2A
102
}
330
2A
100
AcDbVisualStyle
  2
EdgeColorOff
 70
    22
177
     3
291
     1
 70
    58
 90
        2
176
     0
 90
        2
176
     0
 90
        0
176
     0
 90
        0
176
     0
 40
0.6
176
     0
 40
30.0
176
     0
 62
     7
420
 16777215
176
     0
 90
        1
176
     0
 90
        4
176
     0
 62
     7
176
     0
 62
   257
176
     0
 90
        1
176
     0
 90
        1
176
     0
 40
1.0
176
     0
 90
        8
176
     2
 62
     7
176
     0
 40
1.0
176
     0
 90
        1
176
     0
 90
        6
176
     0
 90
        2
176
     0
 62
     7
176
     0
 90
        5
176
     0
 90
        0
176
     0
 90
        0
176
     0
290
     0
176
     0
 90
        1
176
     0
 40
0.0
176
     0
 90
        0
176
     0
290
     0
176
     0
290
     1
176
     0
290
     1
176
     0
290
     0
176
     0
290
     0
176
     0
290
     0
176
     0
290
     0
176
     0
290
     0
176
     0
290
     0
176
     0
 90
       50
176
     0
 40
0.0
176
     0
 40
1.0
176
     0
 90
        0
176
     0
 62
    18
420
        0
176
     0
 90
       50
176
     0
 90
        3
176
     0
 62
     5
420
      255
176
     0
290
     0
176
     0
 90
       50
176
     0
 90
       50
176
     0
 90
       50
176
     0
290
     0
176
     0
 90
       50
176
     0
 62
   256
176
     0
 40
1.0
176
     0
 90
        2
176
     0
  1
strokes_ogs.tif
176
     0
290
     0
176
     0
 40
1.0
176
     0
 40
1.0
176
     0
  0
VISUALSTYLE
  5
39
102
{ACAD_REACTORS
330
2A
102
}
330
2A
100
AcDbVisualStyle
  2
Facepattern
 70
    15
177
     3
291
     1
 70
    58
 90
        2
176
     1
 90
        2
176
     1
 90
        0
176
     1
 90
        0
176
     1
 40
0.6
176
     1
 40
30.0
176
     1
 62
     7
420
 16777215
176
     1
 90
        1
176
     1
 90
        4
176
     1
 62
     7
176
     1
 62
   257
176
     1
 90
        1
176
     1
 90
        1
176
     1
 40
1.0
176
     1
 90
        8
176
     1
 62
     7
176
     1
 40
1.0
176
     1
 90
        1
176
     1
 90
        6
176
     1
 90
        2
176
     1
 62
     7
176
     1
 90
        5
176
     1
 90
        0
176
     1
 90
        0
176
     1
290
     0
176
     1
 90
        1
176
     1
 40
0.0
176
     1
 90
        0
176
     1
290
     0
176
     1
290
     1
176
     1
290
     1
176
     1
290
     0
176
     1
290
     0
176
     1
290
     0
176
     1
290
     0
176
     1
290
     0
176
     1
290
     0
176
     1
 90
       50
176
     1
 40
0.0
176
     1
 40
1.0
176
     1
 90
        0
176
     1
 62
    18
420
        0
176
     1
 90
       50
176
     1
 90
        3
176
     1
 62
     5
420
      255
176
     1
290
     0
176
     1
 90
       50
176
     1
 90
       50
176
     1
 90
       50
176
     1
290
     0
176
     1
 90
       50
176
     1
 62
   256
176
     0
 40
1.0
176
     0
 90
        2
176
     1
  1
strokes_ogs.tif
176
     1
290
     0
176
     1
 40
1.0
176
     1
 40
1.0
176
     1
  0
VISUALSTYLE
  5
2B
102
{ACAD_REACTORS
330
2A
102
}
330
2A
100
AcDbVisualStyle
  2
Flat
 70
     0
177
     3
291
     1
 70
    58
 90
        2
176
     1
 90
        1
176
     1
 90
        1
176
     1
 90
        2
176
     1
 40
0.6
176
     1
 40
30.0
176
     1
 62
     7
420
 16777215
176
     1
 90
        0
176
     1
 90
        4
176
     1
 62
     7
176
     1
 62
   257
176
     1
 90
        1
176
     1
 90
        1
176
     1
 40
1.0
176
     1
 90
        8
176
     1
 62
     7
176
     1
 40
1.0
176
     1
 90
        1
176
     1
 90
        6
176
     1
 90
        2
176
     1
 62
     7
176
     1
 90
        5
176
     1
 90
        0
176
     1
 90
        0
176
     1
290
     0
176
     1
 90
       13
176
     1
 40
0.0
176
     1
 90
        0
176
     1
290
     0
176
     1
290
     1
176
     1
290
     1
176
     1
290
     0
176
     1
290
     0
176
     1
290
     0
176
     1
290
     0
176
     1
290
     0
176
     1
290
     0
176
     1
 90
       50
176
     1
 40
0.0
176
     1
 40
1.0
176
     1
 90
        0
176
     1
 62
    18
420
        0
176
     1
 90
       50
176
     1
 90
        3
176
     1
 62
     5
420
      255
176
     1
290
     0
176
     1
 90
       50
176
     1
 90
       50
176
     1
 90
       50
176
     1
290
     0
176
     1
 90
       50
176
     1
 62
   256
176
     0
 40
1.0
176
     0
 90
        2
176
     1
  1
strokes_ogs.tif
176
     1
290
     0
176
     1
 40
1.0
176
     1
 40
1.0
176
     1
  0
VISUALSTYLE
  5
2C
102
{ACAD_REACTORS
330
2A
102
}
330
2A
100
AcDbVisualStyle
  2
FlatWithEdges
 70
     1
177
     3
291
     1
 70
    58
 90
        2
176
     1
 90
        1
176
     1
 90
        1
176
     1
 90
        2
176
     1
 40
0.6
176
     1
 40
30.0
176
     1
 62
     7
420
 16777215
176
     1
 90
        1
176
     1
 90
        4
176
     1
 62
     7
176
     1
 62
   257
176
     1
 90
        1
176
     1
 90
        1
176
     1
 40
1.0
176
     1
 90
        0
176
     1
 62
   257
176
     1
 40
1.0
176
     1
 90
        1
176
     1
 90
        6
176
     1
 90
        2
176
     1
 62
     7
176
     1
 90
        5
176
     1
 90
        0
176
     1
 90
        0
176
     1
290
     0
176
     1
 90
       13
176
     1
 40
0.0
176
     1
 90
        0
176
     1
290
     0
176
     1
290
     1
176
     1
290
     1
176
     1
290
     0
176
     1
290
     0
176
     1
290
     0
176
     1
290
     0
176
     1
290
     0
176
     1
290
     0
176
     1
 90
       50
176
     1
 40
0.0
176
     1
 40
1.0
176
     1
 90
        0
176
     1
 62
    18
420
        0
176
     1
 90
       50
176
     1
 90
        3
176
     1
 62
     5
420
      255
176
     1
290
     0
176
     1
 90
       50
176
     1
 90
       50
176
     1
 90
       50
176
     1
290
     0
176
     1
 90
       50
176
     1
 62
   256
176
     0
 40
1.0
176
     0
 90
        2
176
     1
  1
strokes_ogs.tif
176
     1
290
     0
176
     1
 40
1.0
176
     1
 40
1.0
176
     1
  0
VISUALSTYLE
  5
2D
102
{ACAD_REACTORS
330
2A
102
}
330
2A
100
AcDbVisualStyle
  2
Gouraud
 70
     2
177
     3
291
     1
 70
    58
 90
        2
176
     1
 90
        2
176
     1
 90
        1
176
     1
 90
        2
176
     1
 40
0.6
176
     1
 40
30.0
176
     1
 62
     7
420
 16777215
176
     1
 90
        0
176
     1
 90
        4
176
     1
 62
     7
176
     1
 62
   257
176
     1
 90
        1
176
     1
 90
        1
176
     1
 40
1.0
176
     1
 90
        0
176
     1
 62
     7
176
     1
 40
1.0
176
     1
 90
        1
176
     1
 90
        6
176
     1
 90
        2
176
     1
 62
     7
176
     1
 90
        5
176
     1
 90
        0
176
     1
 90
        0
176
     1
290
     0
176
     1
 90
       13
176
     1
 40
0.0
176
     1
 90
        0
176
     1
290
     0
176
     1
290
     1
176
     1
290
     1
176
     1
290
     0
176
     1
290
     0
176
     1
290
     0
176
     1
290
     0
176
     1
290
     0
176
     1
290
     0
176
     1
 90
       50
176
     1
 40
0.0
176
     1
 40
1.0
176
     1
 90
        0
176
     1
 62
    18
420
        0
176
     1
 90
       50
176
     1
 90
        3
176
     1
 62
     5
420
      255
176
     1
290
     0
176
     1
 90
       50
176
     1
 90
       50
176
     1
 90
       50
176
     1
290
     0
176
     1
 90
       50
176
     1
 62
   256
176
     0
 40
1.0
176
     0
 90
        2
176
     1
  1
strokes_ogs.tif
176
     1
290
     0
176
     1
 40
1.0
176
     1
 40
1.0
176
     1
  0
VISUALSTYLE
  5
2E
102
{ACAD_REACTORS
330
2A
102
}
330
2A
100
AcDbVisualStyle
  2
GouraudWithEdges
 70
     3
177
     3
291
     1
 70
    58
 90
        2
176
     1
 90
        2
176
     1
 90
        1
176
     1
 90
        2
176
     1
 40
0.6
176
     1
 40
30.0
176
     1
 62
     7
420
 16777215
176
     1
 90
        1
176
     1
 90
        4
176
     1
 62
     7
176
     1
 62
   257
176
     1
 90
        1
176
     1
 90
        1
176
     1
 40
1.0
176
     1
 90
        0
176
     1
 62
   257
176
     1
 40
1.0
176
     1
 90
        1
176
     1
 90
        6
176
     1
 90
        2
176
     1
 62
     7
176
     1
 90
        5
176
     1
 90
        0
176
     1
 90
        0
176
     1
290
     0
176
     1
 90
       13
176
     1
 40
0.0
176
     1
 90
        0
176
     1
290
     0
176
     1
290
     1
176
     1
290
     1
176
     1
290
     0
176
     1
290
     0
176
     1
290
     0
176
     1
290
     0
176
     1
290
     0
176
     1
290
     0
176
     1
 90
       50
176
     1
 40
0.0
176
     1
 40
1.0
176
     1
 90
        0
176
     1
 62
    18
420
        0
176
     1
 90
       50
176
     1
 90
        3
176
     1
 62
     5
420
      255
176
     1
290
     0
176
     1
 90
       50
176
     1
 90
       50
176
     1
 90
       50
176
     1
290
     0
176
     1
 90
       50
176
     1
 62
   256
176
     0
 40
1.0
176
     0
 90
        2
176
     1
  1
strokes_ogs.tif
176
     1
290
     0
176
     1
 40
1.0
176
     1
 40
1.0
176
     1
  0
VISUALSTYLE
  5
245
102
{ACAD_REACTORS
330
2A
102
}
330
2A
100
AcDbVisualStyle
  2
Hidden
 70
     6
177
     3
291
     0
 70
    58
 90
        1
176
     1
 90
        2
176
     1
 90
        2
176
     1
 90
        0
176
     1
 40
0.6
176
     1
 40
30.0
176
     1
 62
     7
420
 16777215
176
     1
 90
        2
176
     1
 90
        2
176
     1
 62
     7
176
     1
 62
   257
176
     1
 90
        2
176
     1
 90
        1
176
     1
 40
40.0
176
     1
 90
        0
176
     1
 62
   257
176
     1
 40
1.0
176
     1
 90
        1
176
     1
 90
        6
176
     1
 90
        2
176
     1
 62
     7
176
     1
 90
        3
176
     1
 90
        0
176
     1
 90
        0
176
     1
290
     0
176
     1
 90
        1
176
     1
 40
0.0
176
     1
 90
        0
176
     1
290
     0
176
     1
290
     1
176
     1
290
     1
176
     1
290
     0
176
     1
290
     0
176
     1
290
     0
176
     1
290
     0
176
     1
290
     0
176
     1
290
     0
176
     1
 90
       50
176
     1
 40
0.0
176
     1
 40
1.0
176
     1
 90
        0
176
     1
 62
    18
420
        0
176
     1
 90
       50
176
     1
 90
        3
176
     1
 62
     5
420
      255
176
     1
290
     0
176
     1
 90
       50
176
     1
 90
       50
176
     1
 90
       50
176
     1
290
     0
176
     1
 90
       50
176
     1
 62
   256
176
     0
 40
1.0
176
     0
 90
        2
176
     1
  1
strokes_ogs.tif
176
     1
290
     0
176
     1
 40
1.0
176
     1
 40
1.0
176
     1
  0
VISUALSTYLE
  5
24B
102
{ACAD_REACTORS
330
2A
102
}
330
2A
100
AcDbVisualStyle
  2
JitterOff
 70
    20
177
     3
291
     1
 70
    58
 90
        2
176
     0
 90
        2
176
     0
 90
        0
176
     0
 90
        0
176
     0
 40
0.6
176
     0
 40
30.0
176
     0
 62
     7
420
 16777215
176
     0
 90
        1
176
     0
 90
        4
176
     0
 62
     7
176
     0
 62
   257
176
     0
 90
        1
176
     0
 90
        1
176
     0
 40
1.0
176
     0
 90
       10
176
     2
 62
     7
176
     0
 40
1.0
176
     0
 90
        1
176
     0
 90
        6
176
     0
 90
        2
176
     0
 62
     7
176
     0
 90
        5
176
     0
 90
        0
176
     0
 90
        0
176
     0
290
     0
176
     0
 90
        1
176
     0
 40
0.0
176
     0
 90
        0
176
     0
290
     0
176
     0
290
     1
176
     0
290
     1
176
     0
290
     0
176
     0
290
     0
176
     0
290
     0
176
     0
290
     0
176
     0
290
     0
176
     0
290
     0
176
     0
 90
       50
176
     0
 40
0.0
176
     0
 40
1.0
176
     0
 90
        0
176
     0
 62
    18
420
        0
176
     0
 90
       50
176
     0
 90
        3
176
     0
 62
     5
420
      255
176
     0
290
     0
176
     0
 90
       50
176
     0
 90
       50
176
     0
 90
       50
176
     0
290
     0
176
     0
 90
       50
176
     0
 62
   256
176
     0
 40
1.0
176
     0
 90
        2
176
     0
  1
strokes_ogs.tif
176
     0
290
     0
176
     0
 40
1.0
176
     0
 40
1.0
176
     0
  0
VISUALSTYLE
  5
38
102
{ACAD_REACTORS
330
2A
102
}
330
2A
100
AcDbVisualStyle
  2
Linepattern
 70
    14
177
     3
291
     1
 70
    58
 90
        2
176
     1
 90
        2
176
     1
 90
        0
176
     1
 90
        0
176
     1
 40
0.6
176
     1
 40
30.0
176
     1
 62
     7
420
 16777215
176
     1
 90
        1
176
     1
 90
        4
176
     1
 62
     7
176
     1
 62
   257
176
     1
 90
        7
176
     1
 90
        7
176
     1
 40
1.0
176
     1
 90
        8
176
     1
 62
     7
176
     1
 40
1.0
176
     1
 90
        1
176
     1
 90
        6
176
     1
 90
        2
176
     1
 62
     7
176
     1
 90
        5
176
     1
 90
        0
176
     1
 90
        0
176
     1
290
     0
176
     1
 90
        1
176
     1
 40
0.0
176
     1
 90
        0
176
     1
290
     0
176
     1
290
     1
176
     1
290
     1
176
     1
290
     0
176
     1
290
     0
176
     1
290
     0
176
     1
290
     0
176
     1
290
     0
176
     1
290
     0
176
     1
 90
       50
176
     1
 40
0.0
176
     1
 40
1.0
176
     1
 90
        0
176
     1
 62
    18
420
        0
176
     1
 90
       50
176
     1
 90
        3
176
     1
 62
     5
420
      255
176
     1
290
     0
176
     1
 90
       50
176
     1
 90
       50
176
     1
 90
       50
176
     1
290
     0
176
     1
 90
       50
176
     1
 62
   256
176
     0
 40
1.0
176
     0
 90
        2
176
     1
  1
strokes_ogs.tif
176
     1
290
     0
176
     1
 40
1.0
176
     1
 40
1.0
176
     1
  0
VISUALSTYLE
  5
24C
102
{ACAD_REACTORS
330
2A
102
}
330
2A
100
AcDbVisualStyle
  2
OverhangOff
 70
    21
177
     3
291
     1
 70
    58
 90
        2
176
     0
 90
        2
176
     0
 90
        0
176
     0
 90
        0
176
     0
 40
0.6
176
     0
 40
30.0
176
     0
 62
     7
420
 16777215
176
     0
 90
        1
176
     0
 90
        4
176
     0
 62
     7
176
     0
 62
   257
176
     0
 90
        1
176
     0
 90
        1
176
     0
 40
1.0
176
     0
 90
        9
176
     2
 62
     7
176
     0
 40
1.0
176
     0
 90
        1
176
     0
 90
        6
176
     0
 90
        2
176
     0
 62
     7
176
     0
 90
        5
176
     0
 90
        0
176
     0
 90
        0
176
     0
290
     0
176
     0
 90
        1
176
     0
 40
0.0
176
     0
 90
        0
176
     0
290
     0
176
     0
290
     1
176
     0
290
     1
176
     0
290
     0
176
     0
290
     0
176
     0
290
     0
176
     0
290
     0
176
     0
290
     0
176
     0
290
     0
176
     0
 90
       50
176
     0
 40
0.0
176
     0
 40
1.0
176
     0
 90
        0
176
     0
 62
    18
420
        0
176
     0
 90
       50
176
     0
 90
        3
176
     0
 62
     5
420
      255
176
     0
290
     0
176
     0
 90
       50
176
     0
 90
       50
176
     0
 90
       50
176
     0
290
     0
176
     0
 90
       50
176
     0
 62
   256
176
     0
 40
1.0
176
     0
 90
        2
176
     0
  1
strokes_ogs.tif
176
     0
290
     0
176
     0
 40
1.0
176
     0
 40
1.0
176
     0
  0
VISUALSTYLE
  5
33
102
{ACAD_REACTORS
330
2A
102
}
330
2A
100
AcDbVisualStyle
  2
Realistic
 70
     8
177
     3
291
     0
 70
    58
 90
        2
176
     1
 90
        2
176
     1
 90
        0
176
     1
 90
        0
176
     1
 40
0.6
176
     1
 40
30.0
176
     1
 62
     7
420
 16777215
176
     1
 90
        1
176
     1
 90
        0
176
     1
 62
     7
176
     1
 62
   257
176
     1
 90
        1
176
     1
 90
        1
176
     1
 40
1.0
176
     1
 90
        8
176
     1
 62
     8
420
  7895160
176
     1
 40
1.0
176
     1
 90
        1
176
     1
 90
        6
176
     1
 90
        2
176
     1
 62
     7
176
     1
 90
        5
176
     1
 90
        0
176
     1
 90
        0
176
     1
290
     0
176
     1
 90
       13
176
     1
 40
0.0
176
     1
 90
        0
176
     1
290
     0
176
     1
290
     1
176
     1
290
     1
176
     1
290
     0
176
     1
290
     0
176
     1
290
     0
176
     1
290
     0
176
     1
290
     0
176
     1
290
     0
176
     1
 90
       50
176
     1
 40
0.0
176
     1
 40
1.0
176
     1
 90
        0
176
     1
 62
    18
420
        0
176
     1
 90
       50
176
     1
 90
        3
176
     1
 62
     5
420
      255
176
     1
290
     0
176
     1
 90
       50
176
     1
 90
       50
176
     1
 90
       50
176
     1
290
     0
176
     1
 90
       50
176
     1
 62
   256
176
     0
 40
1.0
176
     0
 90
        2
176
     1
  1
strokes_ogs.tif
176
     1
290
     0
176
     1
 40
1.0
176
     1
 40
1.0
176
     1
  0
VISUALSTYLE
  5
24A
102
{ACAD_REACTORS
330
2A
102
}
330
2A
100
AcDbVisualStyle
  2
Shaded
 70
    27
177
     3
291
     0
 70
    58
 90
        2
176
     1
 90
        2
176
     1
 90
        1
176
     1
 90
        2
176
     1
 40
0.6
176
     1
 40
30.0
176
     1
 62
     7
420
 16777215
176
     1
 90
        0
176
     1
 90
        4
176
     1
 62
     7
176
     1
 62
   257
176
     1
 90
        1
176
     1
 90
        1
176
     1
 40
1.0
176
     1
 90
        8
176
     1
 62
   257
176
     1
 40
1.0
176
     1
 90
        1
176
     1
 90
        6
176
     1
 90
        2
176
     1
 62
     8
420
  7895160
176
     1
 90
        3
176
     1
 90
        0
176
     1
 90
        0
176
     1
290
     0
176
     1
 90
        5
176
     1
 40
0.0
176
     1
 90
        0
176
     1
290
     0
176
     1
290
     1
176
     1
290
     1
176
     1
290
     0
176
     1
290
     0
176
     1
290
     0
176
     1
290
     0
176
     1
290
     0
176
     1
290
     0
176
     1
 90
       50
176
     1
 40
0.0
176
     1
 40
1.0
176
     1
 90
        0
176
     1
 62
    18
420
        0
176
     1
 90
       50
176
     1
 90
        3
176
     1
 62
     5
420
      255
176
     1
290
     0
176
     1
 90
       50
176
     1
 90
       50
176
     1
 90
       50
176
     1
290
     0
176
     1
 90
       50
176
     1
 62
   256
176
     0
 40
1.0
176
     0
 90
        2
176
     1
  1
strokes_ogs.tif
176
     1
290
     0
176
     1
 40
1.0
176
     1
 40
1.0
176
     1
  0
VISUALSTYLE
  5
249
102
{ACAD_REACTORS
330
2A
102
}
330
2A
100
AcDbVisualStyle
  2
Shaded with edges
 70
    26
177
     3
291
     0
 70
    58
 90
        2
176
     1
 90
        2
176
     1
 90
        1
176
     1
 90
        2
176
     1
 40
0.6
176
     1
 40
30.0
176
     1
 62
     7
420
 16777215
176
     1
 90
        1
176
     1
 90
        2
176
     1
 62
     7
176
     1
 62
   257
176
     1
 90
        2
176
     1
 90
        1
176
     1
 40
1.0
176
     1
 90
        8
176
     1
 62
   257
176
     1
 40
1.0
176
     1
 90
        1
176
     1
 90
        6
176
     1
 90
        2
176
     1
 62
     7
176
     1
 90
        3
176
     1
 90
        0
176
     1
 90
        0
176
     1
290
     0
176
     1
 90
        5
176
     1
 40
0.0
176
     1
 90
        0
176
     1
290
     0
176
     1
290
     1
176
     1
290
     1
176
     1
290
     0
176
     1
290
     0
176
     1
290
     0
176
     1
290
     0
176
     1
290
     0
176
     1
290
     0
176
     1
 90
       50
176
     1
 40
0.0
176
     1
 40
1.0
176
     1
 90
        0
176
     1
 62
    18
420
        0
176
     1
 90
       50
176
     1
 90
        3
176
     1
 62
     5
420
      255
176
     1
290
     0
176
     1
 90
       50
176
     1
 90
       50
176
     1
 90
       50
176
     1
290
     0
176
     1
 90
       50
176
     1
 62
   256
176
     0
 40
1.0
176
     0
 90
        2
176
     1
  1
strokes_ogs.tif
176
     1
290
     0
176
     1
 40
1.0
176
     1
 40
1.0
176
     1
  0
VISUALSTYLE
  5
246
102
{ACAD_REACTORS
330
2A
102
}
330
2A
100
AcDbVisualStyle
  2
Shades of Gray
 70
    23
177
     3
291
     0
 70
    58
 90
        2
176
     1
 90
        2
176
     1
 90
        3
176
     1
 90
        0
176
     1
 40
0.6
176
     1
 40
30.0
176
     1
 62
     7
420
 16777215
176
     1
 90
        2
176
     1
 90
        2
176
     1
 62
     7
176
     1
 62
     7
176
     1
 90
        1
176
     1
 90
        1
176
     1
 40
40.0
176
     1
 90
        8
176
     1
 62
     7
176
     1
 40
1.0
176
     1
 90
        1
176
     1
 90
        6
176
     1
 90
        2
176
     1
 62
     7
176
     1
 90
        3
176
     1
 90
        0
176
     1
 90
        0
176
     1
290
     0
176
     1
 90
        1
176
     1
 40
0.0
176
     1
 90
        0
176
     1
290
     0
176
     1
290
     1
176
     1
290
     1
176
     1
290
     0
176
     1
290
     0
176
     1
290
     0
176
     1
290
     0
176
     1
290
     0
176
     1
290
     0
176
     1
 90
       50
176
     1
 40
0.0
176
     1
 40
1.0
176
     1
 90
        0
176
     1
 62
    18
420
        0
176
     1
 90
       50
176
     1
 90
        3
176
     1
 62
     5
420
      255
176
     1
290
     0
176
     1
 90
       50
176
     1
 90
       50
176
     1
 90
       50
176
     1
290
     0
176
     1
 90
       50
176
     1
 62
   256
176
     0
 40
1.0
176
     0
 90
        2
176
     1
  1
strokes_ogs.tif
176
     1
290
     0
176
     1
 40
1.0
176
     1
 40
1.0
176
     1
  0
VISUALSTYLE
  5
247
102
{ACAD_REACTORS
330
2A
102
}
330
2A
100
AcDbVisualStyle
  2
Sketchy
 70
    24
177
     3
291
     0
 70
    58
 90
        1
176
     1
 90
        2
176
     1
 90
        2
176
     1
 90
        0
176
     1
 40
0.6
176
     1
 40
30.0
176
     1
 62
     7
420
 16777215
176
     1
 90
        2
176
     1
 90
        2
176
     1
 62
     7
176
     1
 62
     7
176
     1
 90
        1
176
     1
 90
        1
176
     1
 40
40.0
176
     1
 90
       11
176
     1
 62
     7
176
     1
 40
1.0
176
     1
 90
        1
176
     1
 90
        6
176
     1
 90
        2
176
     1
 62
     7
176
     1
 90
        6
176
     1
 90
        0
176
     1
 90
        0
176
     1
290
     0
176
     1
 90
        1
176
     1
 40
0.0
176
     1
 90
        0
176
     1
290
     0
176
     1
290
     1
176
     1
290
     1
176
     1
290
     0
176
     1
290
     0
176
     1
290
     0
176
     1
290
     0
176
     1
290
     0
176
     1
290
     0
176
     1
 90
       50
176
     1
 40
0.0
176
     1
 40
1.0
176
     1
 90
        0
176
     1
 62
    18
420
        0
176
     1
 90
       50
176
     1
 90
        3
176
     1
 62
     5
420
      255
176
     1
290
     0
176
     1
 90
       50
176
     1
 90
       50
176
     1
 90
       50
176
     1
290
     0
176
     1
 90
       50
176
     1
 62
   256
176
     0
 40
1.0
176
     0
 90
        2
176
     1
  1
strokes_ogs.tif
176
     1
290
     0
176
     1
 40
1.0
176
     1
 40
1.0
176
     1
  0
VISUALSTYLE
  5
37
102
{ACAD_REACTORS
330
2A
102
}
330
2A
100
AcDbVisualStyle
  2
Thicken
 70
    13
177
     3
291
     1
 70
    58
 90
        2
176
     1
 90
        2
176
     1
 90
        0
176
     1
 90
        0
176
     1
 40
0.6
176
     1
 40
30.0
176
     1
 62
     7
420
 16777215
176
     1
 90
        1
176
     1
 90
        4
176
     1
 62
     7
176
     1
 62
   257
176
     1
 90
        1
176
     1
 90
        1
176
     1
 40
1.0
176
     1
 90
       12
176
     1
 62
     7
176
     1
 40
1.0
176
     1
 90
        1
176
     1
 90
        6
176
     1
 90
        2
176
     1
 62
     7
176
     1
 90
        5
176
     1
 90
        0
176
     1
 90
        0
176
     1
290
     0
176
     1
 90
        1
176
     1
 40
0.0
176
     1
 90
        0
176
     1
290
     0
176
     1
290
     1
176
     1
290
     1
176
     1
290
     0
176
     1
290
     0
176
     1
290
     0
176
     1
290
     0
176
     1
290
     0
176
     1
290
     0
176
     1
 90
       50
176
     1
 40
0.0
176
     1
 40
1.0
176
     1
 90
        0
176
     1
 62
    18
420
        0
176
     1
 90
       50
176
     1
 90
        3
176
     1
 62
     5
420
      255
176
     1
290
     0
176
     1
 90
       50
176
     1
 90
       50
176
     1
 90
       50
176
     1
290
     0
176
     1
 90
       50
176
     1
 62
   256
176
     0
 40
1.0
176
     0
 90
        2
176
     1
  1
strokes_ogs.tif
176
     1
290
     0
176
     1
 40
1.0
176
     1
 40
1.0
176
     1
  0
VISUALSTYLE
  5
244
102
{ACAD_REACTORS
330
2A
102
}
330
2A
100
AcDbVisualStyle
  2
Wireframe
 70
     5
177
     3
291
     0
 70
    58
 90
        0
176
     1
 90
        2
176
     1
 90
        0
176
     1
 90
        0
176
     1
 40
0.6
176
     1
 40
30.0
176
     1
 62
     7
420
 16777215
176
     1
 90
        1
176
     1
 90
        4
176
     1
 62
     7
176
     1
 62
   257
176
     1
 90
        1
176
     1
 90
        1
176
     1
 40
1.0
176
     1
 90
        0
176
     1
 62
   257
176
     1
 40
1.0
176
     1
 90
        1
176
     1
 90
        6
176
     1
 90
        2
176
     1
 62
     7
176
     1
 90
        3
176
     1
 90
        0
176
     1
 90
        0
176
     1
290
     0
176
     1
 90
        1
176
     1
 40
0.0
176
     1
 90
        0
176
     1
290
     0
176
     1
290
     1
176
     1
290
     1
176
     1
290
     0
176
     1
290
     0
176
     1
290
     0
176
     1
290
     0
176
     1
290
     0
176
     1
290
     0
176
     1
 90
       50
176
     1
 40
0.0
176
     1
 40
1.0
176
     1
 90
        0
176
     1
 62
    18
420
        0
176
     1
 90
       50
176
     1
 90
        3
176
     1
 62
     5
420
      255
176
     1
290
     0
176
     1
 90
       50
176
     1
 90
       50
176
     1
 90
       50
176
     1
290
     0
176
     1
 90
       50
176
     1
 62
   256
176
     0
 40
1.0
176
     0
 90
        2
176
     1
  1
strokes_ogs.tif
176
     1
290
     0
176
     1
 40
1.0
176
     1
 40
1.0
176
     1
  0
VISUALSTYLE
  5
248
102
{ACAD_REACTORS
330
2A
102
}
330
2A
100
AcDbVisualStyle
  2
X-Ray
 70
    25
177
     3
291
     0
 70
    58
 90
        2
176
     1
 90
        2
176
     1
 90
        1
176
     1
 90
        1
176
     1
 40
0.5
176
     1
 40
30.0
176
     1
 62
     7
420
 16777215
176
     1
 90
        1
176
     1
 90
        0
176
     1
 62
     7
176
     1
 62
   257
176
     1
 90
        1
176
     1
 90
        1
176
     1
 40
1.0
176
     1
 90
        8
176
     1
 62
     7
176
     1
 40
1.0
176
     1
 90
        1
176
     1
 90
        6
176
     1
 90
        2
176
     1
 62
     7
176
     1
 90
        3
176
     1
 90
        0
176
     1
 90
        0
176
     1
290
     0
176
     1
 90
       13
176
     1
 40
0.0
176
     1
 90
        0
176
     1
290
     0
176
     1
290
     1
176
     1
290
     1
176
     1
290
     0
176
     1
290
     0
176
     1
290
     0
176
     1
290
     0
176
     1
290
     0
176
     1
290
     0
176
     1
 90
       50
176
     1
 40
0.0
176
     1
 40
1.0
176
     1
 90
        0
176
     1
 62
    18
420
        0
176
     1
 90
       50
176
     1
 90
        3
176
     1
 62
     5
420
      255
176
     1
290
     0
176
     1
 90
       50
176
     1
 90
       50
176
     1
 90
       50
176
     1
290
     0
176
     1
 90
       50
176
     1
 62
   256
176
     0
 40
1.0
176
     0
 90
        2
176
     1
  1
strokes_ogs.tif
176
     1
290
     0
176
     1
 40
1.0
176
     1
 40
1.0
176
     1
  0
DICTIONARYVAR
  5
21F
102
{ACAD_REACTORS
330
21E
102
}
330
21E
100
DictionaryVariables
280
     0
  1
1:1
  0
DICTIONARYVAR
  5
2F9
102
{ACAD_REACTORS
330
21E
102
}
330
21E
100
DictionaryVariables
280
     0
  1
STANDARD
  0
DICTIONARYVAR
  5
2F8
102
{ACAD_REACTORS
330
21E
102
}
330
21E
100
DictionaryVariables
280
     0
  1
STANDARD
  0
DICTIONARYVAR
  5
2FA
102
{ACAD_REACTORS
330
21E
102
}
330
21E
100
DictionaryVariables
280
     0
  1
Imperial24
  0
DICTIONARYVAR
  5
2FB
102
{ACAD_REACTORS
330
21E
102
}
330
21E
100
DictionaryVariables
280
     0
  1
Imperial24
  0
DICTIONARYVAR
  5
2E2
102
{ACAD_REACTORS
330
21E
102
}
330
21E
100
DictionaryVariables
280
     0
  1
RGB:95,95,95
  0
DICTIONARYVAR
  5
2FC
102
{ACAD_REACTORS
330
21E
102
}
330
21E
100
DictionaryVariables
280
     0
  1
1
  0
DICTIONARYVAR
  5
2FD
102
{ACAD_REACTORS
330
21E
102
}
330
21E
100
DictionaryVariables
280
     0
  1
15
  0
XRECORD
  5
21D
102
{ACAD_REACTORS
330
21C
102
}
330
21C
100
AcDbXrecord
280
     1
1000
This DWG file was created in ArchiCAD(TM)®
  0
ACDBASSOCNETWORK
  5
311
102
{ACAD_REACTORS
330
310
102
}
330
310
100
AcDbAssocAction
 90
        2
 90
        0
330
313
360
0
 90
        1
 90
        0
 90
        0
 90
        0
 90
        0
 90
        0
 90
        0
100
AcDbAssocNetwork
 90
        0
 90
        3
 90
        1
360
314
 90
        0
  0
ACDBASSOCNETWORK
  5
3FE
102
{ACAD_REACTORS
330
3FD
102
}
330
3FD
100
AcDbAssocAction
 90
        2
 90
        0
330
313
360
0
 90
        2
 90
        0
 90
        0
 90
        0
 90
        0
 90
        0
 90
        0
100
AcDbAssocNetwork
 90
        0
 90
        1
 90
        1
360
3FF
 90
        0
  0
SPATIAL_FILTER
  5
629
102
{ACAD_REACTORS
330
628
102
}
330
628
100
AcDbFilter
100
AcDbSpatialFilter
 70
    12
 10
26220.32700685298
 20
-8574.859726353022
 10
26145.12700685301
 20
-8574.859726353022
 10
26145.12700685301
 20
-8789.485007057843
 10
26145.32700685312
 20
-8789.485007057843
 10
26145.32700685312
 20
-8793.800966771163
 10
26146.26669947389
 20
-8794.142986914518
 10
26145.32700685301
 20
-8794.485007057843
 10
26145.32700685301
 20
-8807.485007057843
 10
26220.32700685301
 20
-8807.485007057843
 10
26220.32700685301
 20
-8794.485007057843
 10
26219.38731423212
 20
-8794.142986914518
 10
26220.32700685289
 20
-8793.800966771163
210
0.0
220
0.0
230
1.0
 11
0.0
 21
0.0
 31
0.0
 71
     1
 72
     0
 73
     0
 40
1.0
 40
0.0
 40
0.0
 40
-26145.12700685301
 40
0.0
 40
1.0
 40
0.0
 40
8780.80040795054
 40
0.0
 40
0.0
 40
1.0
 40
0.0
 40
1.0
 40
0.0
 40
0.0
 40
0.0
 40
0.0
 40
1.0
 40
0.0
 40
0.0
 40
0.0
 40
0.0
 40
1.0
 40
0.0
  0
SPATIAL_FILTER
  5
62C
102
{ACAD_REACTORS
330
62B
102
}
330
62B
100
AcDbFilter
100
AcDbSpatialFilter
 70
    12
 10
26220.32700685298
 20
-8574.859726353022
 10
26145.12700685301
 20
-8574.859726353022
 10
26145.12700685301
 20
-8789.485007057843
 10
26145.32700685312
 20
-8789.485007057843
 10
26145.32700685312
 20
-8793.800966771163
 10
26146.26669947389
 20
-8794.142986914518
 10
26145.32700685301
 20
-8794.485007057843
 10
26145.32700685301
 20
-8807.485007057843
 10
26220.32700685301
 20
-8807.485007057843
 10
26220.32700685301
 20
-8794.485007057843
 10
26219.38731423212
 20
-8794.142986914518
 10
26220.32700685289
 20
-8793.800966771163
210
0.0
220
0.0
230
1.0
 11
0.0
 21
0.0
 31
0.0
 71
     1
 72
     0
 73
     0
 40
1.0
 40
0.0
 40
0.0
 40
-26174.40909328951
 40
0.0
 40
1.0
 40
0.0
 40
8780.80040795054
 40
0.0
 40
0.0
 40
1.0
 40
0.0
 40
1.0
 40
0.0
 40
0.0
 40
0.0
 40
0.0
 40
1.0
 40
0.0
 40
0.0
 40
0.0
 40
0.0
 40
1.0
 40
0.0
  0
SPATIAL_FILTER
  5
62F
102
{ACAD_REACTORS
330
62E
102
}
330
62E
100
AcDbFilter
100
AcDbSpatialFilter
 70
    12
 10
26220.32700685298
 20
-8574.859726353022
 10
26145.12700685301
 20
-8574.859726353022
 10
26145.12700685301
 20
-8789.485007057843
 10
26145.32700685312
 20
-8789.485007057843
 10
26145.32700685312
 20
-8793.800966771163
 10
26146.26669947389
 20
-8794.142986914518
 10
26145.32700685301
 20
-8794.485007057843
 10
26145.32700685301
 20
-8807.485007057843
 10
26220.32700685301
 20
-8807.485007057843
 10
26220.32700685301
 20
-8794.485007057843
 10
26219.38731423212
 20
-8794.142986914518
 10
26220.32700685289
 20
-8793.800966771163
210
0.0
220
0.0
230
1.0
 11
0.0
 21
0.0
 31
0.0
 71
     1
 72
     0
 73
     0
 40
1.0
 40
0.0
 40
0.0
 40
-26203.691179726
 40
0.0
 40
1.0
 40
0.0
 40
8780.80040795054
 40
0.0
 40
0.0
 40
1.0
 40
0.0
 40
1.0
 40
0.0
 40
0.0
 40
0.0
 40
0.0
 40
1.0
 40
0.0
 40
0.0
 40
0.0
 40
0.0
 40
1.0
 40
0.0
  0
SPATIAL_FILTER
  5
632
102
{ACAD_REACTORS
330
631
102
}
330
631
100
AcDbFilter
100
AcDbSpatialFilter
 70
    12
 10
26220.32700685298
 20
-8574.859726353022
 10
26145.12700685301
 20
-8574.859726353022
 10
26145.12700685301
 20
-8789.485007057843
 10
26145.32700685312
 20
-8789.485007057843
 10
26145.32700685312
 20
-8793.800966771163
 10
26146.26669947389
 20
-8794.142986914518
 10
26145.32700685301
 20
-8794.485007057843
 10
26145.32700685301
 20
-8807.485007057843
 10
26220.32700685301
 20
-8807.485007057843
 10
26220.32700685301
 20
-8794.485007057843
 10
26219.38731423212
 20
-8794.142986914518
 10
26220.32700685289
 20
-8793.800966771163
210
0.0
220
0.0
230
1.0
 11
0.0
 21
0.0
 31
0.0
 71
     1
 72
     0
 73
     0
 40
1.0
 40
0.0
 40
0.0
 40
-26145.12700685301
 40
0.0
 40
1.0
 40
0.0
 40
8751.380310579465
 40
0.0
 40
0.0
 40
1.0
 40
0.0
 40
1.0
 40
0.0
 40
0.0
 40
0.0
 40
0.0
 40
1.0
 40
0.0
 40
0.0
 40
0.0
 40
0.0
 40
1.0
 40
0.0
  0
SPATIAL_FILTER
  5
635
102
{ACAD_REACTORS
330
634
102
}
330
634
100
AcDbFilter
100
AcDbSpatialFilter
 70
    12
 10
26220.32700685298
 20
-8574.859726353022
 10
26145.12700685301
 20
-8574.859726353022
 10
26145.12700685301
 20
-8789.485007057843
 10
26145.32700685312
 20
-8789.485007057843
 10
26145.32700685312
 20
-8793.800966771163
 10
26146.26669947389
 20
-8794.142986914518
 10
26145.32700685301
 20
-8794.485007057843
 10
26145.32700685301
 20
-8807.485007057843
 10
26220.32700685301
 20
-8807.485007057843
 10
26220.32700685301
 20
-8794.485007057843
 10
26219.38731423212
 20
-8794.142986914518
 10
26220.32700685289
 20
-8793.800966771163
210
0.0
220
0.0
230
1.0
 11
0.0
 21
0.0
 31
0.0
 71
     1
 72
     0
 73
     0
 40
1.0
 40
0.0
 40
0.0
 40
-26203.691179726
 40
0.0
 40
1.0
 40
0.0
 40
8751.380310579465
 40
0.0
 40
0.0
 40
1.0
 40
0.0
 40
1.0
 40
0.0
 40
0.0
 40
0.0
 40
0.0
 40
1.0
 40
0.0
 40
0.0
 40
0.0
 40
0.0
 40
1.0
 40
0.0
  0
SPATIAL_FILTER
  5
638
102
{ACAD_REACTORS
330
637
102
}
330
637
100
AcDbFilter
100
AcDbSpatialFilter
 70
    12
 10
26220.32700685298
 20
-8574.859726353022
 10
26145.12700685301
 20
-8574.859726353022
 10
26145.12700685301
 20
-8789.485007057843
 10
26145.32700685312
 20
-8789.485007057843
 10
26145.32700685312
 20
-8793.800966771163
 10
26146.26669947389
 20
-8794.142986914518
 10
26145.32700685301
 20
-8794.485007057843
 10
26145.32700685301
 20
-8807.485007057843
 10
26220.32700685301
 20
-8807.485007057843
 10
26220.32700685301
 20
-8794.485007057843
 10
26219.38731423212
 20
-8794.142986914518
 10
26220.32700685289
 20
-8793.800966771163
210
0.0
220
0.0
230
1.0
 11
0.0
 21
0.0
 31
0.0
 71
     1
 72
     0
 73
     0
 40
1.0
 40
0.0
 40
0.0
 40
-26145.12700685301
 40
0.0
 40
1.0
 40
0.0
 40
8721.96021320839
 40
0.0
 40
0.0
 40
1.0
 40
0.0
 40
1.0
 40
0.0
 40
0.0
 40
0.0
 40
0.0
 40
1.0
 40
0.0
 40
0.0
 40
0.0
 40
0.0
 40
1.0
 40
0.0
  0
SPATIAL_FILTER
  5
63B
102
{ACAD_REACTORS
330
63A
102
}
330
63A
100
AcDbFilter
100
AcDbSpatialFilter
 70
    12
 10
26220.32700685298
 20
-8574.859726353022
 10
26145.12700685301
 20
-8574.859726353022
 10
26145.12700685301
 20
-8789.485007057843
 10
26145.32700685312
 20
-8789.485007057843
 10
26145.32700685312
 20
-8793.800966771163
 10
26146.26669947389
 20
-8794.142986914518
 10
26145.32700685301
 20
-8794.485007057843
 10
26145.32700685301
 20
-8807.485007057843
 10
26220.32700685301
 20
-8807.485007057843
 10
26220.32700685301
 20
-8794.485007057843
 10
26219.38731423212
 20
-8794.142986914518
 10
26220.32700685289
 20
-8793.800966771163
210
0.0
220
0.0
230
1.0
 11
0.0
 21
0.0
 31
0.0
 71
     1
 72
     0
 73
     0
 40
1.0
 40
0.0
 40
0.0
 40
-26203.691179726
 40
0.0
 40
1.0
 40
0.0
 40
8721.96021320839
 40
0.0
 40
0.0
 40
1.0
 40
0.0
 40
1.0
 40
0.0
 40
0.0
 40
0.0
 40
0.0
 40
1.0
 40
0.0
 40
0.0
 40
0.0
 40
0.0
 40
1.0
 40
0.0
  0
SPATIAL_FILTER
  5
63E
102
{ACAD_REACTORS
330
63D
102
}
330
63D
100
AcDbFilter
100
AcDbSpatialFilter
 70
    12
 10
26220.32700685298
 20
-8574.859726353022
 10
26145.12700685301
 20
-8574.859726353022
 10
26145.12700685301
 20
-8789.485007057843
 10
26145.32700685312
 20
-8789.485007057843
 10
26145.32700685312
 20
-8793.800966771163
 10
26146.26669947389
 20
-8794.142986914518
 10
26145.32700685301
 20
-8794.485007057843
 10
26145.32700685301
 20
-8807.485007057843
 10
26220.32700685301
 20
-8807.485007057843
 10
26220.32700685301
 20
-8794.485007057843
 10
26219.38731423212
 20
-8794.142986914518
 10
26220.32700685289
 20
-8793.800966771163
210
0.0
220
0.0
230
1.0
 11
0.0
 21
0.0
 31
0.0
 71
     1
 72
     0
 73
     0
 40
1.0
 40
0.0
 40
0.0
 40
-26145.12700685301
 40
0.0
 40
1.0
 40
0.0
 40
8692.540115837317
 40
0.0
 40
0.0
 40
1.0
 40
0.0
 40
1.0
 40
0.0
 40
0.0
 40
0.0
 40
0.0
 40
1.0
 40
0.0
 40
0.0
 40
0.0
 40
0.0
 40
1.0
 40
0.0
  0
SPATIAL_FILTER
  5
641
102
{ACAD_REACTORS
330
640
102
}
330
640
100
AcDbFilter
100
AcDbSpatialFilter
 70
    12
 10
26220.32700685298
 20
-8574.859726353022
 10
26145.12700685301
 20
-8574.859726353022
 10
26145.12700685301
 20
-8789.485007057843
 10
26145.32700685312
 20
-8789.485007057843
 10
26145.32700685312
 20
-8793.800966771163
 10
26146.26669947389
 20
-8794.142986914518
 10
26145.32700685301
 20
-8794.485007057843
 10
26145.32700685301
 20
-8807.485007057843
 10
26220.32700685301
 20
-8807.485007057843
 10
26220.32700685301
 20
-8794.485007057843
 10
26219.38731423212
 20
-8794.142986914518
 10
26220.32700685289
 20
-8793.800966771163
210
0.0
220
0.0
230
1.0
 11
0.0
 21
0.0
 31
0.0
 71
     1
 72
     0
 73
     0
 40
1.0
 40
0.0
 40
0.0
 40
-26203.691179726
 40
0.0
 40
1.0
 40
0.0
 40
8692.540115837317
 40
0.0
 40
0.0
 40
1.0
 40
0.0
 40
1.0
 40
0.0
 40
0.0
 40
0.0
 40
0.0
 40
1.0
 40
0.0
 40
0.0
 40
0.0
 40
0.0
 40
1.0
 40
0.0
  0
SPATIAL_FILTER
  5
644
102
{ACAD_REACTORS
330
643
102
}
330
643
100
AcDbFilter
100
AcDbSpatialFilter
 70
    12
 10
26220.32700685298
 20
-8574.859726353022
 10
26145.12700685301
 20
-8574.859726353022
 10
26145.12700685301
 20
-8789.485007057843
 10
26145.32700685312
 20
-8789.485007057843
 10
26145.32700685312
 20
-8793.800966771163
 10
26146.26669947389
 20
-8794.142986914518
 10
26145.32700685301
 20
-8794.485007057843
 10
26145.32700685301
 20
-8807.485007057843
 10
26220.32700685301
 20
-8807.485007057843
 10
26220.32700685301
 20
-8794.485007057843
 10
26219.38731423212
 20
-8794.142986914518
 10
26220.32700685289
 20
-8793.800966771163
210
0.0
220
0.0
230
1.0
 11
0.0
 21
0.0
 31
0.0
 71
     1
 72
     0
 73
     0
 40
1.0
 40
0.0
 40
0.0
 40
-26145.12700685301
 40
0.0
 40
1.0
 40
0.0
 40
8663.120018466242
 40
0.0
 40
0.0
 40
1.0
 40
0.0
 40
1.0
 40
0.0
 40
0.0
 40
0.0
 40
0.0
 40
1.0
 40
0.0
 40
0.0
 40
0.0
 40
0.0
 40
1.0
 40
0.0
  0
SPATIAL_FILTER
  5
647
102
{ACAD_REACTORS
330
646
102
}
330
646
100
AcDbFilter
100
AcDbSpatialFilter
 70
    12
 10
26220.32700685298
 20
-8574.859726353022
 10
26145.12700685301
 20
-8574.859726353022
 10
26145.12700685301
 20
-8789.485007057843
 10
26145.32700685312
 20
-8789.485007057843
 10
26145.32700685312
 20
-8793.800966771163
 10
26146.26669947389
 20
-8794.142986914518
 10
26145.32700685301
 20
-8794.485007057843
 10
26145.32700685301
 20
-8807.485007057843
 10
26220.32700685301
 20
-8807.485007057843
 10
26220.32700685301
 20
-8794.485007057843
 10
26219.38731423212
 20
-8794.142986914518
 10
26220.32700685289
 20
-8793.800966771163
210
0.0
220
0.0
230
1.0
 11
0.0
 21
0.0
 31
0.0
 71
     1
 72
     0
 73
     0
 40
1.0
 40
0.0
 40
0.0
 40
-26203.691179726
 40
0.0
 40
1.0
 40
0.0
 40
8663.120018466242
 40
0.0
 40
0.0
 40
1.0
 40
0.0
 40
1.0
 40
0.0
 40
0.0
 40
0.0
 40
0.0
 40
1.0
 40
0.0
 40
0.0
 40
0.0
 40
0.0
 40
1.0
 40
0.0
  0
SPATIAL_FILTER
  5
64A
102
{ACAD_REACTORS
330
649
102
}
330
649
100
AcDbFilter
100
AcDbSpatialFilter
 70
    12
 10
26220.32700685298
 20
-8574.859726353022
 10
26145.12700685301
 20
-8574.859726353022
 10
26145.12700685301
 20
-8789.485007057843
 10
26145.32700685312
 20
-8789.485007057843
 10
26145.32700685312
 20
-8793.800966771163
 10
26146.26669947389
 20
-8794.142986914518
 10
26145.32700685301
 20
-8794.485007057843
 10
26145.32700685301
 20
-8807.485007057843
 10
26220.32700685301
 20
-8807.485007057843
 10
26220.32700685301
 20
-8794.485007057843
 10
26219.38731423212
 20
-8794.142986914518
 10
26220.32700685289
 20
-8793.800966771163
210
0.0
220
0.0
230
1.0
 11
0.0
 21
0.0
 31
0.0
 71
     1
 72
     0
 73
     0
 40
1.0
 40
0.0
 40
0.0
 40
-26145.12700685301
 40
0.0
 40
1.0
 40
0.0
 40
8633.699921095169
 40
0.0
 40
0.0
 40
1.0
 40
0.0
 40
1.0
 40
0.0
 40
0.0
 40
0.0
 40
0.0
 40
1.0
 40
0.0
 40
0.0
 40
0.0
 40
0.0
 40
1.0
 40
0.0
  0
SPATIAL_FILTER
  5
64D
102
{ACAD_REACTORS
330
64C
102
}
330
64C
100
AcDbFilter
100
AcDbSpatialFilter
 70
    12
 10
26220.32700685298
 20
-8574.859726353022
 10
26145.12700685301
 20
-8574.859726353022
 10
26145.12700685301
 20
-8789.485007057843
 10
26145.32700685312
 20
-8789.485007057843
 10
26145.32700685312
 20
-8793.800966771163
 10
26146.26669947389
 20
-8794.142986914518
 10
26145.32700685301
 20
-8794.485007057843
 10
26145.32700685301
 20
-8807.485007057843
 10
26220.32700685301
 20
-8807.485007057843
 10
26220.32700685301
 20
-8794.485007057843
 10
26219.38731423212
 20
-8794.142986914518
 10
26220.32700685289
 20
-8793.800966771163
210
0.0
220
0.0
230
1.0
 11
0.0
 21
0.0
 31
0.0
 71
     1
 72
     0
 73
     0
 40
1.0
 40
0.0
 40
0.0
 40
-26203.691179726
 40
0.0
 40
1.0
 40
0.0
 40
8633.699921095169
 40
0.0
 40
0.0
 40
1.0
 40
0.0
 40
1.0
 40
0.0
 40
0.0
 40
0.0
 40
0.0
 40
1.0
 40
0.0
 40
0.0
 40
0.0
 40
0.0
 40
1.0
 40
0.0
  0
SPATIAL_FILTER
  5
650
102
{ACAD_REACTORS
330
64F
102
}
330
64F
100
AcDbFilter
100
AcDbSpatialFilter
 70
    12
 10
26220.32700685298
 20
-8574.859726353022
 10
26145.12700685301
 20
-8574.859726353022
 10
26145.12700685301
 20
-8789.485007057843
 10
26145.32700685312
 20
-8789.485007057843
 10
26145.32700685312
 20
-8793.800966771163
 10
26146.26669947389
 20
-8794.142986914518
 10
26145.32700685301
 20
-8794.485007057843
 10
26145.32700685301
 20
-8807.485007057843
 10
26220.32700685301
 20
-8807.485007057843
 10
26220.32700685301
 20
-8794.485007057843
 10
26219.38731423212
 20
-8794.142986914518
 10
26220.32700685289
 20
-8793.800966771163
210
0.0
220
0.0
230
1.0
 11
0.0
 21
0.0
 31
0.0
 71
     1
 72
     0
 73
     0
 40
1.0
 40
0.0
 40
0.0
 40
-26145.12700685301
 40
0.0
 40
1.0
 40
0.0
 40
8604.279823724095
 40
0.0
 40
0.0
 40
1.0
 40
0.0
 40
1.0
 40
0.0
 40
0.0
 40
0.0
 40
0.0
 40
1.0
 40
0.0
 40
0.0
 40
0.0
 40
0.0
 40
1.0
 40
0.0
  0
SPATIAL_FILTER
  5
653
102
{ACAD_REACTORS
330
652
102
}
330
652
100
AcDbFilter
100
AcDbSpatialFilter
 70
    12
 10
26220.32700685298
 20
-8574.859726353022
 10
26145.12700685301
 20
-8574.859726353022
 10
26145.12700685301
 20
-8789.485007057843
 10
26145.32700685312
 20
-8789.485007057843
 10
26145.32700685312
 20
-8793.800966771163
 10
26146.26669947389
 20
-8794.142986914518
 10
26145.32700685301
 20
-8794.485007057843
 10
26145.32700685301
 20
-8807.485007057843
 10
26220.32700685301
 20
-8807.485007057843
 10
26220.32700685301
 20
-8794.485007057843
 10
26219.38731423212
 20
-8794.142986914518
 10
26220.32700685289
 20
-8793.800966771163
210
0.0
220
0.0
230
1.0
 11
0.0
 21
0.0
 31
0.0
 71
     1
 72
     0
 73
     0
 40
1.0
 40
0.0
 40
0.0
 40
-26203.691179726
 40
0.0
 40
1.0
 40
0.0
 40
8604.279823724095
 40
0.0
 40
0.0
 40
1.0
 40
0.0
 40
1.0
 40
0.0
 40
0.0
 40
0.0
 40
0.0
 40
1.0
 40
0.0
 40
0.0
 40
0.0
 40
0.0
 40
1.0
 40
0.0
  0
SPATIAL_FILTER
  5
656
102
{ACAD_REACTORS
330
655
102
}
330
655
100
AcDbFilter
100
AcDbSpatialFilter
 70
    12
 10
26220.32700685298
 20
-8574.859726353022
 10
26145.12700685301
 20
-8574.859726353022
 10
26145.12700685301
 20
-8789.485007057843
 10
26145.32700685312
 20
-8789.485007057843
 10
26145.32700685312
 20
-8793.800966771163
 10
26146.26669947389
 20
-8794.142986914518
 10
26145.32700685301
 20
-8794.485007057843
 10
26145.32700685301
 20
-8807.485007057843
 10
26220.32700685301
 20
-8807.485007057843
 10
26220.32700685301
 20
-8794.485007057843
 10
26219.38731423212
 20
-8794.142986914518
 10
26220.32700685289
 20
-8793.800966771163
210
0.0
220
0.0
230
1.0
 11
0.0
 21
0.0
 31
0.0
 71
     1
 72
     0
 73
     0
 40
1.0
 40
0.0
 40
0.0
 40
-26145.12700685301
 40
0.0
 40
1.0
 40
0.0
 40
8574.859726353022
 40
0.0
 40
0.0
 40
1.0
 40
0.0
 40
1.0
 40
0.0
 40
0.0
 40
0.0
 40
0.0
 40
1.0
 40
0.0
 40
0.0
 40
0.0
 40
0.0
 40
1.0
 40
0.0
  0
SPATIAL_FILTER
  5
659
102
{ACAD_REACTORS
330
658
102
}
330
658
100
AcDbFilter
100
AcDbSpatialFilter
 70
    12
 10
26220.32700685298
 20
-8574.859726353022
 10
26145.12700685301
 20
-8574.859726353022
 10
26145.12700685301
 20
-8789.485007057843
 10
26145.32700685312
 20
-8789.485007057843
 10
26145.32700685312
 20
-8793.800966771163
 10
26146.26669947389
 20
-8794.142986914518
 10
26145.32700685301
 20
-8794.485007057843
 10
26145.32700685301
 20
-8807.485007057843
 10
26220.32700685301
 20
-8807.485007057843
 10
26220.32700685301
 20
-8794.485007057843
 10
26219.38731423212
 20
-8794.142986914518
 10
26220.32700685289
 20
-8793.800966771163
210
0.0
220
0.0
230
1.0
 11
0.0
 21
0.0
 31
0.0
 71
     1
 72
     0
 73
     0
 40
1.0
 40
0.0
 40
0.0
 40
-26174.40909328951
 40
0.0
 40
1.0
 40
0.0
 40
8574.859726353022
 40
0.0
 40
0.0
 40
1.0
 40
0.0
 40
1.0
 40
0.0
 40
0.0
 40
0.0
 40
0.0
 40
1.0
 40
0.0
 40
0.0
 40
0.0
 40
0.0
 40
1.0
 40
0.0
  0
SPATIAL_FILTER
  5
65C
102
{ACAD_REACTORS
330
65B
102
}
330
65B
100
AcDbFilter
100
AcDbSpatialFilter
 70
    12
 10
26220.32700685298
 20
-8574.859726353022
 10
26145.12700685301
 20
-8574.859726353022
 10
26145.12700685301
 20
-8789.485007057843
 10
26145.32700685312
 20
-8789.485007057843
 10
26145.32700685312
 20
-8793.800966771163
 10
26146.26669947389
 20
-8794.142986914518
 10
26145.32700685301
 20
-8794.485007057843
 10
26145.32700685301
 20
-8807.485007057843
 10
26220.32700685301
 20
-8807.485007057843
 10
26220.32700685301
 20
-8794.485007057843
 10
26219.38731423212
 20
-8794.142986914518
 10
26220.32700685289
 20
-8793.800966771163
210
0.0
220
0.0
230
1.0
 11
0.0
 21
0.0
 31
0.0
 71
     1
 72
     0
 73
     0
 40
1.0
 40
0.0
 40
0.0
 40
-26203.691179726
 40
0.0
 40
1.0
 40
0.0
 40
8574.859726353022
 40
0.0
 40
0.0
 40
1.0
 40
0.0
 40
1.0
 40
0.0
 40
0.0
 40
0.0
 40
0.0
 40
1.0
 40
0.0
 40
0.0
 40
0.0
 40
0.0
 40
1.0
 40
0.0
  0
DICTIONARY
  5
6C6
330
24F
100
AcDbDictionary
280
     1
281
     1
  3
ACAD_ROUNDTRIP_2008_TABLESTYLE_CELLSTYLEMAP
360
6C7
  0
ACDBASSOC2DCONSTRAINTGROUP
  5
314
330
311
100
AcDbAssocAction
 90
        2
 90
        0
330
311
360
0
 90
        1
 90
       10
 90
        0
 90
        0
 90
        0
 90
        0
 90
        0
 90
        2
 70
     0
 10
0.0
 20
0.0
 30
0.0
 10
1.0
 20
0.0
 30
0.0
 10
0.0
 20
1.0
 30
0.0
360
0
 90
        8
360
315
360
316
360
3FA
360
3F9
360
430
360
4DF
360
5BC
360
4E0
 90
       59
 90
        0
 90
        0
290
     0
 90
       46
  1
AcConstrainedPoint
 90
        1
  1
AcConstrainedRigidSet
 90
        2
  1
AcConstrainedBoundedLine
 90
        3
  1
AcConstrainedImplicitPoint
 90
        4
  1
AcPointCurveConstraint
 90
        5
  1
AcConstrainedImplicitPoint
 90
        6
  1
AcPointCurveConstraint
 90
        7
  1
AcPointCoincidenceConstraint
 90
        8
  1
AcConstrainedBoundedLine
 90
        9
  1
AcConstrainedImplicitPoint
 90
       10
  1
AcPointCurveConstraint
 90
       11
  1
AcConstrainedImplicitPoint
 90
       12
  1
AcPointCurveConstraint
 90
       13
  1
AcConstrainedBoundedLine
 90
       14
  1
AcConstrainedImplicitPoint
 90
       15
  1
AcPointCurveConstraint
 90
       16
  1
AcConstrainedImplicitPoint
 90
       17
  1
AcPointCurveConstraint
 90
       18
  1
AcPointCoincidenceConstraint
 90
       19
  1
AcConstrainedBoundedLine
 90
       20
  1
AcConstrainedImplicitPoint
 90
       21
  1
AcPointCurveConstraint
 90
       22
  1
AcConstrainedImplicitPoint
 90
       23
  1
AcPointCurveConstraint
 90
       24
  1
AcConstrainedDatumLine
 90
       25
  1
AcHorizontalConstraint
 90
       27
  1
AcConstrainedArc
 90
       29
  1
AcConstrainedImplicitPoint
 90
       30
  1
AcPointCurveConstraint
 90
       31
  1
AcConstrainedImplicitPoint
 90
       32
  1
AcPointCurveConstraint
 90
       33
  1
AcConstrainedImplicitPoint
 90
       34
  1
AcCenterPointConstraint
 90
       35
  1
AcConstrainedBoundedLine
 90
       36
  1
AcConstrainedImplicitPoint
 90
       37
  1
AcPointCurveConstraint
 90
       38
  1
AcConstrainedImplicitPoint
 90
       39
  1
AcPointCurveConstraint
 90
       40
  1
AcPointCurveConstraint
 90
       41
  1
AcConstrainedBoundedLine
 90
       42
  1
AcConstrainedImplicitPoint
 90
       43
  1
AcPointCurveConstraint
 90
       44
  1
AcConstrainedImplicitPoint
 90
       45
  1
AcPointCurveConstraint
 90
       46
  1
AcConstrainedDatumLine
 90
       47
  1
AcVerticalConstraint
 90
       48
 90
        1
 90
        1
 90
        8
 70
     1
330
315
 90
        2
 10
26264.912871425
 20
-8821.335766249299
 30
0.0
 90
        2
 90
        0
 70
     1
330
0
 90
        0
290
     0
 40
1.0
 40
0.0
 40
0.0
 40
20.80423655849154
 40
0.0
 40
1.0
 40
0.0
 40
-0.044793097411457
 40
0.0
 40
0.0
 40
1.0
 40
0.0
 40
0.0
 40
0.0
 40
0.0
 40
1.0
 90
        1
 90
        1
 90
        3
 90
        2
 90
        5
 90
        7
 70
     1
330
316
 90
        0
 10
26342.30703950677
 20
-8821.356458499471
 30
0.0
 10
-0.9999999642604961
 20
0.0002673618691915
 30
0.0
290
     0
 10
26342.30703950677
 20
-8821.356458499471
 30
0.0
 11
26264.912871425
 21
-8821.335766249299
 31
0.0
 90
        4
 90
        1
 90
        5
 70
     1
330
0
 90
        0
280
     0
 90
       -1
 90
        3
 90
        5
 90
        2
 90
        4
 90
        3
 70
     0
 90
        0
290
     1
290
     1
 90
        6
 90
        2
 90
        7
 90
        8
 70
     1
330
0
 90
        0
280
     1
 90
       -1
 90
        3
 90
        7
 90
        2
 90
        6
 90
        3
 70
     0
 90
        0
290
     1
290
     1
 90
        8
 90
        2
 90
        1
 90
        6
 70
     0
 90
        0
290
     0
290
     1
 90
        9
 90
        2
 90
       11
 90
       13
 70
     1
330
3F9
 90
        0
 10
26502.48336618671
 20
-8415.58738159545
 30
0.0
 10
-1.0
 20
0.0
 30
0.0
290
     0
 10
26502.48336618671
 20
-8415.58738159545
 30
0.0
 11
26129.34163910072
 21
-8415.58738159545
 31
0.0
 90
       10
 90
        1
 90
       11
 70
     1
330
0
 90
        0
280
     0
 90
       -1
 90
        9
 90
       11
 90
        2
 90
       10
 90
        9
 70
     0
 90
        0
290
     1
290
     1
 90
       12
 90
        2
 90
       13
 90
       19
 70
     1
330
0
 90
        0
280
     1
 90
       -1
 90
        9
 90
       13
 90
        2
 90
       12
 90
        9
 70
     0
 90
        0
290
     1
290
     1
 90
       14
 90
        2
 90
       16
 90
       18
 70
     1
330
3FA
 90
        0
 10
26129.34163910072
 20
-8955.636997234249
 30
0.0
 10
0.0
 20
1.0
 30
0.0
290
     0
 10
26129.34163910072
 20
-8955.636997234249
 30
0.0
 11
26129.34163910072
 21
-8415.58738159545
 31
0.0
 90
       15
 90
        1
 90
       16
 70
     1
330
0
 90
        0
280
     0
 90
       -1
 90
       14
 90
       16
 90
        2
 90
       15
 90
       14
 70
     0
 90
        0
290
     1
290
     1
 90
       17
 90
        2
 90
       18
 90
       19
 70
     1
330
0
 90
        0
280
     1
 90
       -1
 90
       14
 90
       18
 90
        2
 90
       17
 90
       14
 70
     0
 90
        0
290
     1
290
     1
 90
       19
 90
        2
 90
       12
 90
       17
 70
     0
 90
        0
290
     0
290
     1
 90
       20
 90
        3
 90
       22
 90
       24
 90
       27
 70
     1
330
430
 90
        0
 10
26274.6185714525
 20
-8574.859726353022
 30
0.0
 10
-1.0
 20
0.0
 30
0.0
290
     0
 10
26274.6185714525
 20
-8574.859726353022
 30
0.0
 11
26132.32493585719
 21
-8574.859726353022
 31
0.0
 90
       21
 90
        1
 90
       22
 70
     1
330
0
 90
        0
280
     0
 90
       -1
 90
       20
 90
       22
 90
        2
 90
       21
 90
       20
 70
     0
 90
        0
290
     1
290
     1
 90
       23
 90
        1
 90
       24
 70
     1
330
0
 90
        0
280
     1
 90
       -1
 90
       20
 90
       24
 90
        2
 90
       23
 90
       20
 70
     0
 90
        0
290
     1
290
     1
 90
       25
 90
        0
 70
     0
330
0
 90
        0
 10
0.0
 20
0.0
 30
0.0
 10
1.0
 20
0.0
 30
0.0
 90
       27
 90
        1
 90
       20
 70
     0
 90
        0
290
     0
290
     1
 90
       25
 90
       29
 90
        4
 90
       31
 90
       33
 90
       35
 90
       41
 70
     1
330
4DF
 90
        0
 10
26236.8226257719
 20
-8802.489281964808
 30
0.0
 10
0.0
 20
0.0
 30
1.0
 10
1.0
 20
0.0
 30
0.0
 40
4.460245527278834
 40
0.0
 40
6.283185307179586
 40
0.0
 10
26241.26161794028
 20
-8802.054381179894
 30
0.0
 11
26237.52700685306
 21
-8798.08500705784
 31
0.0
 90
       30
 90
        1
 90
       31
 70
     1
330
0
 90
        0
280
     0
 90
       -1
 90
       29
 90
       31
 90
        2
 90
       30
 90
       29
 70
     0
 90
        0
290
     1
290
     1
 90
       32
 90
        1
 90
       33
 70
     1
330
0
 90
        0
280
     1
 90
       -1
 90
       29
 90
       33
 90
        2
 90
       32
 90
       29
 70
     0
 90
        0
290
     1
290
     1
 90
       34
 90
        1
 90
       35
 70
     1
330
0
 90
        0
280
     3
 90
       -1
 90
       29
 90
       35
 90
        2
 90
       34
 90
       29
 70
     0
 90
        0
290
     1
290
     1
 90
       36
 90
        2
 90
       38
 90
       40
 70
     1
330
4E0
 90
        0
 10
26241.07290318832
 20
-8786.969262285595
 30
0.0
 10
0.0
 20
1.0
 30
0.0
290
     0
 10
26241.07290318832
 20
-8786.969262285595
 30
0.0
 11
26241.07290318832
 21
-8801.136901823319
 31
0.0
 90
       37
 90
        1
 90
       38
 70
     1
330
0
 90
        0
280
     0
 90
       -1
 90
       36
 90
       38
 90
        2
 90
       37
 90
       36
 70
     0
 90
        0
290
     1
290
     1
 90
       39
 90
        2
 90
       40
 90
       41
 70
     1
330
0
 90
        0
280
     1
 90
       -1
 90
       36
 90
       40
 90
        2
 90
       39
 90
       36
 70
     0
 90
        0
290
     1
290
     1
 90
       41
 90
        2
 90
       29
 90
       39
 70
     0
 90
        0
290
     0
290
     1
 90
       42
 90
        3
 90
       44
 90
       46
 90
       48
 70
     1
330
5BC
 90
        0
 10
26145.12700685301
 20
-8807.485007057843
 30
0.0
 10
0.0
 20
1.0
 30
0.0
290
     0
 10
26145.12700685301
 20
-8807.485007057843
 30
0.0
 11
26145.12700685301
 21
-8574.859726353022
 31
0.0
 90
       43
 90
        1
 90
       44
 70
     1
330
0
 90
        0
280
     0
 90
       -1
 90
       42
 90
       44
 90
        2
 90
       43
 90
       42
 70
     0
 90
        0
290
     1
290
     1
 90
       45
 90
        1
 90
       46
 70
     1
330
0
 90
        0
280
     1
 90
       -1
 90
       42
 90
       46
 90
        2
 90
       45
 90
       42
 70
     0
 90
        0
290
     1
290
     1
 90
       47
 90
        0
 70
     0
330
0
 90
        0
 10
0.0
 20
0.0
 30
0.0
 10
0.0
 20
1.0
 30
0.0
 90
       48
 90
        1
 90
       42
 70
     0
 90
        0
290
     0
290
     1
 90
       47
  0
ACDBASSOC2DCONSTRAINTGROUP
  5
3FF
330
3FE
100
AcDbAssocAction
 90
        2
 90
        0
330
3FE
360
0
 90
        1
 90
       12
 90
        0
 90
        0
 90
        0
 90
        0
 90
        0
 90
        2
 70
     0
 10
0.0
 20
0.0
 30
0.0
 10
1.0
 20
0.0
 30
0.0
 10
0.0
 20
1.0
 30
0.0
360
0
 90
        5
360
400
360
401
360
402
360
403
360
404
 90
       84
 90
        0
 90
        0
290
     0
 90
       31
  1
AcConstrainedDatumLine
 90
       54
  1
AcConstrainedBoundedLine
 90
       55
  1
AcConstrainedImplicitPoint
 90
       56
  1
AcPointCurveConstraint
 90
       57
  1
AcConstrainedImplicitPoint
 90
       58
  1
AcPointCurveConstraint
 90
       59
  1
AcConstrainedBoundedLine
 90
       60
  1
AcConstrainedImplicitPoint
 90
       61
  1
AcPointCurveConstraint
 90
       62
  1
AcConstrainedImplicitPoint
 90
       63
  1
AcPointCurveConstraint
 90
       64
  1
AcPointCoincidenceConstraint
 90
       65
  1
AcConstrainedBoundedLine
 90
       66
  1
AcConstrainedImplicitPoint
 90
       67
  1
AcPointCurveConstraint
 90
       68
  1
AcConstrainedImplicitPoint
 90
       69
  1
AcPointCurveConstraint
 90
       70
  1
AcPointCoincidenceConstraint
 90
       71
  1
AcHorizontalConstraint
 90
       72
  1
AcConstrainedBoundedLine
 90
       73
  1
AcConstrainedImplicitPoint
 90
       74
  1
AcPointCurveConstraint
 90
       75
  1
AcConstrainedImplicitPoint
 90
       76
  1
AcPointCurveConstraint
 90
       77
  1
AcConstrainedBoundedLine
 90
       78
  1
AcConstrainedImplicitPoint
 90
       79
  1
AcPointCurveConstraint
 90
       80
  1
AcConstrainedImplicitPoint
 90
       81
  1
AcPointCurveConstraint
 90
       82
  1
AcPointCoincidenceConstraint
 90
       83
  1
AcHorizontalConstraint
 90
       84
 90
       54
 90
        0
 70
     0
330
0
 90
        0
 10
855.2978874735945
 20
53.21674985285563
 30
0.0
 10
1.0
 20
0.0
 30
0.0
 90
       55
 90
        2
 90
       57
 90
       59
 70
     1
330
402
 90
        0
 10
7721.378786902072
 20
4015.530308442822
 30
0.0
 10
0.7071067811857575
 20
-0.7071067811871217
 30
0.0
290
     0
 10
7721.378786902072
 20
4015.530308442822
 30
0.0
 11
7722.227315039494
 21
4014.681780305398
 31
0.0
 90
       56
 90
        1
 90
       57
 70
     1
330
0
 90
        0
280
     0
 90
       -1
 90
       55
 90
       57
 90
        2
 90
       56
 90
       55
 70
     0
 90
        0
290
     1
290
     1
 90
       58
 90
        2
 90
       59
 90
       65
 70
     1
330
0
 90
        0
280
     1
 90
       -1
 90
       55
 90
       59
 90
        2
 90
       58
 90
       55
 70
     0
 90
        0
290
     1
290
     1
 90
       60
 90
        2
 90
       62
 90
       64
 70
     1
330
404
 90
        0
 10
7722.227315039494
 20
4014.681780305398
 30
0.0
 10
0.0
 20
-1.0
 30
0.0
290
     0
 10
7722.227315039494
 20
4014.681780305398
 30
0.0
 11
7722.227315039494
 21
3997.530308442822
 31
0.0
 90
       61
 90
        2
 90
       62
 90
       65
 70
     1
330
0
 90
        0
280
     0
 90
       -1
 90
       60
 90
       62
 90
        2
 90
       61
 90
       60
 70
     0
 90
        0
290
     1
290
     1
 90
       63
 90
        2
 90
       64
 90
       71
 70
     1
330
0
 90
        0
280
     1
 90
       -1
 90
       60
 90
       64
 90
        2
 90
       63
 90
       60
 70
     0
 90
        0
290
     1
290
     1
 90
       65
 90
        2
 90
       58
 90
       61
 70
     0
 90
        0
290
     0
290
     1
 90
       66
 90
        3
 90
       68
 90
       70
 90
       72
 70
     1
330
400
 90
        0
 10
7722.227315039494
 20
3997.530308442822
 30
0.0
 10
1.0
 20
0.0
 30
0.0
290
     0
 10
7722.227315039494
 20
3997.530308442822
 30
0.0
 11
7797.578786902072
 21
3997.530308442822
 31
0.0
 90
       67
 90
        2
 90
       68
 90
       71
 70
     1
330
0
 90
        0
280
     0
 90
       -1
 90
       66
 90
       68
 90
        2
 90
       67
 90
       66
 70
     0
 90
        0
290
     1
290
     1
 90
       69
 90
        1
 90
       70
 70
     1
330
0
 90
        0
280
     1
 90
       -1
 90
       66
 90
       70
 90
        2
 90
       69
 90
       66
 70
     0
 90
        0
290
     1
290
     1
 90
       71
 90
        2
 90
       67
 90
       63
 70
     0
 90
        0
290
     0
290
     1
 90
       72
 90
        1
 90
       66
 70
     0
 90
        0
290
     0
290
     1
 90
       54
 90
       73
 90
        3
 90
       75
 90
       77
 90
       84
 70
     1
330
401
 90
        0
 10
7798.778786902072
 20
3996.330308442824
 30
0.0
 10
-1.0
 20
0.0
 30
0.0
290
     0
 10
7798.778786902072
 20
3996.330308442824
 30
0.0
 11
7727.378786902069
 21
3996.330308442824
 31
0.0
 90
       74
 90
        1
 90
       75
 70
     1
330
0
 90
        0
280
     0
 90
       -1
 90
       73
 90
       75
 90
        2
 90
       74
 90
       73
 70
     0
 90
        0
290
     1
290
     1
 90
       76
 90
        2
 90
       77
 90
       83
 70
     1
330
0
 90
        0
280
     1
 90
       -1
 90
       73
 90
       77
 90
        2
 90
       76
 90
       73
 70
     0
 90
        0
290
     1
290
     1
 90
       78
 90
        2
 90
       80
 90
       82
 70
     1
330
403
 90
        0
 10
7727.378786902069
 20
3996.330308442824
 30
0.0
 10
-0.707106781186667
 20
-0.707106781186667
 30
0.0
290
     0
 10
7727.378786902069
 20
3996.330308442824
 30
0.0
 11
7721.378786902072
 21
3990.330308442825
 31
0.0
 90
       79
 90
        2
 90
       80
 90
       83
 70
     1
330
0
 90
        0
280
     0
 90
       -1
 90
       78
 90
       80
 90
        2
 90
       79
 90
       78
 70
     0
 90
        0
290
     1
290
     1
 90
       81
 90
        1
 90
       82
 70
     1
330
0
 90
        0
280
     1
 90
       -1
 90
       78
 90
       82
 90
        2
 90
       81
 90
       78
 70
     0
 90
        0
290
     1
290
     1
 90
       83
 90
        2
 90
       76
 90
       79
 70
     0
 90
        0
290
     0
290
     1
 90
       84
 90
        1
 90
       73
 70
     0
 90
        0
290
     0
290
     1
 90
       54
  0
CELLSTYLEMAP
  5
6C7
102
{ACAD_REACTORS
330
6C6
102
}
330
6C6
100
AcDbCellStyleMap
 90
        3
300
CELLSTYLE
  1
TABLEFORMAT_BEGIN
 90
        5
170
     1
 91
        0
 92
    32768
 62
   257
 93
        1
300
CONTENTFORMAT
  1
CONTENTFORMAT_BEGIN
 90
        0
 91
        0
 92
      512
 93
        0
300

 40
0.0
140
1.0
 94
        5
 62
     0
340
11
144
0.25
309
CONTENTFORMAT_END
171
     0
 94
        0
309
TABLEFORMAT_END
  1
CELLSTYLE_BEGIN
 90
        1
 91
        1
300
_TITLE
309
CELLSTYLE_END
300
CELLSTYLE
  1
TABLEFORMAT_BEGIN
 90
        5
170
     1
 91
        0
 92
        0
 62
   257
 93
        1
300
CONTENTFORMAT
  1
CONTENTFORMAT_BEGIN
 90
        0
 91
        0
 92
      512
 93
        0
300

 40
0.0
140
1.0
 94
        5
 62
     0
340
11
144
0.18
309
CONTENTFORMAT_END
171
     0
 94
        0
309
TABLEFORMAT_END
  1
CELLSTYLE_BEGIN
 90
        2
 91
        1
300
_HEADER
309
CELLSTYLE_END
300
CELLSTYLE
  1
TABLEFORMAT_BEGIN
 90
        5
170
     1
 91
        0
 92
        0
 62
   257
 93
        1
300
CONTENTFORMAT
  1
CONTENTFORMAT_BEGIN
 90
        0
 91
        0
 92
      512
 93
        0
300

 40
0.0
140
1.0
 94
        2
 62
     0
340
11
144
0.18
309
CONTENTFORMAT_END
171
     0
 94
        0
309
TABLEFORMAT_END
  1
CELLSTYLE_BEGIN
 90
        3
 91
        2
300
_DATA
309
CELLSTYLE_END
  0
ACDBASSOCGEOMDEPENDENCY
  5
315
330
314
100
AcDbAssocDependency
 90
        2
 90
        0
290
     1
290
     1
290
     1
290
     1
 90
   -10000
330
1E6
290
     0
330
0
330
0
360
0
 90
        1
100
AcDbAssocGeomDependency
 90
        0
290
     1
  1
AcDbAssocSimplePersSubentId
 90
        1
 90
        3
 90
       -1
290
     0
290
     0
  0
ACDBASSOCGEOMDEPENDENCY
  5
316
330
314
100
AcDbAssocDependency
 90
        2
 90
        0
290
     1
290
     1
290
     1
290
     1
 90
   -10000
330
1F4
290
     0
330
0
330
0
360
0
 90
        2
100
AcDbAssocGeomDependency
 90
        0
290
     1
  1
AcDbAssocSingleEdgePersSubentId
290
     0
  0
ACDBASSOCGEOMDEPENDENCY
  5
3FA
330
314
100
AcDbAssocDependency
 90
        2
 90
        0
290
     1
290
     1
290
     1
290
     1
 90
   -10000
330
28B
290
     0
330
0
330
0
360
0
 90
        4
100
AcDbAssocGeomDependency
 90
        0
290
     1
  1
AcDbAssocSingleEdgePersSubentId
290
     0
  0
ACDBASSOCGEOMDEPENDENCY
  5
3F9
330
314
100
AcDbAssocDependency
 90
        2
 90
        0
290
     1
290
     1
290
     1
290
     1
 90
   -10000
330
28C
290
     0
330
0
330
0
360
0
 90
        3
100
AcDbAssocGeomDependency
 90
        0
290
     1
  1
AcDbAssocSingleEdgePersSubentId
290
     0
  0
ACDBASSOCGEOMDEPENDENCY
  5
430
330
314
100
AcDbAssocDependency
 90
        2
 90
        0
290
     1
290
     1
290
     1
290
     1
 90
   -10000
330
1FC
290
     0
330
0
330
0
360
0
 90
        5
100
AcDbAssocGeomDependency
 90
        0
290
     1
  1
AcDbAssocEdgePersSubentId
 90
        0
 90
        9
 90
       10
290
     0
  0
ACDBASSOCGEOMDEPENDENCY
  5
4DF
330
314
100
AcDbAssocDependency
 90
        2
 90
        0
290
     1
290
     1
290
     1
290
     1
 90
   -10000
330
1FD
290
     0
330
0
330
0
360
0
 90
        6
100
AcDbAssocGeomDependency
 90
        0
290
     1
  1
AcDbAssocSingleEdgePersSubentId
290
     0
  0
ACDBASSOCGEOMDEPENDENCY
  5
5BC
330
314
100
AcDbAssocDependency
 90
        2
 90
        0
290
     1
290
     1
290
     1
290
     1
 90
   -10000
330
1F5
290
     0
330
0
330
0
360
0
 90
        8
100
AcDbAssocGeomDependency
 90
        0
290
     1
  1
AcDbAssocEdgePersSubentId
 90
        0
 90
        3
 90
        4
290
     0
  0
ACDBASSOCGEOMDEPENDENCY
  5
4E0
330
314
100
AcDbAssocDependency
 90
        2
 90
        0
290
     1
290
     1
290
     1
290
     1
 90
   -10000
330
1F9
290
     0
330
0
330
0
360
0
 90
        7
100
AcDbAssocGeomDependency
 90
        0
290
     1
  1
AcDbAssocEdgePersSubentId
 90
        0
 90
       24
 90
       25
290
     0
  0
ACDBASSOCGEOMDEPENDENCY
  5
400
330
3FF
100
AcDbAssocDependency
 90
        2
 90
        0
290
     1
290
     1
290
     1
290
     1
 90
   -10000
330
412
290
     0
330
0
330
0
360
0
 90
        8
100
AcDbAssocGeomDependency
 90
        0
290
     1
  1
AcDbAssocSingleEdgePersSubentId
290
     0
  0
ACDBASSOCGEOMDEPENDENCY
  5
401
330
3FF
100
AcDbAssocDependency
 90
        2
 90
        0
290
     1
290
     1
290
     1
290
     1
 90
   -10000
330
41A
290
     0
330
0
330
0
360
0
 90
       12
100
AcDbAssocGeomDependency
 90
        0
290
     1
  1
AcDbAssocSingleEdgePersSubentId
290
     0
  0
ACDBASSOCGEOMDEPENDENCY
  5
402
330
3FF
100
AcDbAssocDependency
 90
        2
 90
        0
290
     1
290
     1
290
     1
290
     1
 90
   -10000
330
410
290
     0
330
0
330
0
360
0
 90
        9
100
AcDbAssocGeomDependency
 90
        0
290
     1
  1
AcDbAssocSingleEdgePersSubentId
290
     0
  0
ACDBASSOCGEOMDEPENDENCY
  5
403
330
3FF
100
AcDbAssocDependency
 90
        2
 90
        0
290
     1
290
     1
290
     1
290
     1
 90
   -10000
330
409
290
     0
330
0
330
0
360
0
 90
       10
100
AcDbAssocGeomDependency
 90
        0
290
     1
  1
AcDbAssocSingleEdgePersSubentId
290
     0
  0
ACDBASSOCGEOMDEPENDENCY
  5
404
330
3FF
100
AcDbAssocDependency
 90
        2
 90
        0
290
     1
290
     1
290
     1
290
     1
 90
   -10000
330
411
290
     0
330
0
330
0
360
0
 90
       11
100
AcDbAssocGeomDependency
 90
        0
290
     1
  1
AcDbAssocSingleEdgePersSubentId
290
     0
  0
ENDSEC
  0
SECTION
  2
ACDSDATA
 70
     2
 71
     8
  0
ACDSSCHEMA
 90
        0
  1
AcDb_Thumbnail_Schema
  2
AcDbDs::ID
280
    10
 91
        8
  2
Thumbnail_Data
280
    15
 91
        0
101
ACDSRECORD
 95
        0
 90
        1
  2
AcDbDs::TreatedAsObjectData
280
     1
291
     1
101
ACDSRECORD
 95
        0
 90
        2
  2
AcDbDs::Legacy
280
     1
291
     1
101
ACDSRECORD
  1
AcDbDs::ID
 90
        3
  2
AcDs:Indexable
280
     1
291
     1
101
ACDSRECORD
  1
AcDbDs::ID
 90
        4
  2
AcDbDs::HandleAttribute
280
     7
282
     1
  0
ACDSSCHEMA
 90
        1
  1
AcDbDs::TreatedAsObjectDataSchema
  2
AcDbDs::TreatedAsObjectData
280
     1
 91
        0
  0
ACDSSCHEMA
 90
        2
  1
AcDbDs::LegacySchema
  2
AcDbDs::Legacy
280
     1
 91
        0
  0
ACDSSCHEMA
 90
        3
  1
AcDbDs::IndexedPropertySchema
  2
AcDs:Indexable
280
     1
 91
        0
  0
ACDSSCHEMA
 90
        4
  1
AcDbDs::HandleAttributeSchema
  2
AcDbDs::HandleAttribute
280
     7
 91
        1
284
     1
  0
ACDSSCHEMA
 90
        5
  1
AcDb3DSolid_ASM_Data
  2
AcDbDs::ID
280
    10
 91
        8
  2
ASM_Data
280
    15
 91
        0
101
ACDSRECORD
 95
        5
 90
        1
  2
AcDbDs::TreatedAsObjectData
280
     1
291
     1
101
ACDSRECORD
 95
        5
 90
        2
  2
AcDbDs::Legacy
280
     1
291
     1
101
ACDSRECORD
  1
AcDbDs::ID
 90
        3
  2
AcDs:Indexable
280
     1
291
     1
101
ACDSRECORD
  1
AcDbDs::ID
 90
        4
  2
AcDbDs::HandleAttribute
280
     7
282
     1
  0
ACDSRECORD
 90
        0
  2
AcDbDs::ID
280
    10
320
22
  2
Thumbnail_Data
280
    15
 94
     2452
310
89504E470D0A1A0A0000000D49484452000001000000007E0803000000FCF33F5100000300504C5445212830FFFFFF2128300000000000000000000000000000000000000000000000000000330000660000990000CC0000FF0033000033330033660033990033CC0033FF0066000066330066660066990066CC0066FF0099
310
000099330099660099990099CC0099FF00CC0000CC3300CC6600CC9900CCCC00CCFF00FF0000FF3300FF6600FF9900FFCC00FFFF3300003300333300663300993300CC3300FF3333003333333333663333993333CC3333FF3366003366333366663366993366CC3366FF3399003399333399663399993399CC3399FF33CC00
310
33CC3333CC6633CC9933CCCC33CCFF33FF0033FF3333FF6633FF9933FFCC33FFFF6600006600336600666600996600CC6600FF6633006633336633666633996633CC6633FF6666006666336666666666996666CC6666FF6699006699336699666699996699CC6699FF66CC0066CC3366CC6666CC9966CCCC66CCFF66FF0066
310
FF3366FF6666FF9966FFCC66FFFF9900009900339900669900999900CC9900FF9933009933339933669933999933CC9933FF9966009966339966669966999966CC9966FF9999009999339999669999999999CC9999FF99CC0099CC3399CC6699CC9999CCCC99CCFF99FF0099FF3399FF6699FF9999FFCC99FFFFCC0000CC00
310
33CC0066CC0099CC00CCCC00FFCC3300CC3333CC3366CC3399CC33CCCC33FFCC6600CC6633CC6666CC6699CC66CCCC66FFCC9900CC9933CC9966CC9999CC99CCCC99FFCCCC00CCCC33CCCC66CCCC99CCCCCCCCCCFFCCFF00CCFF33CCFF66CCFF99CCFFCCCCFFFFFF0000FF0033FF0066FF0099FF00CCFF00FFFF3300FF3333
310
FF3366FF3399FF33CCFF33FFFF6600FF6633FF6666FF6699FF66CCFF66FFFF9900FF9933FF9966FF9999FF99CCFF99FFFFCC00FFCC33FFCC66FFCC99FFCCCCFFCCFFFFFF00FFFF33FFFF66FFFF99FFFFCCFFFFFF0000000D0D0D1A1A1A2828283535354343435050505D5D5D6B6B6B787878868686939393A1A1A1AEAEAEBB
310
BBBBC9C9C9D6D6D6E4E4E4F1F1F1FFFFFF0000000000000000000000000000000000000000000000000000000000002E4550F1000003204944415478DAED98B1721A311086A1CDFBE47D1CBF475A378617C00D15159C8B9C5465C6951BA7B1C40CEC2A0DBC007727C97D760F48C6496E0627E3CC99FC9FB883C378C6FBE9BF
310
45F260000000000000000000000000000000000000000000000000000000000000000000000000000000FC973CBD095E53C09BB07E760286421E7E3FE761CE39E59472D453CA59DFFFF1815E0AF89BC97B3A147D283069F56DED429421E47CAC3FBFBA808717F15B731F27F72F112C0272F04441E739B733BFAF5D1E0DB138
310
90474E6D0C98FB2F603E9FDD4FEE7EEFA03301E4D89314990ED18F917D94C2AD2BC8B439887A2B6C3CF55EC06A35736240C6BB530548B0791D99B5FAA8D3AF536E58CFECCB6588FB5B214A3C1CE75E08E8AE6CB47A7C9CCDA653C9C0DDE4F40404473171C96CD81B367AB0217963C164996EE562696288BD17703596043C4E
310
BF4CDA0C9C2E20055706E70B470BEF8AB5F77EE17DB17472E138C80DE23C396B42D1931ED059D968B49A3FCE1EA613A9FFE6F404A414D8C96C1BA9B894C3C8AC7B43B420A93B24F21B79E5A4219AD0F3045C8EDB1EF0D204E482B24CBD3732E192F705858675EE1DB9E5270EEB90A57A231EFE81803FFDC5F148C6C5F8790F
310
1007D6067B61BF5A6B0736740AD0904BFA3501C6976E59FA75E14925C84FA8081BC7F235211FE29C7B2AE0727C2563D426E0D80374D8ADDD5E6FC5C07660AFBBBE05865C50C185F36528C887923C33493BA440AC95CBB32713BC74C5DE26406E7FCD80F480B9F480A9F6801B5D0F6C65EE6FE5D8DA4E01DA04A5C35B4756BE
310
FB6323AFA32E81D3A65D04EA23EDD7C429F476293C188C2FC7A30FCF7BC03101EFB7763FBA97C2317E0E856F765555EDF45435754B55A7BADAE9ABA6A99BBA6A52EE6D027EED013AF63D20D8966E01B2F889646255EFB4DCA8154B1CD442B2B6DACBA8A36DEA18CF713394DBF55F6817BC9AFAC39670D86E04751F74BCD0E3
310
1CB7C3EDFE5762B05FF11FF7BEC7A79F9EF10F917313D0A73F120220000220000220000220000220000220000220000220000220000220000220000220000220000220000220000220000220000220000220000220000220E00D08F80605D18C338F46FE040000000049454E44AE426082C026BBC413CE765140310826F1BB
310
00D286B066A1F18111FF68602499C12DFC2C08E0F5C0C8BDEDE9BC65450020F702298111BE4D2407460EF9D9DDB1235ADC3ADA2E34D20CF26D612057C6455C80A4A3EC002B0250C67B3530024A06CA0EB0FB885602803430228DBCD825487D25B11C16AB961D4047FE636B7CA7D0202B8048B73DE5C9AF8807E6DD526C6A7C
310
38455706407B40C52DDE8D0B7C1D80071F98500074E5BF11E8161A06005F796002BF00007B3082D942AF3E30E15985AF00E01F7D60C2F36D72E51870E2EA161A69055E7A6042C4859458D173D7581578E181893232B618008072ED2BE77C2260402A14FFE801817CD53E740B0D1C034E3D30E1AB0F4C1404D603F0D20313DF
310
01009E7E60626D0080ED0726E0CC03135F00A01A17501E981071017522B4941578F73FFA2651D600E0DCFA00B4D96CFF720DE12256A0BFA14CC24A120C5501781C80EBB42CE648C11E298B05531552179BB9A366828FFC3D77A25BE7BE1FDD855C4E52081AB9A3AC803BFDB7DCC33AFDD96D0E6FEA01EE36907D42F8990914
310
56E023C28798D9363980CE20E85E9F966CCB0270EF99936DB3AB80D324746F9C906E3303D0AC807BF76C7C9BBB073051DD47962233EF133C0601F739E167378361E2053F23BCBA188A6B3BF8914B8C01EE675ABE04F083C2735FC30F0AFF69678B01300006C00018000360000C8001300006C00018000360000C8001300006
310
C00018000360000C8001300006C00018000360000C8001300006C00018000360000C8001300006C00018000360000C8001300006601600D71FEF73350077E6320006C0007C3D80E38C2C971E2BC612C0E9D1B03D6E62ED048F0F8FB56D00C70961E1257C1000CE1FC0D52E3927800881F6050E00913630E4B3C2C24904EC48
310
A84421BCA5D91980728F1500E47F3DBF45A447B44511191CC84789914E4208E1D50092FCAE0A801E7DC64F077B0840AE43CE72B85C05B2FC750044B4242A01203B79B707849687190010F93B009872AB2AFC800A887B5C6B05D24BDB0A6800CA3180FC74C6009C620C0807AAB083336BF3004471106269054836C806D6AC00
310
4E61059E9D09222C712CC707A7C26F5C30FF03011C6F7E0B8CAF900000000049454E44AE426082
  0
ACDSRECORD
 90
        5
  2
AcDbDs::ID
280
    10
320
4D8
  2
ASM_Data
280
    15
 94
    14217
310
414349532042696E61727946696C652855000000000000020000000C00000007104175746F6465736B204175746F434144071341534D203231392E302E302E35363030204E540718467269204A756C2032352031313A32303A33392032303134066666666666663940068DEDB5A0F7C6B03E06BBBDD7D9DF7CDB3D0D096173
310
6D6865616465720CFFFFFFFF04FFFFFFFF070C3231392E302E302E35363030110D04626F64790CFFFFFFFF04FFFFFFFF0CFFFFFFFF0C020000000CFFFFFFFF0CFFFFFFFF110D046C756D700CFFFFFFFF04FFFFFFFF0CFFFFFFFF0CFFFFFFFF0C030000000C01000000110D057368656C6C0CFFFFFFFF04FFFFFFFF0CFFFFFF
310
FF0CFFFFFFFF0CFFFFFFFF0C040000000CFFFFFFFF0C02000000110D04666163650CFFFFFFFF04FFFFFFFF0CFFFFFFFF0CFFFFFFFF0C050000000C030000000CFFFFFFFF0C060000000B0A0B110D046C6F6F700CFFFFFFFF04FFFFFFFF0CFFFFFFFF0C070000000C080000000C04000000110E05706C616E650D0773757266
310
6163650CFFFFFFFF04FFFFFFFF0CFFFFFFFF13CFAA30FC4691D940503776C38834C1C000000000000000001400000000000000000000000000000000000000000000F03F14000000000000F0BF000000000000000000000000000000000A0B0B0B0B110D046C6F6F700CFFFFFFFF04FFFFFFFF0CFFFFFFFF0CFFFFFFFF0C09
310
0000000C04000000110D06636F656467650CFFFFFFFF04FFFFFFFF0CFFFFFFFF0C0A0000000C0B0000000CFFFFFFFF0C0C0000000A0C0500000004000000000CFFFFFFFF110D06636F656467650CFFFFFFFF04FFFFFFFF0CFFFFFFFF0C0D0000000C0E0000000CFFFFFFFF0C0F0000000A0C0700000004000000000CFFFFFF
310
FF110D06636F656467650CFFFFFFFF04FFFFFFFF0CFFFFFFFF0C100000000C080000000CFFFFFFFF0C110000000A0C0500000004000000000CFFFFFFFF110D06636F656467650CFFFFFFFF04FFFFFFFF0CFFFFFFFF0C080000000C120000000CFFFFFFFF0C130000000A0C0500000004000000000CFFFFFFFF110D04656467
310
650CFFFFFFFF04FFFFFFFF0CFFFFFFFF0C14000000067B8AF82E00A812C00C150000000600000000000000800C080000000C160000000B0707756E6B6E6F776E110D06636F656467650CFFFFFFFF04FFFFFFFF0CFFFFFFFF0C170000000C090000000CFFFFFFFF0C180000000A0C0700000004000000000CFFFFFFFF110D06
310
636F656467650CFFFFFFFF04FFFFFFFF0CFFFFFFFF0C090000000C190000000CFFFFFFFF0C1A0000000A0C0700000004000000000CFFFFFFFF110D04656467650CFFFFFFFF04FFFFFFFF0CFFFFFFFF0C1B0000000600000000000000000C1C000000065E15213217A104400C090000000C1D0000000B0707756E6B6E6F776E
310
110D06636F656467650CFFFFFFFF04FFFFFFFF0CFFFFFFFF0C120000000C0A0000000CFFFFFFFF0C1E0000000A0C0500000004000000000CFFFFFFFF110D04656467650CFFFFFFFF04FFFFFFFF0CFFFFFFFF0C1F00000006C0EFA786952BE6BF0C140000000600000000000000800C0A0000000C200000000B0707756E6B6E
310
6F776E110D06636F656467650CFFFFFFFF04FFFFFFFF0CFFFFFFFF0C0B0000000C100000000CFFFFFFFF0C210000000A0C0500000004000000000CFFFFFFFF110D04656467650CFFFFFFFF04FFFFFFFF0CFFFFFFFF0C1500000006A985A86B52D550C00C220000000600000000000000000C0B0000000C230000000B070775
310
6E6B6E6F776E110D067665727465780CFFFFFFFF04FFFFFFFF0CFFFFFFFF0C0C00000004020000000C24000000110D067665727465780CFFFFFFFF04FFFFFFFF0CFFFFFFFF0C0C00000004020000000C25000000110E0873747261696768740D0563757276650CFFFFFFFF04FFFFFFFF0CFFFFFFFF13EFABDA84D689D94070
310
CDC825983CC1C0000000000000000014E33AFBFFFFFFDF3F2CAD59E87AB6EBBF00000000000000000A067B8AF82E00A812C00A060000000000000080110D06636F656467650CFFFFFFFF04FFFFFFFF0CFFFFFFFF0C260000000C0D0000000CFFFFFFFF0C270000000A0C0700000004000000000CFFFFFFFF110D0465646765
310
0CFFFFFFFF04FFFFFFFF0CFFFFFFFF0C280000000600000000000000000C1B000000066010F8D3D8CDF33F0C0D0000000C290000000B0707756E6B6E6F776E110D06636F656467650CFFFFFFFF04FFFFFFFF0CFFFFFFFF0C0E0000000C2A0000000CFFFFFFFF0C2B0000000A0C0700000004000000000CFFFFFFFF110D0465
310
6467650CFFFFFFFF04FFFFFFFF0CFFFFFFFF0C1C0000000600000000000000000C2C00000006D0769E8C0400F03F0C0E0000000C2D0000000B0707756E6B6E6F776E110D067665727465780CFFFFFFFF04FFFFFFFF0CFFFFFFFF0C0F00000004020000000C2E000000110D067665727465780CFFFFFFFF04FFFFFFFF0CFFFF
310
FFFF0C0F00000004020000000C2F000000110E0873747261696768740D0563757276650CFFFFFFFF04FFFFFFFF0CFFFFFFFF132F5AE1206887D94054A922D9D23DC1C000000000000000001400A5E5F91D06EF3FB57D94E6935FCF3F00000000000000000B0B110D04656467650CFFFFFFFF04FFFFFFFF0CFFFFFFFF0C3000
310
00000654E3253CCCED28C00C1F0000000600000000000000800C100000000C310000000B0707756E6B6E6F776E110D067665727465780CFFFFFFFF04FFFFFFFF0CFFFFFFFF0C1100000004020000000C32000000110E0873747261696768740D0563757276650CFFFFFFFF04FFFFFFFF0CFFFFFFFF134F34D9444189D940F4
310
B85E21933AC1C0000000000000000014000000000000F03F000000000000000000000000000000000A06C0EFA786952BE6BF0A060000000000000080110D04656467650CFFFFFFFF04FFFFFFFF0CFFFFFFFF0C2200000006E4A50BC9761351C00C300000000600000000000000000C120000000C330000000B0707756E6B6E
310
6F776E110D067665727465780CFFFFFFFF04FFFFFFFF0CFFFFFFFF0C2100000004020000000C34000000110E0873747261696768740D0563757276650CFFFFFFFF04FFFFFFFF0CFFFFFFFF138F327764289AD9407CAF4FAE5734C1C00000000000000000140D47E5F91D06EF3F324C9AE6935FCF3F00000000000000000A06
310
A985A86B52D550C00A060000000000000080110D05706F696E740CFFFFFFFF04FFFFFFFF0CFFFFFFFF134F34D9444189D940F4B85E21933AC1C00000000000000000110D05706F696E740CFFFFFFFF04FFFFFFFF0CFFFFFFFF13EFABDA84D689D94070CDC825983CC1C00000000000000000110D06636F656467650CFFFFFF
310
FF04FFFFFFFF0CFFFFFFFF0C350000000C170000000CFFFFFFFF0C360000000A0C0700000004000000000CFFFFFFFF110D04656467650CFFFFFFFF04FFFFFFFF0CFFFFFFFF0C370000000600000000000000000C2800000006FEE12F3F7D9A54400C170000000C380000000B0707756E6B6E6F776E110D067665727465780C
310
FFFFFFFF04FFFFFFFF0CFFFFFFFF0C2700000004020000000C39000000110E0873747261696768740D0563757276650CFFFFFFFF04FFFFFFFF0CFFFFFFFF132F5AE1206887D9401649E947713EC1C00000000000000000140000000000000000000000000000F03F00000000000000000B0B110D06636F656467650CFFFFFF
310
FF04FFFFFFFF0CFFFFFFFF0C190000000C3A0000000CFFFFFFFF0C3B0000000A0C0700000004000000000CFFFFFFFF110D04656467650CFFFFFFFF04FFFFFFFF0CFFFFFFFF0C2C0000000600000000000000000C3C00000006249C7D373F1FF03F0C190000000C3D0000000B0707756E6B6E6F776E110D067665727465780C
310
FFFFFFFF04FFFFFFFF0CFFFFFFFF0C1A00000004020000000C3E000000110E0873747261696768740D0563757276650CFFFFFFFF04FFFFFFFF0CFFFFFFFF132F5AE1200888D940007172F2813DC1C00000000000000000140000000000000000000000000000F03F00000000000000000B0B110D05706F696E740CFFFFFFFF
310
04FFFFFFFF0CFFFFFFFF132F5AE1206887D94054A922D9D23DC1C00000000000000000110D05706F696E740CFFFFFFFF04FFFFFFFF0CFFFFFFFF132F5AE1200888D940007172F2813DC1C00000000000000000110D067665727465780CFFFFFFFF04FFFFFFFF0CFFFFFFFF0C1E00000004020000000C3F000000110E087374
310
7261696768740D0563757276650CFFFFFFFF04FFFFFFFF0CFFFFFFFF13EF26AEED1489D940F4B85E21933AC1C00000000000000000140000000000000000000000000000F0BF00000000000000000A0654E3253CCCED28C00A060000000000000080110D05706F696E740CFFFFFFFF04FFFFFFFF0CFFFFFFFF13EF26AEED14
310
89D940F4B85E21933AC1C00000000000000000110E0873747261696768740D0563757276650CFFFFFFFF04FFFFFFFF0CFFFFFFFF13EF26AEED1489D9407CAF4FAE5734C1C0000000000000000014000000000000F0BF000000000000000000000000000000000A06E4A50BC9761351C00A060000000000000000110D05706F
310
696E740CFFFFFFFF04FFFFFFFF0CFFFFFFFF138F327764289AD9407CAF4FAE5734C1C00000000000000000110D06636F656467650CFFFFFFFF04FFFFFFFF0CFFFFFFFF0C400000000C260000000CFFFFFFFF0C410000000A0C0700000004000000000CFFFFFFFF110D04656467650CFFFFFFFF04FFFFFFFF0CFFFFFFFF0C42
310
0000000600000000000000000C370000000600000000000024400C260000000C430000000B0707756E6B6E6F776E110D067665727465780CFFFFFFFF04FFFFFFFF0CFFFFFFFF0C3600000004020000000C44000000110E0873747261696768740D0563757276650CFFFFFFFF04FFFFFFFF0CFFFFFFFF13AFF37ABA619BD940
310
7CAF4FAE5734C1C00000000000000000149B43E5F91D06EFBFBB829AE6935FCFBF00000000000000000B0B110D05706F696E740CFFFFFFFF04FFFFFFFF0CFFFFFFFF132F5AE1206887D9401649E947713EC1C00000000000000000110D06636F656467650CFFFFFFFF04FFFFFFFF0CFFFFFFFF0C2A0000000C450000000CFF
310
FFFFFF0C460000000A0C0700000004000000000CFFFFFFFF110D04656467650CFFFFFFFF04FFFFFFFF0CFFFFFFFF0C3C0000000600000000000000000C47000000063D19FFA8C1BD16400C2A0000000C480000000B0707756E6B6E6F776E110D067665727465780CFFFFFFFF04FFFFFFFF0CFFFFFFFF0C2B00000004020000
310
000C49000000110E0873747261696768740D0563757276650CFFFFFFFF04FFFFFFFF0CFFFFFFFF132F5AE1200888D9400E0C4EF2013DC1C00000000000000000145DA5FEFFFFFFDF3FBCB058E87AB6EBBF00000000000000000B0B110D05706F696E740CFFFFFFFF04FFFFFFFF0CFFFFFFFF132F5AE1200888D9400E0C4EF2
310
013DC1C00000000000000000110D05706F696E740CFFFFFFFF04FFFFFFFF0CFFFFFFFF13EF26AEED1489D9407CAF4FAE5734C1C00000000000000000110D06636F656467650CFFFFFFFF04FFFFFFFF0CFFFFFFFF0C4A0000000C350000000CFFFFFFFF0C4B0000000A0C0700000004000000000CFFFFFFFF110D0465646765
310
0CFFFFFFFF04FFFFFFFF0CFFFFFFFF0C4C0000000600000000000000000C420000000600000000000030400C350000000C4D0000000B0707756E6B6E6F776E110D067665727465780CFFFFFFFF04FFFFFFFF0CFFFFFFFF0C4100000004020000000C4E000000110E0873747261696768740D0563757276650CFFFFFFFF04FF
310
FFFFFF0CFFFFFFFF13AFF37ABA619BD9407CAF4FAE572FC1C00000000000000000140000000000000000000000000000F0BF00000000000000000B0B110D05706F696E740CFFFFFFFF04FFFFFFFF0CFFFFFFFF13AFF37ABA619BD9407CAF4FAE5734C1C00000000000000000110D06636F656467650CFFFFFFFF04FFFFFFFF
310
0CFFFFFFFF0C3A0000000C4F0000000CFFFFFFFF0C500000000A0C0700000004000000000CFFFFFFFF110D04656467650CFFFFFFFF04FFFFFFFF0CFFFFFFFF0C470000000600000000000000000C51000000067DA1E45E1E0D0D400C3A0000000C520000000B0707756E6B6E6F776E110D067665727465780CFFFFFFFF04FF
310
FFFFFF0CFFFFFFFF0C3B00000004020000000C53000000110E0873747261696768740D0563757276650CFFFFFFFF04FFFFFFFF0CFFFFFFFF132FC95F5F2888D9407CE0B5A4713DC1C00000000000000000146FDCE4F91D06EF3FE2E2A0E6935FCF3F00000000000000000B0B110D05706F696E740CFFFFFFFF04FFFFFFFF0C
310
FFFFFFFF132FC95F5F2888D9407CE0B5A4713DC1C00000000000000000110D06636F656467650CFFFFFFFF04FFFFFFFF0CFFFFFFFF0C540000000C400000000CFFFFFFFF0C550000000A0C0700000004000000000CFFFFFFFF110D04656467650CFFFFFFFF04FFFFFFFF0CFFFFFFFF0C560000000600000000000000000C4C
310
00000006383333333333F33F0C400000000C570000000B0707756E6B6E6F776E110D067665727465780CFFFFFFFF04FFFFFFFF0CFFFFFFFF0C4B00000004020000000C58000000110E0873747261696768740D0563757276650CFFFFFFFF04FFFFFFFF0CFFFFFFFF13AFF37ABA619FD9407CAF4FAE572FC1C0000000000000
310
000014000000000000F0BF000000000000000000000000000000000B0B110D05706F696E740CFFFFFFFF04FFFFFFFF0CFFFFFFFF13AFF37ABA619BD9407CAF4FAE572FC1C00000000000000000110D06636F656467650CFFFFFFFF04FFFFFFFF0CFFFFFFFF0C450000000C590000000CFFFFFFFF0C5A0000000A0C07000000
310
04000000000CFFFFFFFF110D04656467650CFFFFFFFF04FFFFFFFF0CFFFFFFFF0C510000000600000000000000000C5B00000006203333333333F33F0C450000000C5C0000000B0707756E6B6E6F776E110D067665727465780CFFFFFFFF04FFFFFFFF0CFFFFFFFF0C4600000004020000000C5D000000110E087374726169
310
6768740D0563757276650CFFFFFFFF04FFFFFFFF0CFFFFFFFF136FA227228989D940966EB546BF3CC1C0000000000000000014344FFCFFFFFFDFBF685D59E87AB6EB3F00000000000000000B0B110D05706F696E740CFFFFFFFF04FFFFFFFF0CFFFFFFFF136FA227228989D940966EB546BF3CC1C00000000000000000110D
310
06636F656467650CFFFFFFFF04FFFFFFFF0CFFFFFFFF0C5E0000000C4A0000000CFFFFFFFF0C5F0000000A0C0700000004000000000CFFFFFFFF110D04656467650CFFFFFFFF04FFFFFFFF0CFFFFFFFF0C600000000600000000000000000C560000000600000000000030400C4A0000000C610000000B0707756E6B6E6F77
310
6E110D067665727465780CFFFFFFFF04FFFFFFFF0CFFFFFFFF0C5500000004020000000C62000000110E0873747261696768740D0563757276650CFFFFFFFF04FFFFFFFF0CFFFFFFFF13AFF37ABA619FD940E215B614BE2EC1C00000000000000000140000000000000000000000000000F0BF00000000000000000B0B110D
310
05706F696E740CFFFFFFFF04FFFFFFFF0CFFFFFFFF13AFF37ABA619FD9407CAF4FAE572FC1C00000000000000000110D06636F656467650CFFFFFFFF04FFFFFFFF0CFFFFFFFF0C4F0000000C630000000CFFFFFFFF0C640000000A0C0700000004000000000CFFFFFFFF110D04656467650CFFFFFFFF04FFFFFFFF0CFFFFFF
310
FF0C5B0000000600000000000000000C65000000064060E5A8999D02400C4F0000000C660000000B0707756E6B6E6F776E110D067665727465780CFFFFFFFF04FFFFFFFF0CFFFFFFFF0C5000000004020000000C67000000110E0873747261696768740D0563757276650CFFFFFFFF04FFFFFFFF0CFFFFFFFF13EF26AEED14
310
89D9408C52F8BA2C3BC1C0000000000000000014000000000000F0BF000000000000000000000000000000000B0B110D05706F696E740CFFFFFFFF04FFFFFFFF0CFFFFFFFF13EF26AEED1489D9408C52F8BA2C3BC1C00000000000000000110D06636F656467650CFFFFFFFF04FFFFFFFF0CFFFFFFFF0C680000000C540000
310
000CFFFFFFFF0C690000000A0C0700000004000000000CFFFFFFFF110D04656467650CFFFFFFFF04FFFFFFFF0CFFFFFFFF0C6A0000000600000000000000000C600000000600000000000020400C540000000C6B0000000B0707756E6B6E6F776E110D067665727465780CFFFFFFFF04FFFFFFFF0CFFFFFFFF0C5F00000004
310
020000000C6C000000110E0873747261696768740D0563757276650CFFFFFFFF04FFFFFFFF0CFFFFFFFF13AFF37ABA619BD940E215B614BE2EC1C0000000000000000014000000000000F03F000000000000000000000000000000000B0B110D05706F696E740CFFFFFFFF04FFFFFFFF0CFFFFFFFF13AFF37ABA619FD940E2
310
15B614BE2EC1C00000000000000000110D06636F656467650CFFFFFFFF04FFFFFFFF0CFFFFFFFF0C590000000C6D0000000CFFFFFFFF0C6E0000000A0C0700000004000000000CFFFFFFFF110D04656467650CFFFFFFFF04FFFFFFFF0CFFFFFFFF0C650000000600000000000000000C6F00000006F094695C9989F53F0C59
310
0000000C700000000B0707756E6B6E6F776E110D067665727465780CFFFFFFFF04FFFFFFFF0CFFFFFFFF0C5A00000004020000000C71000000110E0873747261696768740D0563757276650CFFFFFFFF04FFFFFFFF0CFFFFFFFF132F5AE120C888D9408C52F8BA2C3BC1C0000000000000000014000000000000F0BF000000
310
000000000000000000000000000B0B110D05706F696E740CFFFFFFFF04FFFFFFFF0CFFFFFFFF132F5AE120C888D9408C52F8BA2C3BC1C00000000000000000110D06636F656467650CFFFFFFFF04FFFFFFFF0CFFFFFFFF0C720000000C5E0000000CFFFFFFFF0C730000000A0C0700000004000000000CFFFFFFFF110D0465
310
6467650CFFFFFFFF04FFFFFFFF0CFFFFFFFF0C740000000600000000000000000C6A00000006303333333333F33F0C5E0000000C750000000B0707756E6B6E6F776E110D067665727465780CFFFFFFFF04FFFFFFFF0CFFFFFFFF0C6900000004020000000C76000000110E0873747261696768740D0563757276650CFFFFFF
310
FF04FFFFFFFF0CFFFFFFFF13AFF37ABA619BD940E215B614BE2AC1C00000000000000000140000000000000000000000000000F0BF00000000000000000B0B110D05706F696E740CFFFFFFFF04FFFFFFFF0CFFFFFFFF13AFF37ABA619BD940E215B614BE2EC1C00000000000000000110D06636F656467650CFFFFFFFF04FF
310
FFFFFF0CFFFFFFFF0C630000000C770000000CFFFFFFFF0C780000000A0C0700000004000000000CFFFFFFFF110D04656467650CFFFFFFFF04FFFFFFFF0CFFFFFFFF0C6F0000000600000000000000000C790000000666666666666612400C630000000C7A0000000B0707756E6B6E6F776E110D067665727465780CFFFFFF
310
FF04FFFFFFFF0CFFFFFFFF0C6400000004020000000C7B000000110E0873747261696768740D0563757276650CFFFFFFFF04FFFFFFFF0CFFFFFFFF130F1314343388D9408C52F8BA2C3BC1C0000000000000000014E2AD00000000E0BF46E857E87AB6EBBF00000000000000000B0B110D05706F696E740CFFFFFFFF04FFFF
310
FFFF0CFFFFFFFF130F1314343388D9408C52F8BA2C3BC1C00000000000000000110D06636F656467650CFFFFFFFF04FFFFFFFF0CFFFFFFFF0C7C0000000C680000000CFFFFFFFF0C7D0000000A0C0700000004000000000CFFFFFFFF110D04656467650CFFFFFFFF04FFFFFFFF0CFFFFFFFF0C7E0000000600000000000000
310
000C7400000006A2456EF18A4311400C680000000C7F0000000B0707756E6B6E6F776E110D067665727465780CFFFFFFFF04FFFFFFFF0CFFFFFFFF0C7300000004020000000C80000000110E0873747261696768740D0563757276650CFFFFFFFF04FFFFFFFF0CFFFFFFFF13CF26AEED149BD940E215B614BE2AC1C0000000
310
000000000014000000000000F03F000000000000000000000000000000000B0B110D05706F696E740CFFFFFFFF04FFFFFFFF0CFFFFFFFF13AFF37ABA619BD940E215B614BE2AC1C00000000000000000110D06636F656467650CFFFFFFFF04FFFFFFFF0CFFFFFFFF0C6D0000000C810000000CFFFFFFFF0C820000000A0C07
310
00000004000000000CFFFFFFFF110D04656467650CFFFFFFFF04FFFFFFFF0CFFFFFFFF0C790000000600000000000000000C83000000068A05315F4AD909400C6D0000000C840000000B0707756E6B6E6F776E110D067665727465780CFFFFFFFF04FFFFFFFF0CFFFFFFFF0C6E00000004020000000C85000000110E087374
310
7261696768740D0563757276650CFFFFFFFF04FFFFFFFF0CFFFFFFFF132F5AE1200888D9400E0C4EF2C13BC1C00000000000000000140000000000000000000000000000F03F00000000000000000B0B110D05706F696E740CFFFFFFFF04FFFFFFFF0CFFFFFFFF132F5AE1200888D9400E0C4EF2C13BC1C000000000000000
310
00110D06636F656467650CFFFFFFFF04FFFFFFFF0CFFFFFFFF0C860000000C720000000CFFFFFFFF0C870000000A0C0700000004000000000CFFFFFFFF110D04656467650CFFFFFFFF04FFFFFFFF0CFFFFFFFF0C880000000600000000000000000C7E000000063D2BFDFFFFFFEF3F0C720000000C890000000B0707756E6B
310
6E6F776E110D067665727465780CFFFFFFFF04FFFFFFFF0CFFFFFFFF0C7D00000004020000000C8A000000110E0873747261696768740D0563757276650CFFFFFFFF04FFFFFFFF0CFFFFFFFF13CF26AEED149BD940AA431486E62CC1C00000000000000000140000000000000000000000000000F03F00000000000000000B
310
0B110D05706F696E740CFFFFFFFF04FFFFFFFF0CFFFFFFFF13CF26AEED149BD940E215B614BE2AC1C00000000000000000110D06636F656467650CFFFFFFFF04FFFFFFFF0CFFFFFFFF0C770000000C8B0000000CFFFFFFFF0C8C0000000A0C0700000004000000000CFFFFFFFF110D04656467650CFFFFFFFF04FFFFFFFF0C
310
FFFFFFFF0C830000000600000000000000000C8D00000006303333333333E33F0C770000000C8E0000000B0707756E6B6E6F776E110D067665727465780CFFFFFFFF04FFFFFFFF0CFFFFFFFF0C7800000004020000000C8F000000110E0873747261696768740D0563757276650CFFFFFFFF04FFFFFFFF0CFFFFFFFF132F5A
310
E1200888D940403F81257539C1C00000000000000000146B6ACEBF14B6ED3F84BB3E66DDC4D7BF00000000000000000B0B110D05706F696E740CFFFFFFFF04FFFFFFFF0CFFFFFFFF132F5AE1200888D940403F81257539C1C00000000000000000110D06636F656467650CFFFFFFFF04FFFFFFFF0CFFFFFFFF0C900000000C
310
7C0000000CFFFFFFFF0C910000000A0C0700000004000000000CFFFFFFFF110D04656467650CFFFFFFFF04FFFFFFFF0CFFFFFFFF0C920000000600000000000000000C88000000066CAB05000000F03F0C7C0000000C930000000B0707756E6B6E6F776E110D067665727465780CFFFFFFFF04FFFFFFFF0CFFFFFFFF0C8700
310
000004020000000C94000000110E0873747261696768740D0563757276650CFFFFFFFF04FFFFFFFF0CFFFFFFFF130FA2C1C9D89AD940CE2C654D122DC1C0000000000000000014EE7B5042F611EE3F44589374A8E3D53F00000000000000000B0B110D05706F696E740CFFFFFFFF04FFFFFFFF0CFFFFFFFF13AF26AEED149B
310
D940AA431486E62CC1C00000000000000000110D06636F656467650CFFFFFFFF04FFFFFFFF0CFFFFFFFF0C810000000C950000000CFFFFFFFF0C960000000A0C0700000004000000000CFFFFFFFF110D04656467650CFFFFFFFF04FFFFFFFF0CFFFFFFFF0C8D0000000600000000000000000C97000000069A99999999990D
310
400C810000000C980000000B0707756E6B6E6F776E110D067665727465780CFFFFFFFF04FFFFFFFF0CFFFFFFFF0C8200000004020000000C99000000110E0873747261696768740D0563757276650CFFFFFFFF04FFFFFFFF0CFFFFFFFF132F5AE120C888D940DAD81ABF0E3AC1C00000000000000000140000000000000000
310
000000000000F03F00000000000000000B0B110D05706F696E740CFFFFFFFF04FFFFFFFF0CFFFFFFFF132F5AE120C888D940DAD81ABF0E3AC1C00000000000000000110D06636F656467650CFFFFFFFF04FFFFFFFF0CFFFFFFFF0C9A0000000C860000000CFFFFFFFF0C9B0000000A0C0700000004000000000CFFFFFFFF11
310
0D04656467650CFFFFFFFF04FFFFFFFF0CFFFFFFFF0C9C0000000600000000000000000C92000000060000000000002A400C860000000C9D0000000B0707756E6B6E6F776E110D067665727465780CFFFFFFFF04FFFFFFFF0CFFFFFFFF0C9100000004020000000C9E000000110E0873747261696768740D0563757276650C
310
FFFFFFFF04FFFFFFFF0CFFFFFFFF13CF26AEED149BD940E215B6143E2DC1C00000000000000000147A8D5342F611EEBFB87B8274A8E3D53F00000000000000000B0B110D05706F696E740CFFFFFFFF04FFFFFFFF0CFFFFFFFF130FA2C1C9D89AD940CE2C654D122DC1C00000000000000000110D06636F656467650CFFFFFF
310
FF04FFFFFFFF0CFFFFFFFF0C8B0000000C9F0000000CFFFFFFFF0CA00000000A0C0700000004000000000CFFFFFFFF110D04656467650CFFFFFFFF04FFFFFFFF0CFFFFFFFF0C970000000600000000000000000CA100000006383333333333E33F0C8B0000000CA20000000B0707756E6B6E6F776E110D067665727465780C
310
FFFFFFFF04FFFFFFFF0CFFFFFFFF0C8C00000004020000000CA3000000110E0873747261696768740D0563757276650CFFFFFFFF04FFFFFFFF0CFFFFFFFF132F5AE120C888D9400E0C4EF2C139C1C00000000000000000140000000000000000000000000000F03F00000000000000000B0B110D05706F696E740CFFFFFFFF
310
04FFFFFFFF0CFFFFFFFF132F5AE120C888D9400E0C4EF2C139C1C00000000000000000110D06636F656467650CFFFFFFFF04FFFFFFFF0CFFFFFFFF0CA40000000C900000000CFFFFFFFF0CA50000000A0C0700000004000000000CFFFFFFFF110D04656467650CFFFFFFFF04FFFFFFFF0CFFFFFFFF0CA60000000600000000
310
000000000C9C000000060000000000C052400C900000000CA70000000B0707756E6B6E6F776E110D067665727465780CFFFFFFFF04FFFFFFFF0CFFFFFFFF0C9B00000004020000000CA8000000110E0873747261696768740D0563757276650CFFFFFFFF04FFFFFFFF0CFFFFFFFF13CF26AEED149BD940E215B614BE33C1C0
310
0000000000000000140000000000000000000000000000F03F00000000000000000B0B110D05706F696E740CFFFFFFFF04FFFFFFFF0CFFFFFFFF13CF26AEED149BD940E215B6143E2DC1C00000000000000000110D06636F656467650CFFFFFFFF04FFFFFFFF0CFFFFFFFF0C950000000CA90000000CFFFFFFFF0CAA000000
310
0A0C0700000004000000000CFFFFFFFF110D04656467650CFFFFFFFF04FFFFFFFF0CFFFFFFFF0CA10000000600000000000000000CAB000000068A05315F4AD909400C950000000CAC0000000B0707756E6B6E6F776E110D067665727465780CFFFFFFFF04FFFFFFFF0CFFFFFFFF0C9600000004020000000CAD000000110E
310
0873747261696768740D0563757276650CFFFFFFFF04FFFFFFFF0CFFFFFFFF132F5AE120C888D9407472B458E837C1C00000000000000000140000000000000000000000000000F03F00000000000000000B0B110D05706F696E740CFFFFFFFF04FFFFFFFF0CFFFFFFFF132F5AE120C888D9407472B458E837C1C000000000
310
00000000110D06636F656467650CFFFFFFFF04FFFFFFFF0CFFFFFFFF0CAE0000000C9A0000000CFFFFFFFF0CAF0000000A0C0700000004000000000CFFFFFFFF110D04656467650CFFFFFFFF04FFFFFFFF0CFFFFFFFF0CB00000000600000000000000000CA6000000060000000000002A400C9A0000000CB10000000B0707
310
756E6B6E6F776E110D067665727465780CFFFFFFFF04FFFFFFFF0CFFFFFFFF0CA500000004020000000CB2000000110E0873747261696768740D0563757276650CFFFFFFFF04FFFFFFFF0CFFFFFFFF13CF26AEED5488D940E215B614BE33C1C0000000000000000014000000000000F03F0000000000000000000000000000
310
00000B0B110D05706F696E740CFFFFFFFF04FFFFFFFF0CFFFFFFFF13CF26AEED149BD940E215B614BE33C1C00000000000000000110D06636F656467650CFFFFFFFF04FFFFFFFF0CFFFFFFFF0C9F0000000CB30000000CFFFFFFFF0CB40000000A0C0700000004000000000CFFFFFFFF110D04656467650CFFFFFFFF04FFFF
310
FFFF0CFFFFFFFF0CAB0000000600000000000000000CB5000000061058B1BFEC1E10400C9F0000000CB60000000B0707756E6B6E6F776E110D067665727465780CFFFFFFFF04FFFFFFFF0CFFFFFFFF0CA000000004020000000CB7000000110E0873747261696768740D0563757276650CFFFFFFFF04FFFFFFFF0CFFFFFFFF
310
132F5AE120C888D940A6A5E78B9B37C1C0000000000000000014686ACEBF14B6EDBF88BB3E66DDC4D7BF00000000000000000B0B110D05706F696E740CFFFFFFFF04FFFFFFFF0CFFFFFFFF132F5AE120C888D940A6A5E78B9B37C1C00000000000000000110D06636F656467650CFFFFFFFF04FFFFFFFF0CFFFFFFFF0CB800
310
00000CA40000000CFFFFFFFF0CB90000000A0C0700000004000000000CFFFFFFFF110D04656467650CFFFFFFFF04FFFFFFFF0CFFFFFFFF0CBA0000000600000000000000000CB0000000066CAB05000000F03F0CA40000000CBB0000000B0707756E6B6E6F776E110D067665727465780CFFFFFFFF04FFFFFFFF0CFFFFFFFF
310
0CAF00000004020000000CBC000000110E0873747261696768740D0563757276650CFFFFFFFF04FFFFFFFF0CFFFFFFFF13CF26AEED5488D940E215B6143E2DC1C00000000000000000140000000000000000000000000000F0BF00000000000000000B0B110D05706F696E740CFFFFFFFF04FFFFFFFF0CFFFFFFFF13CF26AE
310
ED5488D940E215B614BE33C1C00000000000000000110D06636F656467650CFFFFFFFF04FFFFFFFF0CFFFFFFFF0CA90000000CBD0000000CFFFFFFFF0CBE0000000A0C0700000004000000000CFFFFFFFF110D04656467650CFFFFFFFF04FFFFFFFF0CFFFFFFFF0CB50000000600000000000000000CBF000000068B05315F
310
4AD909400CA90000000CC00000000B0707756E6B6E6F776E110D067665727465780CFFFFFFFF04FFFFFFFF0CFFFFFFFF0CAA00000004020000000CC1000000110E0873747261696768740D0563757276650CFFFFFFFF04FFFFFFFF0CFFFFFFFF132F5AE1200888D940403F81253538C1C00000000000000000140000000000
310
000000000000000000F03F00000000000000000B0B110D05706F696E740CFFFFFFFF04FFFFFFFF0CFFFFFFFF132F5AE1200888D940403F81253538C1C00000000000000000110D06636F656467650CFFFFFFFF04FFFFFFFF0CFFFFFFFF0CC20000000CAE0000000CFFFFFFFF0CC30000000A0C0700000004000000000CFFFF
310
FFFF110D04656467650CFFFFFFFF04FFFFFFFF0CFFFFFFFF0CC40000000600000000000000000CBA000000065B2BFDFFFFFFEF3F0CAE0000000CC50000000B0707756E6B6E6F776E110D067665727465780CFFFFFFFF04FFFFFFFF0CFFFFFFFF0CB900000004020000000CC6000000110E0873747261696768740D05637572
310
76650CFFFFFFFF04FFFFFFFF0CFFFFFFFF138FAB9A119188D940CE2C654D122DC1C00000000000000000147A8D5342F611EEBFB87B8274A8E3D5BF00000000000000000B0B110D05706F696E740CFFFFFFFF04FFFFFFFF0CFFFFFFFF13CF26AEED5488D940E215B6143E2DC1C00000000000000000110D06636F656467650C
310
FFFFFFFF04FFFFFFFF0CFFFFFFFF0CB30000000CC70000000CFFFFFFFF0CC80000000A0C0700000004000000000CFFFFFFFF110D04656467650CFFFFFFFF04FFFFFFFF0CFFFFFFFF0CBF0000000600000000000000000CC900000006383333333333E33F0CB30000000CCA0000000B0707756E6B6E6F776E110D0676657274
310
65780CFFFFFFFF04FFFFFFFF0CFFFFFFFF0CB400000004020000000CCB000000110E0873747261696768740D0563757276650CFFFFFFFF04FFFFFFFF0CFFFFFFFF132F5AE1200888D9401649E9473136C1C0000000000000000014686ACEBF14B6ED3F8ABB3E66DDC4D7BF00000000000000000B0B110D05706F696E740CFF
310
FFFFFF04FFFFFFFF0CFFFFFFFF132F5AE1200888D9401649E9473136C1C00000000000000000110D06636F656467650CFFFFFFFF04FFFFFFFF0CFFFFFFFF0CCC0000000CB80000000CFFFFFFFF0CCD0000000A0C0700000004000000000CFFFFFFFF110D04656467650CFFFFFFFF04FFFFFFFF0CFFFFFFFF0CCE0000000600
310
000000000000000CC400000006A2456EF18A4311400CB80000000CCF0000000B0707756E6B6E6F776E110D067665727465780CFFFFFFFF04FFFFFFFF0CFFFFFFFF0CC300000004020000000CD0000000110E0873747261696768740D0563757276650CFFFFFFFF04FFFFFFFF0CFFFFFFFF13EF26AEED5488D940AA431486E6
310
2CC1C0000000000000000014F17B5042F611EE3F30589374A8E3D5BF00000000000000000B0B110D05706F696E740CFFFFFFFF04FFFFFFFF0CFFFFFFFF138FAB9A119188D940CE2C654D122DC1C00000000000000000110D06636F656467650CFFFFFFFF04FFFFFFFF0CFFFFFFFF0CBD0000000CD10000000CFFFFFFFF0CD2
310
0000000A0C0700000004000000000CFFFFFFFF110D04656467650CFFFFFFFF04FFFFFFFF0CFFFFFFFF0CC90000000600000000000000000CD30000000633333333333311400CBD0000000CD40000000B0707756E6B6E6F776E110D067665727465780CFFFFFFFF04FFFFFFFF0CFFFFFFFF0CBE00000004020000000CD50000
310
00110E0873747261696768740D0563757276650CFFFFFFFF04FFFFFFFF0CFFFFFFFF132F5AE120C888D940B0E282E1CA36C1C00000000000000000140000000000000000000000000000F03F00000000000000000B0B110D05706F696E740CFFFFFFFF04FFFFFFFF0CFFFFFFFF132F5AE120C888D940B0E282E1CA36C1C000
310
00000000000000110D06636F656467650CFFFFFFFF04FFFFFFFF0CFFFFFFFF0CD60000000CC20000000CFFFFFFFF0CD70000000A0C0700000004000000000CFFFFFFFF110D04656467650CFFFFFFFF04FFFFFFFF0CFFFFFFFF0CD80000000600000000000000000CCE00000006203333333333F33F0CC20000000CD9000000
310
0B0707756E6B6E6F776E110D067665727465780CFFFFFFFF04FFFFFFFF0CFFFFFFFF0CCD00000004020000000CDA000000110E0873747261696768740D0563757276650CFFFFFFFF04FFFFFFFF0CFFFFFFFF13EF26AEED5488D940E215B614BE2AC1C00000000000000000140000000000000000000000000000F0BF000000
310
00000000000B0B110D05706F696E740CFFFFFFFF04FFFFFFFF0CFFFFFFFF13EF26AEED5488D940AA431486E62CC1C00000000000000000110D06636F656467650CFFFFFFFF04FFFFFFFF0CFFFFFFFF0CC70000000CD60000000CFFFFFFFF0CDB0000000A0C0700000004000000000CFFFFFFFF110D04656467650CFFFFFFFF
310
04FFFFFFFF0CFFFFFFFF0CD30000000600000000000000000CDC000000062004569E1A7502400CC70000000CDD0000000B0707756E6B6E6F776E110D067665727465780CFFFFFFFF04FFFFFFFF0CFFFFFFFF0CC800000004020000000CDE000000110E0873747261696768740D0563757276650CFFFFFFFF04FFFFFFFF0CFF
310
FFFFFF132F5AE120C888D940E215B6147E36C1C00000000000000000140000000000000000000000000000F03F00000000000000000B0B110D05706F696E740CFFFFFFFF04FFFFFFFF0CFFFFFFFF132F5AE120C888D940E215B6147E36C1C00000000000000000110D06636F656467650CFFFFFFFF04FFFFFFFF0CFFFFFFFF
310
0CD10000000CCC0000000CFFFFFFFF0CDF0000000A0C0700000004000000000CFFFFFFFF110D04656467650CFFFFFFFF04FFFFFFFF0CFFFFFFFF0CE00000000600000000000000000CD80000000633333333333333400CCC0000000CE10000000B0707756E6B6E6F776E110D067665727465780CFFFFFFFF04FFFFFFFF0CFF
310
FFFFFF0CD700000004020000000CE2000000110E0873747261696768740D0563757276650CFFFFFFFF04FFFFFFFF0CFFFFFFFF132F5AE1200888D940E215B614BE2AC1C0000000000000000014000000000000F03F000000000000000000000000000000000B0B110D05706F696E740CFFFFFFFF04FFFFFFFF0CFFFFFFFF13
310
EF26AEED5488D940E215B614BE2AC1C00000000000000000110D04656467650CFFFFFFFF04FFFFFFFF0CFFFFFFFF0CDC00000006A0142A8376BCB1BD0CE300000006B2A7AA86952BF63F0CD10000000CE40000000B0707756E6B6E6F776E110D067665727465780CFFFFFFFF04FFFFFFFF0CFFFFFFFF0CD200000004020000
310
000CE5000000110E0873747261696768740D0563757276650CFFFFFFFF04FFFFFFFF0CFFFFFFFF132F5AE120C888D9407CAF4FAE5734C1C0000000000000000014000000000000F0BF000000000000000000000000000000000B0B110D05706F696E740CFFFFFFFF04FFFFFFFF0CFFFFFFFF132F5AE120C888D9407CAF4FAE
310
5734C1C00000000000000000110D04656467650CFFFFFFFF04FFFFFFFF0CFFFFFFFF0CE30000000600000000000000000CE000000006333333333333F33F0CD60000000CE60000000B0707756E6B6E6F776E110D067665727465780CFFFFFFFF04FFFFFFFF0CFFFFFFFF0CDF00000004020000000CE7000000110E08737472
310
61696768740D0563757276650CFFFFFFFF04FFFFFFFF0CFFFFFFFF132F5AE1200888D9407CAF4FAE5734C1C00000000000000000140000000000000000000000000000F03F00000000000000000B0B110D05706F696E740CFFFFFFFF04FFFFFFFF0CFFFFFFFF132F5AE1200888D940E215B614BE2AC1C00000000000000000
310
110D067665727465780CFFFFFFFF04FFFFFFFF0CFFFFFFFF0CDB00000004020000000CE8000000110E0873747261696768740D0563757276650CFFFFFFFF04FFFFFFFF0CFFFFFFFF136F670C783488D94086AF4FAE5734C1C00000000000000000142113FCFFFFFFDFBFBF6E59E87AB6EBBF00000000000000000B0B110D05
310
706F696E740CFFFFFFFF04FFFFFFFF0CFFFFFFFF136F670C783488D9407CAF4FAE5734C1C00000000000000000110E0873747261696768740D0563757276650CFFFFFFFF04FFFFFFFF0CFFFFFFFF132F5AE1200888D9401649E947F134C1C00000000000000000140000000000000000000000000000F03F00000000000000
310
000B0B110D05706F696E740CFFFFFFFF04FFFFFFFF0CFFFFFFFF132F5AE1200888D9407CAF4FAE5734C1C00000000000000000110D05706F696E740CFFFFFFFF04FFFFFFFF0CFFFFFFFF132F5AE1200888D9401649E947F134C1C00000000000000000110E03456E640E026F660E0341534D0D0464617461
  0
ENDSEC
  0
EOF
