  0
SECTION
  2
HEADER
  9
$ACADVER
  1
AC1018
  9
$ACADMAINTVER
 70
     0
  9
$DWGCODEPAGE
  3
ANSI_1252
  9
$INSBASE
 10
0.0
 20
0.0
 30
0.0
  9
$EXTMIN
 10
1.000000000000000E+20
 20
1.000000000000000E+20
 30
1.000000000000000E+20
  9
$EXTMAX
 10
-1.000000000000000E+20
 20
-1.000000000000000E+20
 30
-1.000000000000000E+20
  9
$LIMMIN
 10
0.0
 20
0.0
  9
$LIMMAX
 10
12.0
 20
9.0
  9
$ORTHOMODE
 70
     0
  9
$REGENMODE
 70
     1
  9
$FILLMODE
 70
     1
  9
$QTEXTMODE
 70
     0
  9
$MIRRTEXT
 70
     1
  9
$LTSCALE
 40
1.0
  9
$ATTMODE
 70
     1
  9
$TEXTSIZE
 40
0.2
  9
$TRACEWID
 40
0.05
  9
$TEXTSTYLE
  7
Standard
  9
$CLAYER
  8
0
  9
$CELTYPE
  6
ByLayer
  9
$CECOLOR
 62
   256
  9
$CELTSCALE
 40
1.0
  9
$DISPSILH
 70
     0
  9
$DIMSCALE
 40
1.0
  9
$DIMASZ
 40
0.18
  9
$DIMEXO
 40
0.0625
  9
$DIMDLI
 40
0.38
  9
$DIMRND
 40
0.0
  9
$DIMDLE
 40
0.0
  9
$DIMEXE
 40
0.18
  9
$DIMTP
 40
0.0
  9
$DIMTM
 40
0.0
  9
$DIMTXT
 40
0.18
  9
$DIMCEN
 40
0.09
  9
$DIMTSZ
 40
0.0
  9
$DIMTOL
 70
     0
  9
$DIMLIM
 70
     0
  9
$DIMTIH
 70
     1
  9
$DIMTOH
 70
     1
  9
$DIMSE1
 70
     0
  9
$DIMSE2
 70
     0
  9
$DIMTAD
 70
     0
  9
$DIMZIN
 70
     0
  9
$DIMBLK
  1

  9
$DIMASO
 70
     1
  9
$DIMSHO
 70
     1
  9
$DIMPOST
  1

  9
$DIMAPOST
  1

  9
$DIMALT
 70
     0
  9
$DIMALTD
 70
     2
  9
$DIMALTF
 40
25.4
  9
$DIMLFAC
 40
1.0
  9
$DIMTOFL
 70
     0
  9
$DIMTVP
 40
0.0
  9
$DIMTIX
 70
     0
  9
$DIMSOXD
 70
     0
  9
$DIMSAH
 70
     0
  9
$DIMBLK1
  1

  9
$DIMBLK2
  1

  9
$DIMSTYLE
  2
Standard
  9
$DIMCLRD
 70
     0
  9
$DIMCLRE
 70
     0
  9
$DIMCLRT
 70
     0
  9
$DIMTFAC
 40
1.0
  9
$DIMGAP
 40
0.09
  9
$DIMJUST
 70
     0
  9
$DIMSD1
 70
     0
  9
$DIMSD2
 70
     0
  9
$DIMTOLJ
 70
     1
  9
$DIMTZIN
 70
     0
  9
$DIMALTZ
 70
     0
  9
$DIMALTTZ
 70
     0
  9
$DIMUPT
 70
     0
  9
$DIMDEC
 70
     4
  9
$DIMTDEC
 70
     4
  9
$DIMALTU
 70
     2
  9
$DIMALTTD
 70
     2
  9
$DIMTXSTY
  7
Standard
  9
$DIMAUNIT
 70
     0
  9
$DIMADEC
 70
     0
  9
$DIMALTRND
 40
0.0
  9
$DIMAZIN
 70
     0
  9
$DIMDSEP
 70
    46
  9
$DIMATFIT
 70
     3
  9
$DIMFRAC
 70
     0
  9
$DIMLDRBLK
  1

  9
$DIMLUNIT
 70
     2
  9
$DIMLWD
 70
    -2
  9
$DIMLWE
 70
    -2
  9
$DIMTMOVE
 70
     0
  9
$LUNITS
 70
     2
  9
$LUPREC
 70
     4
  9
$SKETCHINC
 40
0.1
  9
$FILLETRAD
 40
0.5
  9
$AUNITS
 70
     0
  9
$AUPREC
 70
     0
  9
$MENU
  1
.
  9
$ELEVATION
 40
0.0
  9
$PELEVATION
 40
0.0
  9
$THICKNESS
 40
0.0
  9
$LIMCHECK
 70
     0
  9
$CHAMFERA
 40
0.5
  9
$CHAMFERB
 40
0.5
  9
$CHAMFERC
 40
1.0
  9
$CHAMFERD
 40
0.0
  9
$SKPOLY
 70
     0
  9
$TDCREATE
 40
2457126.426095775
  9
$TDUCREATE
 40
2457125.926095775
  9
$TDUPDATE
 40
2457126.426097523
  9
$TDUUPDATE
 40
2457125.926097523
  9
$TDINDWG
 40
0.0000000116
  9
$TDUSRTIMER
 40
0.0000000116
  9
$USRTIMER
 70
     1
  9
$ANGBASE
 50
0.0
  9
$ANGDIR
 70
     0
  9
$PDMODE
 70
     0
  9
$PDSIZE
 40
0.0
  9
$PLINEWID
 40
0.0
  9
$SPLFRAME
 70
     0
  9
$SPLINETYPE
 70
     6
  9
$SPLINESEGS
 70
     8
  9
$HANDSEED
  5
1E9
  9
$SURFTAB1
 70
     6
  9
$SURFTAB2
 70
     6
  9
$SURFTYPE
 70
     6
  9
$SURFU
 70
     6
  9
$SURFV
 70
     6
  9
$UCSBASE
  2

  9
$UCSNAME
  2

  9
$UCSORG
 10
0.0
 20
0.0
 30
0.0
  9
$UCSXDIR
 10
1.0
 20
0.0
 30
0.0
  9
$UCSYDIR
 10
0.0
 20
1.0
 30
0.0
  9
$UCSORTHOREF
  2

  9
$UCSORTHOVIEW
 70
     0
  9
$UCSORGTOP
 10
0.0
 20
0.0
 30
0.0
  9
$UCSORGBOTTOM
 10
0.0
 20
0.0
 30
0.0
  9
$UCSORGLEFT
 10
0.0
 20
0.0
 30
0.0
  9
$UCSORGRIGHT
 10
0.0
 20
0.0
 30
0.0
  9
$UCSORGFRONT
 10
0.0
 20
0.0
 30
0.0
  9
$UCSORGBACK
 10
0.0
 20
0.0
 30
0.0
  9
$PUCSBASE
  2

  9
$PUCSNAME
  2

  9
$PUCSORG
 10
0.0
 20
0.0
 30
0.0
  9
$PUCSXDIR
 10
1.0
 20
0.0
 30
0.0
  9
$PUCSYDIR
 10
0.0
 20
1.0
 30
0.0
  9
$PUCSORTHOREF
  2

  9
$PUCSORTHOVIEW
 70
     0
  9
$PUCSORGTOP
 10
0.0
 20
0.0
 30
0.0
  9
$PUCSORGBOTTOM
 10
0.0
 20
0.0
 30
0.0
  9
$PUCSORGLEFT
 10
0.0
 20
0.0
 30
0.0
  9
$PUCSORGRIGHT
 10
0.0
 20
0.0
 30
0.0
  9
$PUCSORGFRONT
 10
0.0
 20
0.0
 30
0.0
  9
$PUCSORGBACK
 10
0.0
 20
0.0
 30
0.0
  9
$USERI1
 70
     0
  9
$USERI2
 70
     0
  9
$USERI3
 70
     0
  9
$USERI4
 70
     0
  9
$USERI5
 70
     0
  9
$USERR1
 40
0.0
  9
$USERR2
 40
0.0
  9
$USERR3
 40
0.0
  9
$USERR4
 40
0.0
  9
$USERR5
 40
0.0
  9
$WORLDVIEW
 70
     1
  9
$SHADEDGE
 70
     3
  9
$SHADEDIF
 70
    70
  9
$TILEMODE
 70
     1
  9
$MAXACTVP
 70
    64
  9
$PINSBASE
 10
0.0
 20
0.0
 30
0.0
  9
$PLIMCHECK
 70
     0
  9
$PEXTMIN
 10
1.000000000000000E+20
 20
1.000000000000000E+20
 30
1.000000000000000E+20
  9
$PEXTMAX
 10
-1.000000000000000E+20
 20
-1.000000000000000E+20
 30
-1.000000000000000E+20
  9
$PLIMMIN
 10
0.0
 20
0.0
  9
$PLIMMAX
 10
12.0
 20
9.0
  9
$UNITMODE
 70
     0
  9
$VISRETAIN
 70
     1
  9
$PLINEGEN
 70
     0
  9
$PSLTSCALE
 70
     1
  9
$TREEDEPTH
 70
  3020
  9
$CMLSTYLE
  2
Standard
  9
$CMLJUST
 70
     0
  9
$CMLSCALE
 40
1.0
  9
$PROXYGRAPHICS
 70
     1
  9
$MEASUREMENT
 70
     0
  9
$CELWEIGHT
370
    -1
  9
$ENDCAPS
280
     0
  9
$JOINSTYLE
280
     0
  9
$LWDISPLAY
290
     1
  9
$INSUNITS
 70
     4
  9
$HYPERLINKBASE
  1

  9
$STYLESHEET
  1

  9
$XEDIT
290
     1
  9
$CEPSNTYPE
380
     0
  9
$PSTYLEMODE
290
     1
  9
$FINGERPRINTGUID
  2
{87E9AE5C-2E03-46EE-8F93-AC8E5FB393E5}
  9
$VERSIONGUID
  2
{FAEB1C32-E019-11D5-929B-00C0DF256EC4}
  9
$EXTNAMES
290
     1
  9
$PSVPSCALE
 40
0.0
  9
$OLESTARTUP
290
     0
  9
$SORTENTS
280
   127
  9
$INDEXCTL
280
     0
  9
$HIDETEXT
280
     1
  9
$XCLIPFRAME
290
     0
  9
$HALOGAP
280
     0
  9
$OBSCOLOR
 70
   257
  9
$OBSLTYPE
280
     0
  9
$INTERSECTIONDISPLAY
280
     0
  9
$INTERSECTIONCOLOR
 70
   257
  9
$DIMASSOC
280
     2
  9
$PROJECTNAME
  1

  0
ENDSEC
  0
SECTION
  2
CLASSES
  0
CLASS
  1
ACDBDICTIONARYWDFLT
  2
AcDbDictionaryWithDefault
  3
ObjectDBX Classes
 90
        0
 91
        4
280
     0
281
     0
  0
CLASS
  1
VISUALSTYLE
  2
AcDbVisualStyle
  3
ObjectDBX Classes
 90
     4095
 91
        4
280
     0
281
     0
  0
CLASS
  1
MATERIAL
  2
AcDbMaterial
  3
ObjectDBX Classes
 90
     1153
 91
        4
280
     0
281
     0
  0
CLASS
  1
WIPEOUT
  2
AcDbWipeout
  3
WipeOut|AutoCAD Express Tool|expresstools@autodesk.com
 90
      127
 91
        4
280
     0
281
     1
  0
CLASS
  1
SCALE
  2
AcDbScale
  3
ObjectDBX Classes
 90
     1153
 91
        4
280
     0
281
     0
  0
CLASS
  1
DICTIONARYVAR
  2
AcDbDictionaryVar
  3
ObjectDBX Classes
 90
        0
 91
        4
280
     0
281
     0
  0
ENDSEC
  0
SECTION
  2
TABLES
  0
TABLE
  2
VPORT
  5
8
330
0
100
AcDbSymbolTable
 70
     1
  0
VPORT
  5
29
330
8
100
AcDbSymbolTableRecord
100
AcDbViewportTableRecord
  2
*Active
 70
     0
 10
0.0
 20
0.0
 11
1.0
 21
1.0
 12
450.2968486396977
 22
313.8612142521543
 13
0.0
 23
0.0
 14
0.5
 24
0.5
 15
0.5
 25
0.5
 16
0.0
 26
0.0
 36
1.0
 17
0.0
 27
0.0
 37
0.0
 40
977.9305241216794
 41
1.002857961782356
 42
50.0
 43
0.0
 44
0.0
 50
0.0
 51
0.0
 71
     0
 72
   100
 73
     1
 74
     3
 75
     0
 76
     0
 77
     0
 78
     0
281
     0
 65
     1
110
0.0
120
0.0
130
0.0
111
1.0
121
0.0
131
0.0
112
0.0
122
1.0
132
0.0
 79
     0
146
0.0
  0
ENDTAB
  0
TABLE
  2
LTYPE
  5
5
330
0
100
AcDbSymbolTable
 70
     4
  0
LTYPE
  5
14
330
5
100
AcDbSymbolTableRecord
100
AcDbLinetypeTableRecord
  2
ByBlock
 70
     0
  3

 72
    65
 73
     0
 40
0.0
  0
LTYPE
  5
15
330
5
100
AcDbSymbolTableRecord
100
AcDbLinetypeTableRecord
  2
ByLayer
 70
     0
  3

 72
    65
 73
     0
 40
0.0
  0
LTYPE
  5
16
330
5
100
AcDbSymbolTableRecord
100
AcDbLinetypeTableRecord
  2
Continuous
 70
     0
  3
Solid line
 72
    65
 73
     0
 40
0.0
  0
LTYPE
  5
101
330
5
100
AcDbSymbolTableRecord
100
AcDbLinetypeTableRecord
  2
AStair_dashed
 70
     0
  3
- - - - - 
 72
    65
 73
     2
 40
18.00000000000001
 49
8.000000000000004
 74
     0
 49
-10.0
 74
     0
  0
LTYPE
  5
15F
330
5
100
AcDbSymbolTableRecord
100
AcDbLinetypeTableRecord
  2
Contour Line
 70
     0
  3
- - - - - 
 72
    65
 73
     2
 40
2000.0
 49
1000.0
 74
     0
 49
-1000.0
 74
     0
  0
LTYPE
  5
16B
330
5
100
AcDbSymbolTableRecord
100
AcDbLinetypeTableRecord
  2
Wipeout_Contour
 70
     0
  3
- - - - - 
 72
    65
 73
     2
 40
1000.0
 49
0.0
 74
     0
 49
-1000.0
 74
     0
  0
ENDTAB
  0
TABLE
  2
LAYER
  5
2
330
0
100
AcDbSymbolTable
 70
     5
  0
LAYER
  5
10
330
2
100
AcDbSymbolTableRecord
100
AcDbLayerTableRecord
  2
0
 70
     0
 62
     7
  6
Continuous
370
    -3
390
F
  0
LAYER
  5
40
330
2
100
AcDbSymbolTableRecord
100
AcDbLayerTableRecord
  2
0_Pen_No__19
 70
     0
 62
   255
  6
Continuous
370
     0
390
F
  0
LAYER
  5
42
330
2
100
AcDbSymbolTableRecord
100
AcDbLayerTableRecord
  2
0_Pen_No__146
 70
     0
 62
     9
420
 13290186
  6
Continuous
370
     5
390
F
  0
LAYER
  5
4F
330
2
100
AcDbSymbolTableRecord
100
AcDbLayerTableRecord
  2
0_Pen_No__1
 70
     0
 62
     7
  6
Continuous
370
    13
390
F
  0
LAYER
  5
16C
330
2
100
AcDbSymbolTableRecord
100
AcDbLayerTableRecord
  2
Key_ Sections_Pen_No__1
 70
     0
 62
     7
  6
Continuous
370
    13
390
F
  0
ENDTAB
  0
TABLE
  2
STYLE
  5
3
330
0
100
AcDbSymbolTable
 70
     2
  0
STYLE
  5
11
330
3
100
AcDbSymbolTableRecord
100
AcDbTextStyleTableRecord
  2
Standard
 70
     0
 40
0.0
 41
1.0
 50
0.0
 71
     0
 42
0.2
  3
txt
  4

  0
STYLE
  5
169
330
3
100
AcDbSymbolTableRecord
100
AcDbTextStyleTableRecord
  2
GENERATED_STYLE_1
 70
     0
 40
0.0
 41
1.0
 50
0.0
 71
     0
 42
0.2
  3

  4

1001
ACAD
1000
Arial
1071
       34
  0
ENDTAB
  0
TABLE
  2
VIEW
  5
6
330
0
100
AcDbSymbolTable
 70
     0
  0
ENDTAB
  0
TABLE
  2
UCS
  5
7
330
0
100
AcDbSymbolTable
 70
     0
  0
ENDTAB
  0
TABLE
  2
APPID
  5
9
330
0
100
AcDbSymbolTable
 70
     1
  0
APPID
  5
12
330
9
100
AcDbSymbolTableRecord
100
AcDbRegAppTableRecord
  2
ACAD
 70
     0
  0
ENDTAB
  0
TABLE
  2
DIMSTYLE
  5
A
330
0
100
AcDbSymbolTable
 70
     2
100
AcDbDimStyleTable
  0
DIMSTYLE
105
27
330
A
100
AcDbSymbolTableRecord
100
AcDbDimStyleTableRecord
  2
Standard
 70
     0
178
     0
340
11
  0
DIMSTYLE
105
16F
330
A
100
AcDbSymbolTableRecord
100
AcDbDimStyleTableRecord
  2
GENERATED_STYLE__1
 70
     0
 41
9.12
172
     1
178
     0
340
0
341
170
  0
ENDTAB
  0
TABLE
  2
BLOCK_RECORD
  5
1
330
0
100
AcDbSymbolTable
 70
     4
  0
BLOCK_RECORD
  5
1F
330
1
100
AcDbSymbolTableRecord
100
AcDbBlockTableRecord
  2
*Model_Space
340
22
  0
BLOCK_RECORD
  5
1B
330
1
100
AcDbSymbolTableRecord
100
AcDbBlockTableRecord
  2
*Paper_Space
340
1E
  0
BLOCK_RECORD
  5
23
330
1
100
AcDbSymbolTableRecord
100
AcDbBlockTableRecord
  2
*Paper_Space0
340
26
  0
BLOCK_RECORD
  5
162
330
1
100
AcDbSymbolTableRecord
100
AcDbBlockTableRecord
  2
Arc_1
340
0
102
{BLKREFS
331
168
102
}
  0
BLOCK_RECORD
  5
170
330
1
100
AcDbSymbolTableRecord
100
AcDbBlockTableRecord
  2
ARROWHEAD_5
340
0
  0
BLOCK_RECORD
  5
197
330
1
100
AcDbSymbolTableRecord
100
AcDbBlockTableRecord
  2
DF-04-R Window Sill Layout_STORY_MARKER
340
0
  0
ENDTAB
  0
ENDSEC
  0
SECTION
  2
BLOCKS
  0
BLOCK
  5
20
330
1F
100
AcDbEntity
  8
0
100
AcDbBlockBegin
  2
*Model_Space
 70
     0
 10
0.0
 20
0.0
 30
0.0
  3
*Model_Space
  1

  0
ENDBLK
  5
21
330
1F
100
AcDbEntity
  8
0
100
AcDbBlockEnd
  0
BLOCK
  5
1C
330
1B
100
AcDbEntity
 67
     1
  8
0
100
AcDbBlockBegin
  2
*Paper_Space
 70
     0
 10
0.0
 20
0.0
 30
0.0
  3
*Paper_Space
  1

  0
ENDBLK
  5
1D
330
1B
100
AcDbEntity
 67
     1
  8
0
100
AcDbBlockEnd
  0
BLOCK
  5
24
330
23
100
AcDbEntity
  8
0
100
AcDbBlockBegin
  2
*Paper_Space0
 70
     0
 10
0.0
 20
0.0
 30
0.0
  3
*Paper_Space0
  1

  0
ENDBLK
  5
25
330
23
100
AcDbEntity
  8
0
100
AcDbBlockEnd
  0
BLOCK
  5
163
330
162
100
AcDbEntity
  8
0
100
AcDbBlockBegin
  2
Arc_1
 70
     0
 10
201.4893877839774
 20
425.3400201256369
 30
0.0
  3
Arc_1
  1

  0
ARC
  5
165
330
162
100
AcDbEntity
  8
0_Pen_No__1
  6
Continuous
100
AcDbCircle
 10
201.4893877839774
 20
425.3400201256369
 30
0.0
 40
215.9911312470538
100
AcDbArc
 50
35.09714048593123
 51
80.04242481796263
  0
LINE
  5
166
330
162
100
AcDbEntity
  8
0_Pen_No__1
  6
Continuous
100
AcDbLine
 10
238.8383423356919
 20
638.0774742123021
 30
0.0
 11
250.6017640844263
 21
645.9274365537024
 31
0.0
  0
LINE
  5
167
330
162
100
AcDbEntity
  8
0_Pen_No__1
  6
Continuous
100
AcDbLine
 10
238.8383423356919
 20
638.0774742123021
 30
0.0
 11
246.6883046770921
 21
626.3140524635677
 31
0.0
  0
ENDBLK
  5
164
330
162
100
AcDbEntity
  8
0
100
AcDbBlockEnd
  0
BLOCK
  5
171
330
170
100
AcDbEntity
  8
0
100
AcDbBlockBegin
  2
ARROWHEAD_5
 70
     0
 10
0.0
 20
0.0
 30
0.0
  3
ARROWHEAD_5
  1

  0
SOLID
  5
173
330
170
100
AcDbEntity
  8
0
  6
Continuous
 62
     0
370
     0
100
AcDbTrace
 10
-1.0
 20
0.2679
 30
0.0
 11
0.0
 21
0.0
 31
0.0
 12
-1.0
 22
-0.2679
 32
0.0
 13
-1.0
 23
0.2679
 33
0.0
  0
LINE
  5
174
330
170
100
AcDbEntity
  8
0
  6
Continuous
 62
     0
370
     0
100
AcDbLine
 10
0.0
 20
0.0
 30
0.0
 11
-1.0
 21
0.0
 31
0.0
  0
ENDBLK
  5
172
330
170
100
AcDbEntity
  8
0
100
AcDbBlockEnd
  0
BLOCK
  5
198
330
197
100
AcDbEntity
  8
0
100
AcDbBlockBegin
  2
DF-04-R Window Sill Layout_STORY_MARKER
 70
     0
 10
0.0
 20
0.0
 30
0.0
  3
DF-04-R Window Sill Layout_STORY_MARKER
  1

  0
ENDBLK
  5
199
330
197
100
AcDbEntity
  8
0
100
AcDbBlockEnd
  0
ENDSEC
  0
SECTION
  2
ENTITIES
  0
HATCH
  5
3F
330
1F
100
AcDbEntity
  8
0_Pen_No__19
  6
Continuous
100
AcDbHatch
 10
0.0
 20
0.0
 30
0.0
210
0.0
220
0.0
230
1.0
  2
SOLID
 70
     1
 71
     0
 91
        1
 92
        3
 72
     0
 73
     1
 93
        4
 10
120.6935656877026
 20
230.6847409545696
 10
126.755743487704
 20
234.1847409545703
 10
126.755743487704
 20
291.0164539417775
 10
120.6935656877044
 20
294.5164539417782
 97
        0
 75
     0
 76
     1
 98
        0
  0
HATCH
  5
41
330
1F
100
AcDbEntity
  8
0_Pen_No__146
  6
Continuous
 62
   250
420
  3289650
370
     0
100
AcDbHatch
 10
0.0
 20
0.0
 30
0.0
210
0.0
220
0.0
230
1.0
  2
SOLID
 70
     1
 71
     0
 91
        1
 92
        3
 72
     1
 73
     1
 93
       33
 10
120.6935656877031
 20
230.6847409545696
 42
0.0
 10
104.1252192071624
 20
221.1190016122015
 42
0.0
 10
104.1252192071616
 20
299.9507145972919
 42
0.0
 10
91.85469274983448
 20
307.035106468784
 42
0.0
 10
26.18293295171625
 20
344.9507148320787
 42
0.0
 10
11.38991601169514
 20
336.4099624823091
 42
0.0
 10
89.33220232303984
 20
291.4099622797959
 42
0.0
 10
89.33220232303984
 20
-51.57597128390034
 42
0.0
 10
107.7775147417768
 20
-62.22537742068424
 42
-0.0837362395380924
 10
107.7031846877068
 20
-47.11858626888232
 42
0.0
 10
120.6935656877022
 20
-54.61858626888083
 42
0.0
 10
120.6935656877044
 20
33.07155700711539
 42
0.0
 10
119.3285761049294
 20
34.9327593006159
 42
0.0
 10
115.2225284339585
 20
42.05672121211745
 42
0.0
 10
111.8936849888907
 20
49.48306059961749
 42
0.0
 10
109.4431909918878
 20
56.98613189861579
 42
0.0
 10
107.9455034642876
 20
64.33795808461306
 42
0.0
 10
107.4461288833337
 20
71.31515763961515
 42
0.0
 10
107.7031846877063
 20
74.51044476211544
 42
0.0
 10
107.7031846877063
 20
98.30545676911329
 42
0.0
 10
110.7349434093599
 20
100.0558434908259
 42
0.0
 10
108.5692100877069
 20
101.30623021254
 42
0.0
 10
108.5692100877069
 20
114.1063897745378
 42
0.0
 10
120.6935656877834
 20
121.1063897745819
 42
0.0
 10
120.6935656877008
 20
169.1063897745428
 42
0.0
 10
119.1470810669357
 20
171.4089792845386
 42
0.0
 10
114.6061130186808
 20
180.0866769580365
 42
0.0
 10
111.0448516306781
 20
189.0172539280441
 42
0.0
 10
108.5715040296429
 20
197.9293591335347
 42
0.0
 10
107.2612216290545
 20
206.5522027665425
 42
0.0
 10
107.1538166973549
 20
214.6237840880329
 42
0.0
 10
107.7031846877068
 20
218.261318136536
 42
0.0
 10
120.6935656877679
 20
225.7613181365734
 42
0.0
 97
        0
 75
     0
 76
     1
 98
        0
  0
HATCH
  5
43
330
1F
100
AcDbEntity
  8
0_Pen_No__146
  6
Continuous
 62
   250
420
  3289650
370
     0
100
AcDbHatch
 10
0.0
 20
0.0
 30
0.0
210
0.0
220
0.0
230
1.0
  2
SOLID
 70
     1
 71
     0
 91
        1
 92
        3
 72
     0
 73
     1
 93
       29
 10
113.765362487706
 20
204.4993658305359
 10
113.765362487706
 20
207.7613181365363
 10
126.755743487704
 20
200.2613181365369
 10
126.755743487704
 20
291.0164539417777
 10
120.6935656877044
 20
294.5164539417784
 10
120.6935656877022
 20
210.7613181365382
 10
107.7031846877068
 20
218.2613181365365
 10
107.1538166973549
 20
214.6237840880367
 10
107.2612216290545
 20
206.5522027665381
 10
108.5715040296429
 20
197.9293591335347
 10
111.0448516306817
 20
189.0172539280393
 10
114.6061130186786
 20
180.0866769580383
 10
119.1470810669362
 20
171.4089792845384
 10
120.6935656877008
 20
169.1063897745426
 10
120.6935656876986
 20
107.1063897745426
 10
108.5692100877069
 20
114.1063897745378
 10
108.5692100877069
 20
101.30623021254
 10
114.6313878877061
 20
97.8062302125411
 10
114.6313878877061
 20
103.606389774541
 10
120.6935656876986
 20
100.1063897745456
 10
120.6935656876977
 20
80.10638977454599
 10
114.6313878877061
 20
83.60638977454138
 10
114.6313878877061
 20
76.60638977454349
 10
126.7557434877036
 20
69.60638977454448
 10
126.755743487704
 20
170.2613181365393
 10
123.0932196038439
 20
175.8555374870381
 10
119.4673689780363
 20
182.9620119450395
 10
116.6504901478329
 20
190.2522915110385
 10
114.7281725516054
 20
197.5048647285362
 97
        0
 75
     0
 76
     1
 98
        0
  0
HATCH
  5
44
330
1F
100
AcDbEntity
  8
0_Pen_No__146
  6
Continuous
 62
   250
420
  3289650
370
     0
100
AcDbHatch
 10
0.0
 20
0.0
 30
0.0
210
0.0
220
0.0
230
1.0
  2
SOLID
 70
     1
 71
     0
 91
        1
 92
        3
 72
     0
 73
     1
 93
       30
 10
113.765362487706
 20
-60.88053857488318
 10
113.765362487706
 20
-57.61858626888294
 10
126.7557434877036
 20
-65.11858626888211
 10
126.7557434877036
 20
34.2264853691161
 10
123.5367966359306
 20
38.41353276861725
 10
120.2103529931438
 20
43.88490864361416
 10
117.4684359913485
 20
49.63185315961671
 10
115.3943573909388
 20
55.47974831511504
 10
114.0511370219599
 20
61.25090877511341
 10
113.765362487706
 20
64.0104447621106
 10
113.765362487706
 20
89.99010928510943
 10
118.68988530306
 20
87.14693469961277
 10
118.68988530306
 20
97.68620899762249
 10
116.0595638476027
 20
99.20482580461965
 10
116.0595638476027
 20
93.4808989906113
 10
107.7031846877068
 20
98.30545676911329
 10
107.7031846877068
 20
74.51044476211366
 10
107.4461288833337
 20
71.31515763961205
 10
107.9455034642876
 20
64.33795808461196
 10
109.4431909918869
 20
56.98613189861512
 10
111.8936849888903
 20
49.4830605996166
 10
115.222528433959
 20
42.05672121211568
 10
119.3285761049307
 20
34.93275930061501
 10
120.6935656877048
 20
33.07155700711406
 10
120.6935656877022
 20
-54.61858626888083
 10
107.7031846877068
 20
-47.11858626888232
 10
107.1538166973545
 20
-50.7561203173823
 10
107.2612216290545
 20
-58.82770163888096
 10
107.7775147417768
 20
-62.22537742068424
 10
114.4834261953314
 20
-66.09703722047522
 97
        0
 75
     0
 76
     1
 98
        0
  0
HATCH
  5
45
330
1F
100
AcDbEntity
  8
0_Pen_No__146
  6
Continuous
 62
   250
420
  3289650
370
     0
100
AcDbHatch
 10
0.0
 20
0.0
 30
0.0
210
0.0
220
0.0
230
1.0
  2
SOLID
 70
     1
 71
     0
 91
        1
 92
        3
 72
     0
 73
     1
 93
       12
 10
376.5503470585631
 20
674.7562399983187
 10
360.9395340506825
 20
678.9792768713847
 10
360.9395340506829
 20
631.0432140405015
 10
374.842183251423
 20
624.1145415281982
 10
374.842183251423
 20
626.6977300613088
 10
383.5024372798066
 20
631.6977300776961
 10
411.1708290630589
 20
615.7233765637819
 10
411.1708290630589
 20
613.0870255888779
 10
438.8818203061282
 20
613.0870255888779
 10
438.8818203061282
 20
655.6545845606552
 10
413.338720494064
 20
671.9263651186646
 10
395.6520024962269
 20
676.1711774381458
 97
        0
 75
     0
 76
     1
 98
        0
  0
HATCH
  5
46
330
1F
100
AcDbEntity
  8
0_Pen_No__146
  6
Continuous
 62
   250
420
  3289650
370
     0
100
AcDbHatch
 10
0.0
 20
0.0
 30
0.0
210
0.0
220
0.0
230
1.0
  2
SOLID
 70
     1
 71
     0
 91
        1
 92
        3
 72
     0
 73
     1
 93
        4
 10
438.8818203061282
 20
592.1990650925835
 10
438.8818203061282
 20
613.0870255888779
 10
411.1708290630589
 20
613.0870255888779
 10
411.1708290630589
 20
606.0094101960416
 97
        0
 75
     0
 76
     1
 98
        0
  0
HATCH
  5
47
330
1F
100
AcDbEntity
  8
0_Pen_No__146
  6
Continuous
 62
   250
420
  3289650
370
     0
100
AcDbHatch
 10
0.0
 20
0.0
 30
0.0
210
0.0
220
0.0
230
1.0
  2
SOLID
 70
     1
 71
     0
 91
        1
 92
        3
 72
     0
 73
     1
 93
        4
 10
438.8818203061282
 20
656.4638089980539
 10
438.8818203061282
 20
592.1990650925835
 10
442.1443318534824
 20
594.0826770209138
 10
442.1443318534824
 20
657.6529599113175
 97
        0
 75
     0
 76
     1
 98
        0
  0
HATCH
  5
48
330
1F
100
AcDbEntity
  8
0_Pen_No__146
  6
Continuous
 62
   250
420
  3289650
370
     0
100
AcDbHatch
 10
0.0
 20
0.0
 30
0.0
210
0.0
220
0.0
230
1.0
  2
SOLID
 70
     1
 71
     0
 91
        1
 92
        3
 72
     0
 73
     1
 93
       12
 10
624.1115756496815
 20
684.4327911159467
 10
606.2833639078626
 20
701.4120403938701
 10
577.4458847602615
 20
706.3295873300531
 10
537.2753624906288
 20
699.6263509344492
 10
520.1899875491245
 20
690.7122422693163
 10
564.2677594176977
 20
689.8540490859212
 10
585.8139560889464
 20
686.2630163073802
 10
607.3091554219052
 20
668.7484094434877
 10
605.7169184342781
 20
627.3502477651931
 10
605.7169184342783
 20
613.0870255888779
 10
644.1707805381947
 20
613.0870255888779
 10
646.1845997109816
 20
634.3440057460732
 97
        0
 75
     0
 76
     1
 98
        0
  0
HATCH
  5
49
330
1F
100
AcDbEntity
  8
0_Pen_No__146
  6
Continuous
 62
   250
420
  3289650
370
     0
100
AcDbHatch
 10
0.0
 20
0.0
 30
0.0
210
0.0
220
0.0
230
1.0
  2
SOLID
 70
     1
 71
     0
 91
        1
 92
        3
 72
     0
 73
     1
 93
       13
 10
605.7169184342783
 20
606.1347542697122
 10
590.0757417128959
 20
597.1043166397172
 10
590.5245107263733
 20
595.1761758475866
 10
592.5985893267831
 20
589.3282806920839
 10
595.3405063285786
 20
583.5813361760862
 10
598.6669499713644
 20
578.1099603010857
 10
601.885896823138
 20
573.922912901585
 10
602.5419669119283
 20
550.4514442442783
 10
603.0731279508261
 20
534.3041486617897
 10
639.4457246528535
 20
534.3041486617897
 10
638.5439375359167
 20
553.6925716759375
 10
644.1707805381947
 20
613.0870255888779
 10
605.7169184342783
 20
613.0870255888779
 97
        0
 75
     0
 76
     1
 98
        0
  0
HATCH
  5
4A
330
1F
100
AcDbEntity
  8
0_Pen_No__146
  6
Continuous
 62
   250
420
  3289650
370
     0
100
AcDbHatch
 10
0.0
 20
0.0
 30
0.0
210
0.0
220
0.0
230
1.0
  2
SOLID
 70
     1
 71
     0
 91
        1
 92
        3
 72
     0
 73
     1
 93
        8
 10
603.0731279508261
 20
534.3041486617897
 10
604.979064341969
 20
476.3636823710371
 10
590.8470614252759
 20
468.2045666472412
 10
591.2958304387525
 20
466.2764258551124
 10
593.3257418105884
 20
460.5530608509556
 10
635.4466458012063
 20
460.5530608509556
 10
641.9397873915011
 20
480.6817997808701
 10
639.4457246528535
 20
534.3041486617897
 97
        0
 75
     0
 76
     1
 98
        0
  0
HATCH
  5
4B
330
1F
100
AcDbEntity
  8
0_Pen_No__146
  6
Continuous
 62
   250
420
  3289650
370
     0
100
AcDbHatch
 10
0.0
 20
0.0
 30
0.0
210
0.0
220
0.0
230
1.0
  2
SOLID
 70
     1
 71
     0
 91
        1
 92
        3
 72
     0
 73
     1
 93
       10
 10
635.4466458012063
 20
460.5530608509556
 10
593.3257418105886
 20
460.5530608509556
 10
593.3699090391638
 20
460.4285306996083
 10
596.1118260409595
 20
454.681586183606
 10
599.4382696837453
 20
449.2102103086113
 10
602.6572165355182
 20
445.0231629091093
 10
601.4216617704244
 20
431.706628218653
 10
580.8865906263652
 20
390.636485930536
 10
612.1749343150973
 20
391.1667436566777
 10
616.4709134746163
 20
401.72829063853
 97
        0
 75
     0
 76
     1
 98
        0
  0
HATCH
  5
4C
330
1F
100
AcDbEntity
  8
0_Pen_No__146
  6
Continuous
 62
   250
420
  3289650
370
     0
100
AcDbHatch
 10
0.0
 20
0.0
 30
0.0
210
0.0
220
0.0
230
1.0
  2
SOLID
 70
     1
 71
     0
 91
        1
 92
        3
 72
     0
 73
     1
 93
       10
 10
612.1749343150973
 20
391.1667436566777
 10
595.7352779087059
 20
390.9261795217869
 10
580.8865906263652
 20
390.636485930536
 10
572.6639120959431
 20
374.1911288696926
 10
561.4532639177556
 20
341.5340233071466
 10
559.3763241946632
 20
319.3799995941608
 10
545.2443212779699
 20
311.220883870365
 10
546.2916412939527
 20
306.7210623929719
 10
572.5510305348542
 20
306.7210623929719
 10
584.7173590958332
 20
323.6630477778528
 97
        0
 75
     0
 76
     1
 98
        0
  0
HATCH
  5
4D
330
1F
100
AcDbEntity
  8
0_Pen_No__146
  6
Continuous
 62
   250
420
  3289650
370
     0
100
AcDbHatch
 10
0.0
 20
0.0
 30
0.0
210
0.0
220
0.0
230
1.0
  2
SOLID
 70
     1
 71
     0
 91
        1
 92
        3
 72
     0
 73
     1
 93
        6
 10
546.2916412939527
 20
306.7210623929719
 10
547.5603736947312
 20
302.3975605843592
 10
550.2419554715281
 20
295.8287667005044
 10
553.2761357938192
 20
290.2196065050047
 10
556.5488310410991
 20
285.3903948677558
 10
572.5510305348542
 20
306.7210623929719
 97
        0
 75
     0
 76
     1
 98
        0
  0
LINE
  5
4E
330
1F
100
AcDbEntity
  8
0_Pen_No__1
  6
Continuous
100
AcDbLine
 10
107.7031846877068
 20
302.0164539090027
 30
0.0
 11
77.94228625544531
 21
284.8339911433868
 31
0.0
  0
LWPOLYLINE
  5
50
330
1F
100
AcDbEntity
  8
0_Pen_No__1
  6
Continuous
100
AcDbPolyline
 90
        2
 70
   128
 43
0.0
 10
537.2753624906286
 20
699.626350934449
 10
516.5810576947111
 20
688.8293223452746
  0
LWPOLYLINE
  5
51
330
1F
100
AcDbEntity
  8
0_Pen_No__1
  6
Continuous
100
AcDbPolyline
 90
        2
 70
   128
 43
0.0
 10
556.9693363157251
 20
285.0230756577749
 10
584.7173590958332
 20
323.6630477778535
  0
LWPOLYLINE
  5
52
330
1F
100
AcDbEntity
  8
0_Pen_No__1
  6
Continuous
100
AcDbPolyline
 90
        2
 70
   128
 43
0.0
 10
120.6935656877026
 20
230.6847409545696
 10
126.755743487704
 20
234.1847409545703
  0
LWPOLYLINE
  5
53
330
1F
100
AcDbEntity
  8
0_Pen_No__1
  6
Continuous
100
AcDbPolyline
 90
        2
 70
   128
 43
0.0
 10
126.755743487704
 20
234.1847409545703
 10
126.755743487704
 20
291.0164539417775
  0
LWPOLYLINE
  5
54
330
1F
100
AcDbEntity
  8
0_Pen_No__1
  6
Continuous
100
AcDbPolyline
 90
        2
 70
   128
 43
0.0
 10
126.755743487704
 20
291.0164539417775
 10
120.6935656877044
 20
294.5164539417782
  0
LWPOLYLINE
  5
55
330
1F
100
AcDbEntity
  8
0_Pen_No__1
  6
Continuous
100
AcDbPolyline
 90
        2
 70
   128
 43
0.0
 10
120.6935656877044
 20
294.5164539417782
 10
120.6935656877026
 20
230.6847409545696
  0
LWPOLYLINE
  5
56
330
1F
100
AcDbEntity
  8
0_Pen_No__1
  6
Continuous
100
AcDbPolyline
 90
        2
 70
   128
 43
0.0
 10
120.6935656877031
 20
230.6847409545696
 10
104.1252192071624
 20
221.1190016122015
  0
LWPOLYLINE
  5
57
330
1F
100
AcDbEntity
  8
0_Pen_No__1
  6
Continuous
100
AcDbPolyline
 90
        2
 70
   128
 43
0.0
 10
104.1252192071624
 20
221.1190016122015
 10
104.1252192071616
 20
299.9507145972919
  0
LWPOLYLINE
  5
58
330
1F
100
AcDbEntity
  8
0_Pen_No__1
  6
Continuous
100
AcDbPolyline
 90
        2
 70
   128
 43
0.0
 10
104.1252192071616
 20
299.9507145972919
 10
91.85469274983448
 20
307.035106468784
  0
LWPOLYLINE
  5
59
330
1F
100
AcDbEntity
  8
0_Pen_No__1
  6
Continuous
100
AcDbPolyline
 90
        2
 70
   128
 43
0.0
 10
91.85469274983448
 20
307.035106468784
 10
26.18293295171625
 20
344.9507148320787
  0
LWPOLYLINE
  5
5A
330
1F
100
AcDbEntity
  8
0_Pen_No__1
  6
Continuous
100
AcDbPolyline
 90
        2
 70
   128
 43
0.0
 10
26.18293295171625
 20
344.9507148320787
 10
12.42132039587496
 20
337.0054440837609
  0
LWPOLYLINE
  5
5B
330
1F
100
AcDbEntity
  8
0_Pen_No__1
  6
Continuous
100
AcDbPolyline
 90
        2
 70
   128
 43
0.0
 10
11.38991601169514
 20
336.4099624823091
 10
89.33220232303984
 20
291.4099622797959
  0
LWPOLYLINE
  5
5C
330
1F
100
AcDbEntity
  8
0_Pen_No__1
  6
Continuous
100
AcDbPolyline
 90
        2
 70
   128
 43
0.0
 10
120.6935656877035
 20
-24.55138339306773
 10
120.6935656877044
 20
33.07155700711539
  0
LWPOLYLINE
  5
5D
330
1F
100
AcDbEntity
  8
0_Pen_No__1
  6
Continuous
100
AcDbPolyline
 90
        2
 70
   128
 43
0.0
 10
120.6935656877044
 20
33.07155700711539
 10
119.3285761049294
 20
34.9327593006159
  0
LWPOLYLINE
  5
5E
330
1F
100
AcDbEntity
  8
0_Pen_No__1
  6
Continuous
100
AcDbPolyline
 90
        2
 70
   128
 43
0.0
 10
119.3285761049294
 20
34.9327593006159
 10
115.2225284339585
 20
42.05672121211745
  0
LWPOLYLINE
  5
5F
330
1F
100
AcDbEntity
  8
0_Pen_No__1
  6
Continuous
100
AcDbPolyline
 90
        2
 70
   128
 43
0.0
 10
115.2225284339585
 20
42.05672121211745
 10
111.8936849888907
 20
49.48306059961749
  0
LWPOLYLINE
  5
60
330
1F
100
AcDbEntity
  8
0_Pen_No__1
  6
Continuous
100
AcDbPolyline
 90
        2
 70
   128
 43
0.0
 10
111.8936849888907
 20
49.48306059961749
 10
109.4431909918878
 20
56.98613189861579
  0
LWPOLYLINE
  5
61
330
1F
100
AcDbEntity
  8
0_Pen_No__1
  6
Continuous
100
AcDbPolyline
 90
        2
 70
   128
 43
0.0
 10
109.4431909918878
 20
56.98613189861579
 10
107.9455034642876
 20
64.33795808461306
  0
LWPOLYLINE
  5
62
330
1F
100
AcDbEntity
  8
0_Pen_No__1
  6
Continuous
100
AcDbPolyline
 90
        2
 70
   128
 43
0.0
 10
107.9455034642876
 20
64.33795808461306
 10
107.4461288833337
 20
71.31515763961515
  0
LWPOLYLINE
  5
63
330
1F
100
AcDbEntity
  8
0_Pen_No__1
  6
Continuous
100
AcDbPolyline
 90
        2
 70
   128
 43
0.0
 10
107.4461288833337
 20
71.31515763961515
 10
107.7031846877063
 20
74.51044476211544
  0
LWPOLYLINE
  5
64
330
1F
100
AcDbEntity
  8
0_Pen_No__1
  6
Continuous
100
AcDbPolyline
 90
        2
 70
   128
 43
0.0
 10
107.7031846877063
 20
74.51044476211544
 10
107.7031846877063
 20
98.30545676911329
  0
LWPOLYLINE
  5
65
330
1F
100
AcDbEntity
  8
0_Pen_No__1
  6
Continuous
100
AcDbPolyline
 90
        2
 70
   128
 43
0.0
 10
107.7031846877063
 20
98.30545676911329
 10
110.7349434093599
 20
100.0558434908259
  0
LWPOLYLINE
  5
66
330
1F
100
AcDbEntity
  8
0_Pen_No__1
  6
Continuous
100
AcDbPolyline
 90
        2
 70
   128
 43
0.0
 10
110.7349434093599
 20
100.0558434908259
 10
108.5692100877069
 20
101.30623021254
  0
LWPOLYLINE
  5
67
330
1F
100
AcDbEntity
  8
0_Pen_No__1
  6
Continuous
100
AcDbPolyline
 90
        2
 70
   128
 43
0.0
 10
108.5692100877069
 20
101.30623021254
 10
108.5692100877069
 20
114.1063897745378
  0
LWPOLYLINE
  5
68
330
1F
100
AcDbEntity
  8
0_Pen_No__1
  6
Continuous
100
AcDbPolyline
 90
        2
 70
   128
 43
0.0
 10
108.5692100877069
 20
114.1063897745378
 10
120.6935656877834
 20
121.1063897745819
  0
LWPOLYLINE
  5
69
330
1F
100
AcDbEntity
  8
0_Pen_No__1
  6
Continuous
100
AcDbPolyline
 90
        2
 70
   128
 43
0.0
 10
120.6935656877834
 20
121.1063897745819
 10
120.6935656877008
 20
169.1063897745428
  0
LWPOLYLINE
  5
6A
330
1F
100
AcDbEntity
  8
0_Pen_No__1
  6
Continuous
100
AcDbPolyline
 90
        2
 70
   128
 43
0.0
 10
120.6935656877008
 20
169.1063897745428
 10
119.1470810669357
 20
171.4089792845386
  0
LWPOLYLINE
  5
6B
330
1F
100
AcDbEntity
  8
0_Pen_No__1
  6
Continuous
100
AcDbPolyline
 90
        2
 70
   128
 43
0.0
 10
119.1470810669357
 20
171.4089792845386
 10
114.6061130186808
 20
180.0866769580365
  0
LWPOLYLINE
  5
6C
330
1F
100
AcDbEntity
  8
0_Pen_No__1
  6
Continuous
100
AcDbPolyline
 90
        2
 70
   128
 43
0.0
 10
114.6061130186808
 20
180.0866769580365
 10
111.0448516306781
 20
189.0172539280441
  0
LWPOLYLINE
  5
6D
330
1F
100
AcDbEntity
  8
0_Pen_No__1
  6
Continuous
100
AcDbPolyline
 90
        2
 70
   128
 43
0.0
 10
111.0448516306781
 20
189.0172539280441
 10
108.5715040296429
 20
197.9293591335347
  0
LWPOLYLINE
  5
6E
330
1F
100
AcDbEntity
  8
0_Pen_No__1
  6
Continuous
100
AcDbPolyline
 90
        2
 70
   128
 43
0.0
 10
108.5715040296429
 20
197.9293591335347
 10
107.2612216290545
 20
206.5522027665425
  0
LWPOLYLINE
  5
6F
330
1F
100
AcDbEntity
  8
0_Pen_No__1
  6
Continuous
100
AcDbPolyline
 90
        2
 70
   128
 43
0.0
 10
107.2612216290545
 20
206.5522027665425
 10
107.1538166973549
 20
214.6237840880329
  0
LWPOLYLINE
  5
70
330
1F
100
AcDbEntity
  8
0_Pen_No__1
  6
Continuous
100
AcDbPolyline
 90
        2
 70
   128
 43
0.0
 10
107.1538166973549
 20
214.6237840880329
 10
107.7031846877068
 20
218.261318136536
  0
LWPOLYLINE
  5
71
330
1F
100
AcDbEntity
  8
0_Pen_No__1
  6
Continuous
100
AcDbPolyline
 90
        2
 70
   128
 43
0.0
 10
107.7031846877068
 20
218.261318136536
 10
120.6935656877679
 20
225.7613181365734
  0
LWPOLYLINE
  5
72
330
1F
100
AcDbEntity
  8
0_Pen_No__1
  6
Continuous
100
AcDbPolyline
 90
        2
 70
   128
 43
0.0
 10
120.6935656877679
 20
225.7613181365734
 10
120.6935656877031
 20
230.6847409545696
  0
LWPOLYLINE
  5
73
330
1F
100
AcDbEntity
  8
0_Pen_No__1
  6
Continuous
100
AcDbPolyline
 90
        2
 70
   128
 43
0.0
 10
584.7173590958332
 20
323.6630477778535
 10
616.4709134746163
 20
401.7282906385271
  0
LWPOLYLINE
  5
74
330
1F
100
AcDbEntity
  8
0_Pen_No__1
  6
Continuous
100
AcDbPolyline
 90
        2
 70
   128
 43
0.0
 10
616.4709134746163
 20
401.7282906385271
 10
641.9397873915009
 20
480.6817997808697
  0
LWPOLYLINE
  5
75
330
1F
100
AcDbEntity
  8
0_Pen_No__1
  6
Continuous
100
AcDbPolyline
 90
        2
 70
   128
 43
0.0
 10
641.9397873915009
 20
480.6817997808697
 10
638.5439375359164
 20
553.6925716759387
  0
LWPOLYLINE
  5
76
330
1F
100
AcDbEntity
  8
0_Pen_No__1
  6
Continuous
100
AcDbPolyline
 90
        2
 70
   128
 43
0.0
 10
638.5439375359164
 20
553.6925716759387
 10
646.1845997109816
 20
634.3440057460739
  0
LWPOLYLINE
  5
77
330
1F
100
AcDbEntity
  8
0_Pen_No__1
  6
Continuous
100
AcDbPolyline
 90
        2
 70
   128
 43
0.0
 10
646.1845997109816
 20
634.3440057460739
 10
624.1115756496818
 20
684.4327911159469
  0
LWPOLYLINE
  5
78
330
1F
100
AcDbEntity
  8
0_Pen_No__1
  6
Continuous
100
AcDbPolyline
 90
        2
 70
   128
 43
0.0
 10
624.1115756496818
 20
684.4327911159469
 10
606.2833639078624
 20
701.4120403938699
  0
LWPOLYLINE
  5
79
330
1F
100
AcDbEntity
  8
0_Pen_No__1
  6
Continuous
100
AcDbPolyline
 90
        2
 70
   128
 43
0.0
 10
606.2833639078624
 20
701.4120403938699
 10
577.4458847602613
 20
706.3295873300528
  0
LWPOLYLINE
  5
7A
330
1F
100
AcDbEntity
  8
0_Pen_No__1
  6
Continuous
100
AcDbPolyline
 90
        2
 70
   128
 43
0.0
 10
577.4458847602613
 20
706.3295873300528
 10
537.2753624906286
 20
699.626350934449
  0
LWPOLYLINE
  5
7B
330
1F
100
AcDbEntity
  8
0_Pen_No__1
  6
Continuous
100
AcDbPolyline
 90
        2
 70
   128
 43
0.0
 10
438.8818203061282
 20
655.6545845606552
 10
413.338720494064
 20
671.9263651186646
  0
LWPOLYLINE
  5
7C
330
1F
100
AcDbEntity
  8
0_Pen_No__1
  6
Continuous
100
AcDbPolyline
 90
        2
 70
   128
 43
0.0
 10
413.338720494064
 20
671.9263651186646
 10
395.6520024962273
 20
676.1711774381456
  0
LWPOLYLINE
  5
7D
330
1F
100
AcDbEntity
  8
0_Pen_No__1
  6
Continuous
100
AcDbPolyline
 90
        2
 70
   128
 43
0.0
 10
395.6520024962273
 20
676.1711774381456
 10
376.5503470585641
 20
674.7562399983187
  0
LWPOLYLINE
  5
7E
330
1F
100
AcDbEntity
  8
0_Pen_No__1
  6
Continuous
100
AcDbPolyline
 90
        2
 70
   128
 43
0.0
 10
376.5503470585641
 20
674.7562399983187
 10
360.9395340506825
 20
678.9792768713847
  0
LWPOLYLINE
  5
7F
330
1F
100
AcDbEntity
  8
0_Pen_No__1
  6
Continuous
100
AcDbPolyline
 90
        2
 70
   128
 43
0.0
 10
360.9395340506825
 20
678.9792768713847
 10
360.9395340506825
 20
631.0432140405013
  0
LWPOLYLINE
  5
80
330
1F
100
AcDbEntity
  8
0_Pen_No__1
  6
Continuous
100
AcDbPolyline
 90
        2
 70
   128
 43
0.0
 10
360.9395340506825
 20
631.0432140405013
 10
374.842183251423
 20
624.1145415281977
  0
LWPOLYLINE
  5
81
330
1F
100
AcDbEntity
  8
0_Pen_No__1
  6
Continuous
100
AcDbPolyline
 90
        2
 70
   128
 43
0.0
 10
374.842183251423
 20
624.1145415281977
 10
374.842183251423
 20
626.6977300613088
  0
LWPOLYLINE
  5
82
330
1F
100
AcDbEntity
  8
0_Pen_No__1
  6
Continuous
100
AcDbPolyline
 90
        2
 70
   128
 43
0.0
 10
374.842183251423
 20
626.6977300613088
 10
383.5024372798066
 20
631.6977300776961
  0
LWPOLYLINE
  5
83
330
1F
100
AcDbEntity
  8
0_Pen_No__1
  6
Continuous
100
AcDbPolyline
 90
        2
 70
   128
 43
0.0
 10
383.5024372798066
 20
631.6977300776961
 10
411.1708290630589
 20
615.7233765637819
  0
LWPOLYLINE
  5
84
330
1F
100
AcDbEntity
  8
0_Pen_No__1
  6
Continuous
100
AcDbPolyline
 90
        2
 70
   128
 43
0.0
 10
411.1708290630589
 20
615.7233765637819
 10
411.1708290630589
 20
606.0094101960416
  0
LWPOLYLINE
  5
85
330
1F
100
AcDbEntity
  8
0_Pen_No__1
  6
Continuous
100
AcDbPolyline
 90
        2
 70
   128
 43
0.0
 10
411.1708290630589
 20
606.0094101960416
 10
438.8818203061282
 20
592.1990650925835
  0
LWPOLYLINE
  5
86
330
1F
100
AcDbEntity
  8
0_Pen_No__1
  6
Continuous
100
AcDbPolyline
 90
        2
 70
   128
 43
0.0
 10
89.33220232303984
 20
291.4099622797959
 10
89.33220232303984
 20
-51.57597128390034
  0
LWPOLYLINE
  5
87
330
1F
100
AcDbEntity
  8
0_Pen_No__1
  6
Continuous
100
AcDbPolyline
 90
       12
 70
   129
 43
0.0
 10
376.5503470585631
 20
674.7562399983187
 10
360.9395340506825
 20
678.9792768713847
 10
360.9395340506829
 20
631.0432140405015
 10
374.842183251423
 20
624.1145415281982
 10
374.842183251423
 20
626.6977300613088
 10
383.5024372798066
 20
631.6977300776961
 10
411.1708290630589
 20
615.7233765637819
 10
411.1708290630589
 20
613.0870255888779
 10
438.8818203061282
 20
613.0870255888779
 10
438.8818203061282
 20
655.6545845606552
 10
413.338720494064
 20
671.9263651186646
 10
395.6520024962269
 20
676.1711774381458
  0
LWPOLYLINE
  5
88
330
1F
100
AcDbEntity
  8
0_Pen_No__1
  6
Continuous
100
AcDbPolyline
 90
        4
 70
   129
 43
0.0
 10
438.8818203061282
 20
592.1990650925835
 10
438.8818203061282
 20
613.0870255888779
 10
411.1708290630589
 20
613.0870255888779
 10
411.1708290630589
 20
606.0094101960416
  0
LWPOLYLINE
  5
89
330
1F
100
AcDbEntity
  8
0_Pen_No__1
  6
Continuous
100
AcDbPolyline
 90
        4
 70
   129
 43
0.0
 10
438.8818203061282
 20
656.4638089980539
 10
438.8818203061282
 20
592.1990650925835
 10
442.1443318534824
 20
594.0826770209138
 10
442.1443318534824
 20
657.6529599113175
  0
LWPOLYLINE
  5
8A
330
1F
100
AcDbEntity
  8
0_Pen_No__1
  6
Continuous
100
AcDbPolyline
 90
       12
 70
   129
 43
0.0
 10
624.1115756496815
 20
684.4327911159467
 10
606.2833639078626
 20
701.4120403938701
 10
577.4458847602615
 20
706.3295873300531
 10
537.2753624906288
 20
699.6263509344492
 10
520.1899875491245
 20
690.7122422693163
 10
564.2677594176977
 20
689.8540490859212
 10
585.8139560889464
 20
686.2630163073802
 10
607.3091554219052
 20
668.7484094434877
 10
605.7169184342781
 20
627.3502477651931
 10
605.7169184342783
 20
613.0870255888779
 10
644.1707805381947
 20
613.0870255888779
 10
646.1845997109816
 20
634.3440057460732
  0
LWPOLYLINE
  5
8B
330
1F
100
AcDbEntity
  8
0_Pen_No__1
  6
Continuous
100
AcDbPolyline
 90
       13
 70
   129
 43
0.0
 10
605.7169184342783
 20
606.1347542697122
 10
590.0757417128959
 20
597.1043166397172
 10
590.5245107263733
 20
595.1761758475866
 10
592.5985893267831
 20
589.3282806920839
 10
595.3405063285786
 20
583.5813361760862
 10
598.6669499713644
 20
578.1099603010857
 10
601.885896823138
 20
573.922912901585
 10
602.5419669119283
 20
550.4514442442783
 10
603.0731279508261
 20
534.3041486617897
 10
639.4457246528535
 20
534.3041486617897
 10
638.5439375359167
 20
553.6925716759375
 10
644.1707805381947
 20
613.0870255888779
 10
605.7169184342783
 20
613.0870255888779
  0
LWPOLYLINE
  5
8C
330
1F
100
AcDbEntity
  8
0_Pen_No__1
  6
Continuous
100
AcDbPolyline
 90
        8
 70
   129
 43
0.0
 10
603.0731279508261
 20
534.3041486617897
 10
639.4457246528535
 20
534.3041486617897
 10
641.9397873915011
 20
480.6817997808701
 10
635.4466458012063
 20
460.5530608509556
 10
593.3257418105884
 20
460.5530608509556
 10
591.2958304387525
 20
466.2764258551124
 10
590.8470614252759
 20
468.2045666472412
 10
604.979064341969
 20
476.3636823710371
  0
LWPOLYLINE
  5
8D
330
1F
100
AcDbEntity
  8
0_Pen_No__1
  6
Continuous
100
AcDbPolyline
 90
       10
 70
   129
 43
0.0
 10
635.4466458012063
 20
460.5530608509556
 10
593.3257418105886
 20
460.5530608509556
 10
593.3699090391638
 20
460.4285306996083
 10
596.1118260409595
 20
454.681586183606
 10
599.4382696837453
 20
449.2102103086113
 10
602.6572165355182
 20
445.0231629091093
 10
601.4216617704244
 20
431.706628218653
 10
580.8865906263652
 20
390.636485930536
 42
-0.0024375074639349
 10
612.1749343150973
 20
391.1667436566777
 10
616.4709134746163
 20
401.72829063853
  0
LWPOLYLINE
  5
8E
330
1F
100
AcDbEntity
  8
0_Pen_No__1
  6
Continuous
100
AcDbPolyline
 90
       10
 70
   129
 43
0.0
 10
612.1749343150973
 20
391.1667436566777
 42
0.0012280193428951
 10
595.7352779087059
 20
390.9261795217869
 42
0.0011568304725816
 10
580.8865906263652
 20
390.636485930536
 10
572.6639120959431
 20
374.1911288696926
 10
561.4532639177556
 20
341.5340233071466
 10
559.3763241946632
 20
319.3799995941608
 10
545.2443212779699
 20
311.220883870365
 10
546.2916412939527
 20
306.7210623929719
 10
572.5510305348542
 20
306.7210623929719
 10
584.7173590958332
 20
323.6630477778528
  0
LWPOLYLINE
  5
8F
330
1F
100
AcDbEntity
  8
0_Pen_No__1
  6
Continuous
100
AcDbPolyline
 90
        6
 70
   129
 43
0.0
 10
546.2916412939527
 20
306.7210623929719
 10
547.5603736947312
 20
302.3975605843592
 10
550.2419554715281
 20
295.8287667005044
 10
553.2761357938192
 20
290.2196065050047
 10
556.5488310410991
 20
285.3903948677558
 10
572.5510305348542
 20
306.7210623929719
  0
LWPOLYLINE
  5
90
330
1F
100
AcDbEntity
  8
0_Pen_No__1
  6
Continuous
100
AcDbPolyline
 90
        2
 70
   128
 43
0.0
 10
554.9393576152124
 20
287.4839185675064
 10
551.6129139724255
 20
292.9552944425034
  0
LWPOLYLINE
  5
91
330
1F
100
AcDbEntity
  8
0_Pen_No__1
  6
Continuous
100
AcDbPolyline
 90
        2
 70
   128
 43
0.0
 10
551.6129139724255
 20
292.9552944425034
 10
548.8709969706305
 20
298.7022389585059
  0
LWPOLYLINE
  5
92
330
1F
100
AcDbEntity
  8
0_Pen_No__1
  6
Continuous
100
AcDbPolyline
 90
        2
 70
   128
 43
0.0
 10
548.8709969706305
 20
298.7022389585059
 10
546.7969183702209
 20
304.5501341140042
  0
LWPOLYLINE
  5
93
330
1F
100
AcDbEntity
  8
0_Pen_No__1
  6
Continuous
100
AcDbPolyline
 90
        2
 70
   128
 43
0.0
 10
591.295830438753
 20
466.2764258551084
 10
590.8470614252761
 20
468.2045666472414
  0
LWPOLYLINE
  5
94
330
1F
100
AcDbEntity
  8
0_Pen_No__1
  6
Continuous
100
AcDbPolyline
 90
        2
 70
   128
 43
0.0
 10
546.7969183702209
 20
304.5501341140042
 10
545.24432127797
 20
311.2208838703652
  0
LWPOLYLINE
  5
95
330
1F
100
AcDbEntity
  8
0_Pen_No__1
  6
Continuous
100
AcDbPolyline
 90
        2
 70
   128
 43
0.0
 10
558.1583044669853
 20
283.2968711680053
 10
554.9393576152124
 20
287.4839185675064
  0
LWPOLYLINE
  5
96
330
1F
100
AcDbEntity
  8
0_Pen_No__1
  6
Continuous
100
AcDbPolyline
 90
        2
 70
   128
 43
0.0
 10
599.438269683745
 20
449.2102103086108
 10
596.1118260409581
 20
454.6815861836077
  0
LWPOLYLINE
  5
97
330
1F
100
AcDbEntity
  8
0_Pen_No__1
  6
Continuous
100
AcDbPolyline
 90
        2
 70
   128
 43
0.0
 10
596.1118260409581
 20
454.6815861836077
 10
593.3699090391628
 20
460.4285306996103
  0
LWPOLYLINE
  5
98
330
1F
100
AcDbEntity
  8
0_Pen_No__1
  6
Continuous
100
AcDbPolyline
 90
        2
 70
   128
 43
0.0
 10
113.765362487706
 20
204.4993658305359
 10
113.765362487706
 20
207.7613181365363
  0
LWPOLYLINE
  5
99
330
1F
100
AcDbEntity
  8
0_Pen_No__1
  6
Continuous
100
AcDbPolyline
 90
        2
 70
   128
 43
0.0
 10
113.765362487706
 20
207.7613181365363
 10
126.755743487704
 20
200.2613181365369
  0
LWPOLYLINE
  5
9A
330
1F
100
AcDbEntity
  8
0_Pen_No__1
  6
Continuous
100
AcDbPolyline
 90
        2
 70
   128
 43
0.0
 10
126.755743487704
 20
200.2613181365369
 10
126.755743487704
 20
291.0164539417777
  0
LWPOLYLINE
  5
9B
330
1F
100
AcDbEntity
  8
0_Pen_No__1
  6
Continuous
100
AcDbPolyline
 90
        2
 70
   128
 43
0.0
 10
126.755743487704
 20
291.0164539417777
 10
120.6935656877044
 20
294.5164539417784
  0
LWPOLYLINE
  5
9C
330
1F
100
AcDbEntity
  8
0_Pen_No__1
  6
Continuous
100
AcDbPolyline
 90
        2
 70
   128
 43
0.0
 10
120.6935656877044
 20
294.5164539417784
 10
120.6935656877022
 20
210.7613181365382
  0
LWPOLYLINE
  5
9D
330
1F
100
AcDbEntity
  8
0_Pen_No__1
  6
Continuous
100
AcDbPolyline
 90
        2
 70
   128
 43
0.0
 10
120.6935656877022
 20
210.7613181365382
 10
107.7031846877068
 20
218.2613181365365
  0
LWPOLYLINE
  5
9E
330
1F
100
AcDbEntity
  8
0_Pen_No__1
  6
Continuous
100
AcDbPolyline
 90
        2
 70
   128
 43
0.0
 10
107.7031846877068
 20
218.2613181365365
 10
107.1538166973549
 20
214.6237840880367
  0
LWPOLYLINE
  5
9F
330
1F
100
AcDbEntity
  8
0_Pen_No__1
  6
Continuous
100
AcDbPolyline
 90
        2
 70
   128
 43
0.0
 10
107.1538166973549
 20
214.6237840880367
 10
107.2612216290545
 20
206.5522027665381
  0
LWPOLYLINE
  5
A0
330
1F
100
AcDbEntity
  8
0_Pen_No__1
  6
Continuous
100
AcDbPolyline
 90
        2
 70
   128
 43
0.0
 10
107.2612216290545
 20
206.5522027665381
 10
108.5715040296429
 20
197.9293591335347
  0
LWPOLYLINE
  5
A1
330
1F
100
AcDbEntity
  8
0_Pen_No__1
  6
Continuous
100
AcDbPolyline
 90
        2
 70
   128
 43
0.0
 10
108.5715040296429
 20
197.9293591335347
 10
111.0448516306817
 20
189.0172539280393
  0
LWPOLYLINE
  5
A2
330
1F
100
AcDbEntity
  8
0_Pen_No__1
  6
Continuous
100
AcDbPolyline
 90
        2
 70
   128
 43
0.0
 10
111.0448516306817
 20
189.0172539280393
 10
114.6061130186786
 20
180.0866769580383
  0
LWPOLYLINE
  5
A3
330
1F
100
AcDbEntity
  8
0_Pen_No__1
  6
Continuous
100
AcDbPolyline
 90
        2
 70
   128
 43
0.0
 10
114.6061130186786
 20
180.0866769580383
 10
119.1470810669362
 20
171.4089792845384
  0
LWPOLYLINE
  5
A4
330
1F
100
AcDbEntity
  8
0_Pen_No__1
  6
Continuous
100
AcDbPolyline
 90
        2
 70
   128
 43
0.0
 10
119.1470810669362
 20
171.4089792845384
 10
120.6935656877008
 20
169.1063897745426
  0
LWPOLYLINE
  5
A5
330
1F
100
AcDbEntity
  8
0_Pen_No__1
  6
Continuous
100
AcDbPolyline
 90
        2
 70
   128
 43
0.0
 10
120.6935656877008
 20
169.1063897745426
 10
120.6935656876986
 20
107.1063897745426
  0
LWPOLYLINE
  5
A6
330
1F
100
AcDbEntity
  8
0_Pen_No__1
  6
Continuous
100
AcDbPolyline
 90
        2
 70
   128
 43
0.0
 10
120.6935656876986
 20
107.1063897745426
 10
108.5692100877069
 20
114.1063897745378
  0
LWPOLYLINE
  5
A7
330
1F
100
AcDbEntity
  8
0_Pen_No__1
  6
Continuous
100
AcDbPolyline
 90
        2
 70
   128
 43
0.0
 10
108.5692100877069
 20
114.1063897745378
 10
108.5692100877069
 20
101.30623021254
  0
LWPOLYLINE
  5
A8
330
1F
100
AcDbEntity
  8
0_Pen_No__1
  6
Continuous
100
AcDbPolyline
 90
        2
 70
   128
 43
0.0
 10
108.5692100877069
 20
101.30623021254
 10
114.6313878877061
 20
97.8062302125411
  0
LWPOLYLINE
  5
A9
330
1F
100
AcDbEntity
  8
0_Pen_No__1
  6
Continuous
100
AcDbPolyline
 90
        2
 70
   128
 43
0.0
 10
114.6313878877061
 20
97.8062302125411
 10
114.6313878877061
 20
103.606389774541
  0
LWPOLYLINE
  5
AA
330
1F
100
AcDbEntity
  8
0_Pen_No__1
  6
Continuous
100
AcDbPolyline
 90
        2
 70
   128
 43
0.0
 10
114.6313878877061
 20
103.606389774541
 10
120.6935656876986
 20
100.1063897745456
  0
LWPOLYLINE
  5
AB
330
1F
100
AcDbEntity
  8
0_Pen_No__1
  6
Continuous
100
AcDbPolyline
 90
        2
 70
   128
 43
0.0
 10
120.6935656876986
 20
100.1063897745456
 10
120.6935656876977
 20
80.10638977454599
  0
LWPOLYLINE
  5
AC
330
1F
100
AcDbEntity
  8
0_Pen_No__1
  6
Continuous
100
AcDbPolyline
 90
        2
 70
   128
 43
0.0
 10
120.6935656876977
 20
80.10638977454599
 10
114.6313878877061
 20
83.60638977454138
  0
LWPOLYLINE
  5
AD
330
1F
100
AcDbEntity
  8
0_Pen_No__1
  6
Continuous
100
AcDbPolyline
 90
        2
 70
   128
 43
0.0
 10
114.6313878877061
 20
83.60638977454138
 10
114.6313878877061
 20
76.60638977454349
  0
LWPOLYLINE
  5
AE
330
1F
100
AcDbEntity
  8
0_Pen_No__1
  6
Continuous
100
AcDbPolyline
 90
        2
 70
   128
 43
0.0
 10
114.6313878877061
 20
76.60638977454349
 10
126.7557434877036
 20
69.60638977454448
  0
LWPOLYLINE
  5
AF
330
1F
100
AcDbEntity
  8
0_Pen_No__1
  6
Continuous
100
AcDbPolyline
 90
        2
 70
   128
 43
0.0
 10
126.7557434877036
 20
69.60638977454448
 10
126.755743487704
 20
170.2613181365393
  0
LWPOLYLINE
  5
B0
330
1F
100
AcDbEntity
  8
0_Pen_No__1
  6
Continuous
100
AcDbPolyline
 90
        2
 70
   128
 43
0.0
 10
126.755743487704
 20
170.2613181365393
 10
123.0932196038439
 20
175.8555374870381
  0
LWPOLYLINE
  5
B1
330
1F
100
AcDbEntity
  8
0_Pen_No__1
  6
Continuous
100
AcDbPolyline
 90
        2
 70
   128
 43
0.0
 10
123.0932196038439
 20
175.8555374870381
 10
119.4673689780363
 20
182.9620119450395
  0
LWPOLYLINE
  5
B2
330
1F
100
AcDbEntity
  8
0_Pen_No__1
  6
Continuous
100
AcDbPolyline
 90
        2
 70
   128
 43
0.0
 10
119.4673689780363
 20
182.9620119450395
 10
116.6504901478329
 20
190.2522915110385
  0
LWPOLYLINE
  5
B3
330
1F
100
AcDbEntity
  8
0_Pen_No__1
  6
Continuous
100
AcDbPolyline
 90
        2
 70
   128
 43
0.0
 10
116.6504901478329
 20
190.2522915110385
 10
114.7281725516054
 20
197.5048647285362
  0
LWPOLYLINE
  5
B4
330
1F
100
AcDbEntity
  8
0_Pen_No__1
  6
Continuous
100
AcDbPolyline
 90
        2
 70
   128
 43
0.0
 10
114.7281725516054
 20
197.5048647285362
 10
113.765362487706
 20
204.4993658305359
  0
LWPOLYLINE
  5
B5
330
1F
100
AcDbEntity
  8
0_Pen_No__1
  6
Continuous
100
AcDbPolyline
 90
        2
 70
   128
 43
0.0
 10
593.3699090391628
 20
460.4285306996103
 10
591.295830438753
 20
466.2764258551084
  0
LWPOLYLINE
  5
B6
330
1F
100
AcDbEntity
  8
0_Pen_No__1
  6
Continuous
100
AcDbPolyline
 90
        2
 70
   128
 43
0.0
 10
602.6572165355179
 20
445.0231629091097
 10
599.438269683745
 20
449.2102103086108
  0
LWPOLYLINE
  5
B7
330
1F
100
AcDbEntity
  8
0_Pen_No__1
  6
Continuous
100
AcDbPolyline
 90
        2
 70
   128
 43
0.0
 10
590.5245107263735
 20
595.1761758475844
 10
590.0757417128964
 20
597.1043166397175
  0
LWPOLYLINE
  5
B8
330
1F
100
AcDbEntity
  8
0_Pen_No__1
  6
Continuous
100
AcDbPolyline
 90
        2
 70
   128
 43
0.0
 10
598.666949971365
 20
578.1099603010869
 10
595.3405063285782
 20
583.5813361760837
  0
LWPOLYLINE
  5
B9
330
1F
100
AcDbEntity
  8
0_Pen_No__1
  6
Continuous
100
AcDbPolyline
 90
        2
 70
   128
 43
0.0
 10
595.3405063285782
 20
583.5813361760837
 10
592.5985893267831
 20
589.3282806920863
  0
LWPOLYLINE
  5
BA
330
1F
100
AcDbEntity
  8
0_Pen_No__1
  6
Continuous
100
AcDbPolyline
 90
        2
 70
   128
 43
0.0
 10
592.5985893267831
 20
589.3282806920863
 10
590.5245107263735
 20
595.1761758475844
  0
LWPOLYLINE
  5
BB
330
1F
100
AcDbEntity
  8
0_Pen_No__1
  6
Continuous
100
AcDbPolyline
 90
        2
 70
   128
 43
0.0
 10
601.8858968231382
 20
573.9229129015857
 10
598.666949971365
 20
578.1099603010869
  0
LWPOLYLINE
  5
BC
330
1F
100
AcDbEntity
  8
0_Pen_No__1
  6
Continuous
100
AcDbPolyline
 90
        2
 70
   128
 43
0.0
 10
113.765362487706
 20
-60.88053857488318
 10
113.765362487706
 20
-57.61858626888294
  0
LWPOLYLINE
  5
BD
330
1F
100
AcDbEntity
  8
0_Pen_No__1
  6
Continuous
100
AcDbPolyline
 90
        2
 70
   128
 43
0.0
 10
113.765362487706
 20
-57.61858626888294
 10
126.7557434877036
 20
-65.11858626888211
  0
LWPOLYLINE
  5
BE
330
1F
100
AcDbEntity
  8
0_Pen_No__1
  6
Continuous
100
AcDbPolyline
 90
        2
 70
   128
 43
0.0
 10
126.7557434877036
 20
-65.11858626888211
 10
126.7557434877036
 20
34.2264853691161
  0
LWPOLYLINE
  5
BF
330
1F
100
AcDbEntity
  8
0_Pen_No__1
  6
Continuous
100
AcDbPolyline
 90
        2
 70
   128
 43
0.0
 10
126.7557434877036
 20
34.2264853691161
 10
123.5367966359306
 20
38.41353276861725
  0
LWPOLYLINE
  5
C0
330
1F
100
AcDbEntity
  8
0_Pen_No__1
  6
Continuous
100
AcDbPolyline
 90
        2
 70
   128
 43
0.0
 10
123.5367966359306
 20
38.41353276861725
 10
120.2103529931438
 20
43.88490864361416
  0
LWPOLYLINE
  5
C1
330
1F
100
AcDbEntity
  8
0_Pen_No__1
  6
Continuous
100
AcDbPolyline
 90
        2
 70
   128
 43
0.0
 10
120.2103529931438
 20
43.88490864361416
 10
117.4684359913485
 20
49.63185315961671
  0
LWPOLYLINE
  5
C2
330
1F
100
AcDbEntity
  8
0_Pen_No__1
  6
Continuous
100
AcDbPolyline
 90
        2
 70
   128
 43
0.0
 10
117.4684359913485
 20
49.63185315961671
 10
115.3943573909388
 20
55.47974831511504
  0
LWPOLYLINE
  5
C3
330
1F
100
AcDbEntity
  8
0_Pen_No__1
  6
Continuous
100
AcDbPolyline
 90
        2
 70
   128
 43
0.0
 10
115.3943573909388
 20
55.47974831511504
 10
114.0511370219599
 20
61.25090877511341
  0
LWPOLYLINE
  5
C4
330
1F
100
AcDbEntity
  8
0_Pen_No__1
  6
Continuous
100
AcDbPolyline
 90
        2
 70
   128
 43
0.0
 10
114.0511370219599
 20
61.25090877511341
 10
113.765362487706
 20
64.0104447621106
  0
LWPOLYLINE
  5
C5
330
1F
100
AcDbEntity
  8
0_Pen_No__1
  6
Continuous
100
AcDbPolyline
 90
        2
 70
   128
 43
0.0
 10
113.765362487706
 20
64.0104447621106
 10
113.765362487706
 20
89.99010928510943
  0
LWPOLYLINE
  5
C6
330
1F
100
AcDbEntity
  8
0_Pen_No__1
  6
Continuous
100
AcDbPolyline
 90
        2
 70
   128
 43
0.0
 10
113.765362487706
 20
89.99010928510943
 10
118.68988530306
 20
87.14693469961277
  0
LWPOLYLINE
  5
C7
330
1F
100
AcDbEntity
  8
0_Pen_No__1
  6
Continuous
100
AcDbPolyline
 90
        2
 70
   128
 43
0.0
 10
118.68988530306
 20
87.14693469961277
 10
118.68988530306
 20
97.68620899762249
  0
LWPOLYLINE
  5
C8
330
1F
100
AcDbEntity
  8
0_Pen_No__1
  6
Continuous
100
AcDbPolyline
 90
        2
 70
   128
 43
0.0
 10
118.68988530306
 20
97.68620899762249
 10
116.0595638476027
 20
99.20482580461965
  0
LWPOLYLINE
  5
C9
330
1F
100
AcDbEntity
  8
0_Pen_No__1
  6
Continuous
100
AcDbPolyline
 90
        2
 70
   128
 43
0.0
 10
116.0595638476027
 20
99.20482580461965
 10
116.0595638476027
 20
93.4808989906113
  0
LWPOLYLINE
  5
CA
330
1F
100
AcDbEntity
  8
0_Pen_No__1
  6
Continuous
100
AcDbPolyline
 90
        2
 70
   128
 43
0.0
 10
116.0595638476027
 20
93.4808989906113
 10
107.7031846877068
 20
98.30545676911329
  0
LWPOLYLINE
  5
CB
330
1F
100
AcDbEntity
  8
0_Pen_No__1
  6
Continuous
100
AcDbPolyline
 90
        2
 70
   128
 43
0.0
 10
107.7031846877068
 20
98.30545676911329
 10
107.7031846877068
 20
74.51044476211366
  0
LWPOLYLINE
  5
CC
330
1F
100
AcDbEntity
  8
0_Pen_No__1
  6
Continuous
100
AcDbPolyline
 90
        2
 70
   128
 43
0.0
 10
107.7031846877068
 20
74.51044476211366
 10
107.4461288833337
 20
71.31515763961205
  0
LWPOLYLINE
  5
CD
330
1F
100
AcDbEntity
  8
0_Pen_No__1
  6
Continuous
100
AcDbPolyline
 90
        2
 70
   128
 43
0.0
 10
107.4461288833337
 20
71.31515763961205
 10
107.9455034642876
 20
64.33795808461196
  0
LWPOLYLINE
  5
CE
330
1F
100
AcDbEntity
  8
0_Pen_No__1
  6
Continuous
100
AcDbPolyline
 90
        2
 70
   128
 43
0.0
 10
107.9455034642876
 20
64.33795808461196
 10
109.4431909918869
 20
56.98613189861512
  0
LWPOLYLINE
  5
CF
330
1F
100
AcDbEntity
  8
0_Pen_No__1
  6
Continuous
100
AcDbPolyline
 90
        2
 70
   128
 43
0.0
 10
109.4431909918869
 20
56.98613189861512
 10
111.8936849888903
 20
49.4830605996166
  0
LWPOLYLINE
  5
D0
330
1F
100
AcDbEntity
  8
0_Pen_No__1
  6
Continuous
100
AcDbPolyline
 90
        2
 70
   128
 43
0.0
 10
111.8936849888903
 20
49.4830605996166
 10
115.222528433959
 20
42.05672121211568
  0
LWPOLYLINE
  5
D1
330
1F
100
AcDbEntity
  8
0_Pen_No__1
  6
Continuous
100
AcDbPolyline
 90
        2
 70
   128
 43
0.0
 10
115.222528433959
 20
42.05672121211568
 10
119.3285761049307
 20
34.93275930061501
  0
LWPOLYLINE
  5
D2
330
1F
100
AcDbEntity
  8
0_Pen_No__1
  6
Continuous
100
AcDbPolyline
 90
        2
 70
   128
 43
0.0
 10
119.3285761049307
 20
34.93275930061501
 10
120.6935656877048
 20
33.07155700711406
  0
LWPOLYLINE
  5
D3
330
1F
100
AcDbEntity
  8
0_Pen_No__1
  6
Continuous
100
AcDbPolyline
 90
        2
 70
   128
 43
0.0
 10
120.6935656877048
 20
33.07155700711406
 10
120.6935656877022
 20
-54.61858626888083
  0
LWPOLYLINE
  5
D4
330
1F
100
AcDbEntity
  8
0_Pen_No__1
  6
Continuous
100
AcDbPolyline
 90
        2
 70
   128
 43
0.0
 10
120.6935656877022
 20
-54.61858626888083
 10
107.7031846877068
 20
-47.11858626888232
  0
LWPOLYLINE
  5
D5
330
1F
100
AcDbEntity
  8
0_Pen_No__1
  6
Continuous
100
AcDbPolyline
 90
        2
 70
   128
 43
0.0
 10
107.7031846877068
 20
-47.11858626888232
 10
107.1538166973545
 20
-50.7561203173823
  0
LWPOLYLINE
  5
D6
330
1F
100
AcDbEntity
  8
0_Pen_No__1
  6
Continuous
100
AcDbPolyline
 90
        2
 70
   128
 43
0.0
 10
107.1538166973545
 20
-50.7561203173823
 10
107.2612216290545
 20
-58.82770163888096
  0
LWPOLYLINE
  5
D7
330
1F
100
AcDbEntity
  8
0_Pen_No__1
  6
Continuous
100
AcDbPolyline
 90
        2
 70
   128
 43
0.0
 10
107.2612216290545
 20
-58.82770163888096
 10
107.7775147417768
 20
-62.22537742068424
  0
LWPOLYLINE
  5
D8
330
1F
100
AcDbEntity
  8
0_Pen_No__1
  6
Continuous
100
AcDbPolyline
 90
        2
 70
   128
 43
0.0
 10
107.7775147417768
 20
-62.22537742068424
 10
114.4834261953314
 20
-66.09703722047522
  0
LWPOLYLINE
  5
D9
330
1F
100
AcDbEntity
  8
0_Pen_No__1
  6
Continuous
100
AcDbPolyline
 90
        2
 70
   128
 43
0.0
 10
114.4834261953314
 20
-66.09703722047522
 10
113.765362487706
 20
-60.88053857488318
  0
LWPOLYLINE
  5
DA
330
1F
100
AcDbEntity
  8
0_Pen_No__1
  6
Continuous
100
AcDbPolyline
 90
        2
 70
   128
 43
0.0
 10
134.1976681178596
 20
241.858865176835
 10
138.7114160621046
 20
246.3040570322883
  0
LWPOLYLINE
  5
DB
330
1F
100
AcDbEntity
  8
0_Pen_No__1
  6
Continuous
100
AcDbPolyline
 90
        2
 70
   128
 43
0.0
 10
138.7114160621046
 20
246.3040570322883
 10
134.3923824682358
 20
252.4741050235297
  0
LWPOLYLINE
  5
DC
330
1F
100
AcDbEntity
  8
0_Pen_No__1
  6
Continuous
100
AcDbPolyline
 90
        2
 70
   128
 43
0.0
 10
134.3923824682358
 20
252.4741050235297
 10
134.3923824682358
 20
298.1515504701535
  0
LWPOLYLINE
  5
DD
330
1F
100
AcDbEntity
  8
0_Pen_No__1
  6
Continuous
100
AcDbPolyline
 90
        2
 70
   128
 43
0.0
 10
134.3923824682358
 20
298.1515504701535
 10
72.48886947580945
 20
333.8915605163015
  0
LWPOLYLINE
  5
DE
330
1F
100
AcDbEntity
  8
0_Pen_No__1
  6
Continuous
100
AcDbPolyline
 90
        2
 70
   128
 43
0.0
 10
72.48886947580945
 20
333.8915605163015
 10
72.4888694758099
 20
346.2681747822468
  0
LWPOLYLINE
  5
DF
330
1F
100
AcDbEntity
  8
0_Pen_No__1
  6
Continuous
100
AcDbPolyline
 90
        2
 70
   128
 43
0.0
 10
590.0757417128962
 20
597.1043166397175
 10
486.3324180525983
 20
537.2080805360788
  0
LWPOLYLINE
  5
E0
330
1F
100
AcDbEntity
  8
0_Pen_No__1
  6
Continuous
100
AcDbPolyline
 90
        2
 70
   128
 43
0.0
 10
120.6935656877679
 20
225.7613181365734
 10
107.7031846877068
 20
218.2613181365376
  0
LWPOLYLINE
  5
E1
330
1F
100
AcDbEntity
  8
0_Pen_No__1
  6
Continuous
100
AcDbPolyline
 90
        2
 70
   128
 43
0.0
 10
120.6935656877834
 20
121.1063897745819
 10
108.5692100877065
 20
114.1063897745378
  0
LWPOLYLINE
  5
E2
330
1F
100
AcDbEntity
  8
0_Pen_No__1
  6
Continuous
100
AcDbPolyline
 90
        2
 70
   128
 43
0.0
 10
110.7349434093599
 20
100.0558434908259
 10
107.7031846877068
 20
98.30545676911329
  0
LWPOLYLINE
  5
E3
330
1F
100
AcDbEntity
  8
0_Pen_No__1
  6
Continuous
100
AcDbPolyline
 90
        2
 70
   128
 43
0.0
 10
115.7580289141054
 20
102.9559232718267
 10
114.6313878877061
 20
102.3054567691129
  0
LWPOLYLINE
  5
E4
330
1F
100
AcDbEntity
  8
0_Pen_No__1
  6
Continuous
100
AcDbPolyline
 90
        2
 70
   128
 43
0.0
 10
120.6935656876982
 20
88.30376011410857
 10
118.68988530306
 20
87.14693469961277
  0
LWPOLYLINE
  5
E5
330
1F
100
AcDbEntity
  8
0_Pen_No__1
  6
Continuous
100
AcDbPolyline
 90
        2
 70
   128
 43
0.0
 10
558.1583044669853
 20
283.2968711680053
 10
126.7557434877036
 20
34.2264853691161
  0
LWPOLYLINE
  5
E6
330
1F
100
AcDbEntity
  8
0_Pen_No__1
  6
Continuous
100
AcDbPolyline
 90
        2
 70
   128
 43
0.0
 10
545.2443212779702
 20
311.2208838703654
 10
126.755743487704
 20
69.60638977454559
  0
LWPOLYLINE
  5
E7
330
1F
100
AcDbEntity
  8
0_Pen_No__1
  6
Continuous
100
AcDbPolyline
 90
        2
 70
   128
 43
0.0
 10
602.6572165355179
 20
445.0231629091097
 10
126.755743487704
 20
170.2613181365393
  0
LWPOLYLINE
  5
E8
330
1F
100
AcDbEntity
  8
0_Pen_No__1
  6
Continuous
100
AcDbPolyline
 90
        2
 70
   128
 43
0.0
 10
573.6761473708679
 20
688.2859844270599
 10
498.0858095668435
 20
689.0053299436803
  0
LWPOLYLINE
  5
E9
330
1F
100
AcDbEntity
  8
0_Pen_No__1
  6
Continuous
100
AcDbPolyline
 90
        2
 70
   128
 43
0.0
 10
601.8858968231382
 20
573.9229129015857
 10
486.3324180525983
 20
507.2080805360812
  0
LWPOLYLINE
  5
EA
330
1F
100
AcDbEntity
  8
0_Pen_No__1
  6
Continuous
100
AcDbPolyline
 90
        2
 70
   128
 43
0.0
 10
590.8470614252764
 20
468.2045666472416
 10
126.755743487704
 20
200.2613181365369
  0
LWPOLYLINE
  5
EB
330
1F
100
AcDbEntity
  8
0_Pen_No__1
  6
Continuous
100
AcDbPolyline
 90
        2
 70
   128
 43
0.0
 10
500.8100975006089
 20
150.8417966557416
 10
126.7557434877036
 20
-65.11858626888211
  0
LWPOLYLINE
  5
EC
330
1F
100
AcDbEntity
  8
0_Pen_No__1
  6
Continuous
100
AcDbPolyline
 90
        2
 70
   128
 43
0.0
 10
556.4561325307611
 20
241.8387287730604
 10
549.0955955067387
 20
216.225483490456
  0
LWPOLYLINE
  5
ED
330
1F
100
AcDbEntity
  8
0_Pen_No__1
  6
Continuous
100
AcDbPolyline
 90
        2
 70
   128
 43
0.0
 10
120.6935656877044
 20
294.5164539417782
 10
130.6910600029951
 20
300.2885100011566
  0
LWPOLYLINE
  5
EE
330
1F
100
AcDbEntity
  8
0_Pen_No__1
  6
Continuous
100
AcDbPolyline
 90
        2
 70
   128
 43
0.0
 10
549.0955955067387
 20
216.225483490456
 10
530.8193202423075
 20
184.3893910943504
  0
LWPOLYLINE
  5
EF
330
1F
100
AcDbEntity
  8
0_Pen_No__1
  6
Continuous
100
AcDbPolyline
 90
        2
 70
   128
 43
0.0
 10
126.755743487704
 20
291.0164539417775
 10
134.3923824682358
 20
295.4254695321591
  0
LWPOLYLINE
  5
F0
330
1F
100
AcDbEntity
  8
0_Pen_No__1
  6
Continuous
100
AcDbPolyline
 90
        2
 70
   128
 43
0.0
 10
395.5805501642158
 20
738.9792770680334
 10
473.5228364196611
 20
693.979276920543
  0
LWPOLYLINE
  5
F1
330
1F
100
AcDbEntity
  8
0_Pen_No__1
  6
Continuous
100
AcDbPolyline
 90
        2
 70
   128
 43
0.0
 10
360.9395340506825
 20
678.9792768713847
 10
360.9395340506825
 20
718.979277002485
  0
LWPOLYLINE
  5
F2
330
1F
100
AcDbEntity
  8
0_Pen_No__1
  6
Continuous
100
AcDbPolyline
 90
        2
 70
   128
 43
0.0
 10
430.2215662777491
 20
758.9792771335815
 10
473.5228364196611
 20
693.979276920543
  0
LWPOLYLINE
  5
F3
330
1F
100
AcDbEntity
  8
0_Pen_No__1
  6
Continuous
100
AcDbPolyline
 90
        2
 70
   128
 43
0.0
 10
395.5805501642158
 20
738.9792770680334
 10
508.1638525331949
 20
713.9792769860911
  0
LWPOLYLINE
  5
F4
330
1F
100
AcDbEntity
  8
0_Pen_No__1
  6
Continuous
100
AcDbPolyline
 90
        2
 70
   128
 43
0.0
 10
395.5805501642158
 20
738.9792770680334
 10
438.8818203061282
 20
673.9792768549949
  0
LWPOLYLINE
  5
F5
330
1F
100
AcDbEntity
  8
0_Pen_No__1
  6
Continuous
100
AcDbPolyline
 90
        2
 70
   128
 43
0.0
 10
360.9395340506825
 20
718.9792770024854
 10
473.5228364196611
 20
693.979276920543
  0
LWPOLYLINE
  5
F6
330
1F
100
AcDbEntity
  8
0_Pen_No__1
  6
Continuous
100
AcDbPolyline
 90
        2
 70
   128
 43
0.0
 10
463.7949669244468
 20
464.1559609029379
 10
486.3324180525983
 20
477.1679644114779
  0
LWPOLYLINE
  5
F7
330
1F
100
AcDbEntity
  8
0_Pen_No__1
  6
Continuous
100
AcDbPolyline
 90
        2
 70
   128
 43
0.0
 10
-30.45090243158599
 20
17.58083679277323
 10
144.5794543343943
 20
-83.47298724403652
  0
LWPOLYLINE
  5
F8
330
1F
100
AcDbEntity
  8
0_Pen_No__1
  6
Continuous
100
AcDbPolyline
 90
        2
 70
   128
 43
0.0
 10
0.0
 20
289.8339913781736
 10
0.0
 20
0.000000000000222
  0
LWPOLYLINE
  5
F9
330
1F
100
AcDbEntity
  8
0_Pen_No__1
  6
Continuous
100
AcDbPolyline
 90
        2
 70
   128
 43
0.0
 10
77.94228625544531
 20
244.8339912306827
 10
77.94228625544531
 20
-45.0000001474904
  0
LWPOLYLINE
  5
FA
330
1F
100
AcDbEntity
  8
0_Pen_No__1
  6
Continuous
100
AcDbPolyline
 90
        2
 70
   128
 43
0.0
 10
0.0
 20
289.8339913781736
 10
77.94228625544531
 20
284.8339911433868
  0
LWPOLYLINE
  5
FB
330
1F
100
AcDbEntity
  8
0_Pen_No__1
  6
Continuous
100
AcDbPolyline
 90
        2
 70
   128
 43
0.0
 10
114.4834261953314
 20
-66.09703722047522
 10
121.4669482182513
 20
-62.06509888303135
  0
LWPOLYLINE
  5
FC
330
1F
100
AcDbEntity
  8
0_Pen_No__1
  6
Continuous
100
AcDbPolyline
 90
        2
 70
   128
 43
0.0
 10
0.0
 20
329.8339913781736
 10
77.94228625544531
 20
244.8339912306827
  0
LWPOLYLINE
  5
FD
330
1F
100
AcDbEntity
  8
0_Pen_No__1
  6
Continuous
100
AcDbPolyline
 90
        2
 70
   128
 43
0.0
 10
77.94228625544531
 20
244.8339912306827
 10
89.33220232303984
 20
251.4099623670918
  0
LWPOLYLINE
  5
FE
330
1F
100
AcDbEntity
  8
0_Pen_No__1
  6
Continuous
100
AcDbPolyline
 90
        2
 70
   128
 43
0.0
 10
530.8193202423075
 20
184.3893910943504
 10
500.8100975006084
 20
150.8417966557411
  0
LWPOLYLINE
  5
FF
330
1F
100
AcDbEntity
  8
0_Pen_No__1
  6
Continuous
100
AcDbPolyline
 90
        2
 70
   128
 43
0.0
 10
108.8760743258277
 20
197.4018279083711
 10
108.5715040296429
 20
197.9293591335347
  0
LWPOLYLINE
  5
100
330
1F
100
AcDbEntity
  8
0_Pen_No__1
  6
Continuous
100
AcDbPolyline
 90
        2
 70
   128
 43
0.0
 10
116.7193747926858
 20
307.2219537112419
 10
77.94228625544531
 20
284.8339911433868
  0
LWPOLYLINE
  5
102
330
1F
100
AcDbEntity
  8
0_Pen_No__1
  6
AStair_dashed
100
AcDbPolyline
 90
        2
 70
   128
 43
0.0
 10
120.1757672614137
 20
230.3857898924591
 10
521.015393851382
 20
461.8106572173475
  0
LWPOLYLINE
  5
103
330
1F
100
AcDbEntity
  8
0_Pen_No__1
  6
Continuous
100
AcDbPolyline
 90
        2
 70
   128
 43
0.0
 10
134.3923824682358
 20
298.1515504701535
 10
455.7754252604304
 20
483.4690018924784
  0
LWPOLYLINE
  5
104
330
1F
100
AcDbEntity
  8
0_Pen_No__1
  6
Continuous
100
AcDbPolyline
 90
        2
 70
   128
 43
0.0
 10
72.48886947580945
 20
333.8915605163015
 10
393.6700108453349
 20
519.3255797798635
  0
LWPOLYLINE
  5
105
330
1F
100
AcDbEntity
  8
0_Pen_No__1
  6
Continuous
100
AcDbPolyline
 90
        2
 70
   128
 43
0.0
 10
184.2351219507576
 20
433.5899882054381
 10
203.9849041029947
 20
422.1874461135774
  0
LWPOLYLINE
  5
106
330
1F
100
AcDbEntity
  8
0_Pen_No__1
  6
Continuous
100
AcDbPolyline
 90
        2
 70
   128
 43
0.0
 10
268.9056364084133
 20
467.3223313528279
 10
206.0175672124274
 20
431.0138875150462
  0
LWPOLYLINE
  5
107
330
1F
100
AcDbEntity
  8
0_Pen_No__1
  6
Continuous
100
AcDbPolyline
 90
        2
 70
   128
 43
0.0
 10
184.2351219507576
 20
443.5899882054381
 10
206.0175672124274
 20
431.0138875150462
  0
LWPOLYLINE
  5
108
330
1F
100
AcDbEntity
  8
0_Pen_No__1
  6
Continuous
100
AcDbPolyline
 90
        2
 70
   128
 43
0.0
 10
184.2351219507576
 20
433.5899882054381
 10
184.2351219507576
 20
443.5899882054381
  0
LWPOLYLINE
  5
109
330
1F
100
AcDbEntity
  8
0_Pen_No__1
  6
Continuous
100
AcDbPolyline
 90
        2
 70
   128
 43
0.0
 10
184.2351219507576
 20
443.5899882054381
 10
247.1231911467435
 20
479.8984320432198
  0
LWPOLYLINE
  5
10A
330
1F
100
AcDbEntity
  8
0_Pen_No__1
  6
Continuous
100
AcDbPolyline
 90
        2
 70
   128
 43
0.0
 10
247.1231911467435
 20
479.8984320432198
 10
268.9056364084133
 20
467.3223313528279
  0
LWPOLYLINE
  5
10B
330
1F
100
AcDbEntity
  8
0_Pen_No__1
  6
Continuous
100
AcDbPolyline
 90
        2
 70
   128
 43
0.0
 10
268.9056364084133
 20
459.6694485549256
 10
268.9056364084133
 20
467.3223313528279
  0
LWPOLYLINE
  5
10C
330
1F
100
AcDbEntity
  8
0_Pen_No__1
  6
Continuous
100
AcDbPolyline
 90
        2
 70
   128
 43
0.0
 10
206.0175672124274
 20
423.3610047122662
 10
206.0175672124274
 20
431.0138875150462
  0
LWPOLYLINE
  5
10D
330
1F
100
AcDbEntity
  8
0_Pen_No__1
  6
Continuous
100
AcDbPolyline
 90
        2
 70
   128
 43
0.0
 10
411.1708290630593
 20
606.0094101960416
 10
438.8818203061282
 20
592.1990650925835
  0
LWPOLYLINE
  5
10E
330
1F
100
AcDbEntity
  8
0_Pen_No__1
  6
Continuous
100
AcDbPolyline
 90
        2
 70
   128
 43
0.0
 10
411.1708290630589
 20
571.6017577176626
 10
411.1708290630589
 20
615.7233765637819
  0
LWPOLYLINE
  5
10F
330
1F
100
AcDbEntity
  8
0_Pen_No__1
  6
Continuous
100
AcDbPolyline
 90
        2
 70
   128
 43
0.0
 10
411.1708290630589
 20
615.7233765637819
 10
383.5024372798066
 20
631.6977300776961
  0
LWPOLYLINE
  5
110
330
1F
100
AcDbEntity
  8
0_Pen_No__1
  6
Continuous
100
AcDbPolyline
 90
        2
 70
   128
 43
0.0
 10
374.842183251423
 20
582.5761112151897
 10
402.5105750346754
 20
566.6017577012757
  0
LWPOLYLINE
  5
111
330
1F
100
AcDbEntity
  8
0_Pen_No__1
  6
Continuous
100
AcDbPolyline
 90
        2
 70
   128
 43
0.0
 10
402.5105750346754
 20
566.6017577012757
 10
402.5105750346754
 20
610.723376547395
  0
LWPOLYLINE
  5
112
330
1F
100
AcDbEntity
  8
0_Pen_No__1
  6
Continuous
100
AcDbPolyline
 90
        2
 70
   128
 43
0.0
 10
402.5105750346754
 20
610.723376547395
 10
374.842183251423
 20
626.6977300613088
  0
LWPOLYLINE
  5
113
330
1F
100
AcDbEntity
  8
0_Pen_No__1
  6
Continuous
100
AcDbPolyline
 90
        2
 70
   128
 43
0.0
 10
374.842183251423
 20
626.6977300613088
 10
374.842183251423
 20
582.5761112151897
  0
LWPOLYLINE
  5
114
330
1F
100
AcDbEntity
  8
0_Pen_No__1
  6
Continuous
100
AcDbPolyline
 90
        2
 70
   128
 43
0.0
 10
411.1708290630589
 20
615.7233765637819
 10
402.5105750346754
 20
610.723376547395
  0
LWPOLYLINE
  5
115
330
1F
100
AcDbEntity
  8
0_Pen_No__1
  6
Continuous
100
AcDbPolyline
 90
        2
 70
   128
 43
0.0
 10
383.5024372798066
 20
631.6977300776961
 10
374.842183251423
 20
626.6977300613088
  0
LWPOLYLINE
  5
116
330
1F
100
AcDbEntity
  8
0_Pen_No__1
  6
Continuous
100
AcDbPolyline
 90
        2
 70
   128
 43
0.0
 10
411.1708290630589
 20
571.6017577176626
 10
402.5105750346754
 20
566.6017577012757
  0
LWPOLYLINE
  5
117
330
1F
100
AcDbEntity
  8
0_Pen_No__1
  6
Continuous
100
AcDbPolyline
 90
        2
 70
   128
 43
0.0
 10
508.1638525331949
 20
688.9094235721155
 10
508.1638525331949
 20
713.9792769860911
  0
LWPOLYLINE
  5
118
330
1F
100
AcDbEntity
  8
0_Pen_No__1
  6
Continuous
100
AcDbPolyline
 90
        2
 70
   128
 43
0.0
 10
360.9395340506825
 20
538.222529434144
 10
360.9395340506825
 20
631.0432140405013
  0
LWPOLYLINE
  5
119
330
1F
100
AcDbEntity
  8
0_Pen_No__1
  6
Continuous
100
AcDbPolyline
 90
        2
 70
   128
 43
0.0
 10
360.9395340506825
 20
538.222529434144
 10
253.5212128260964
 20
476.2045324882209
  0
LWPOLYLINE
  5
11A
330
1F
100
AcDbEntity
  8
0_Pen_No__1
  6
Continuous
100
AcDbPolyline
 90
        2
 70
   128
 43
0.0
 10
184.2351219507576
 20
436.2021890954424
 10
0.0
 20
329.8339913781736
  0
LWPOLYLINE
  5
11B
330
1F
100
AcDbEntity
  8
0_Pen_No__1
  6
Continuous
100
AcDbPolyline
 90
        2
 70
   128
 43
0.0
 10
26.18293295171625
 20
344.9507148320787
 10
91.85469274983448
 20
307.035106468784
  0
LWPOLYLINE
  5
11C
330
1F
100
AcDbEntity
  8
0_Pen_No__1
  6
Continuous
100
AcDbPolyline
 90
        2
 70
   128
 43
0.0
 10
104.1252192071624
 20
295.2408830072097
 10
104.1252192071624
 20
221.1190016122013
  0
LWPOLYLINE
  5
11D
330
1F
100
AcDbEntity
  8
0_Pen_No__1
  6
Continuous
100
AcDbPolyline
 90
        2
 70
   128
 43
0.0
 10
104.1252192071624
 20
221.1190016122015
 10
120.6935656877031
 20
230.6847409545698
  0
LWPOLYLINE
  5
11E
330
1F
100
AcDbEntity
  8
0_Pen_No__1
  6
Continuous
100
AcDbPolyline
 90
        2
 70
   128
 43
0.0
 10
0.0
 20
289.8339913781736
 10
77.94228625544531
 20
244.8339912306827
  0
LWPOLYLINE
  5
11F
330
1F
100
AcDbEntity
  8
0_Pen_No__1
  6
Continuous
100
AcDbPolyline
 90
        2
 70
   128
 43
0.0
 10
0.0
 20
329.8339913781736
 10
0.0
 20
289.8339913781736
  0
LWPOLYLINE
  5
120
330
1F
100
AcDbEntity
  8
0_Pen_No__1
  6
Continuous
100
AcDbPolyline
 90
        2
 70
   128
 43
0.0
 10
0.0
 20
329.8339913781736
 10
77.94228625544531
 20
284.8339911433868
  0
LWPOLYLINE
  5
121
330
1F
100
AcDbEntity
  8
0_Pen_No__1
  6
Continuous
100
AcDbPolyline
 90
        2
 70
   128
 43
0.0
 10
26.18293295171625
 20
344.9507148320787
 10
104.1252192071616
 20
299.9507145972919
  0
LWPOLYLINE
  5
122
330
1F
100
AcDbEntity
  8
0_Pen_No__1
  6
Continuous
100
AcDbPolyline
 90
        2
 70
   128
 43
0.0
 10
77.94228625544531
 20
284.8339911433868
 10
77.94228625544531
 20
244.8339912306827
  0
LWPOLYLINE
  5
123
330
1F
100
AcDbEntity
  8
0_Pen_No__1
  6
Continuous
100
AcDbPolyline
 90
        2
 70
   128
 43
0.0
 10
360.9395340506825
 20
718.9792770024854
 10
395.5805501642158
 20
738.9792770680334
  0
LWPOLYLINE
  5
124
330
1F
100
AcDbEntity
  8
0_Pen_No__1
  6
Continuous
100
AcDbPolyline
 90
        2
 70
   128
 43
0.0
 10
430.2215662777491
 20
758.9792771335815
 10
395.5805501642158
 20
738.9792770680334
  0
LWPOLYLINE
  5
125
330
1F
100
AcDbEntity
  8
0_Pen_No__1
  6
Continuous
100
AcDbPolyline
 90
        2
 70
   128
 43
0.0
 10
430.2215662777491
 20
758.9792771335815
 10
508.1638525331949
 20
713.9792769860911
  0
LWPOLYLINE
  5
126
330
1F
100
AcDbEntity
  8
0_Pen_No__1
  6
Continuous
100
AcDbPolyline
 90
        2
 70
   128
 43
0.0
 10
473.5228364196611
 20
693.979276920543
 10
508.1638525331949
 20
713.9792769860911
  0
LWPOLYLINE
  5
127
330
1F
100
AcDbEntity
  8
0_Pen_No__1
  6
Continuous
100
AcDbPolyline
 90
        2
 70
   128
 43
0.0
 10
438.8818203061282
 20
673.9792768549949
 10
473.5228364196611
 20
693.979276920543
  0
LWPOLYLINE
  5
128
330
1F
100
AcDbEntity
  8
0_Pen_No__1
  6
Continuous
100
AcDbPolyline
 90
        2
 70
   128
 43
0.0
 10
360.9395340506825
 20
718.9792770024854
 10
438.8818203061282
 20
673.9792768549949
  0
LWPOLYLINE
  5
129
330
1F
100
AcDbEntity
  8
0_Pen_No__1
  6
Continuous
100
AcDbPolyline
 90
        2
 70
   128
 43
0.0
 10
360.9395340506825
 20
631.0432140405013
 10
374.842183251423
 20
624.1145415281977
  0
LWPOLYLINE
  5
12A
330
1F
100
AcDbEntity
  8
0_Pen_No__1
  6
Continuous
100
AcDbPolyline
 90
        2
 70
   128
 43
0.0
 10
485.4456019953992
 20
696.3031572195488
 10
485.4456019953992
 20
686.1312447755847
  0
LWPOLYLINE
  5
12B
330
1F
100
AcDbEntity
  8
0_Pen_No__1
  6
Continuous
100
AcDbPolyline
 90
        2
 70
   128
 43
0.0
 10
108.1406724469787
 20
293.4917790130703
 10
108.1406724469787
 20
269.9504298261351
  0
LWPOLYLINE
  5
12C
330
1F
100
AcDbEntity
  8
0_Pen_No__1
  6
Continuous
100
AcDbPolyline
 90
        2
 70
   128
 43
0.0
 10
116.2032179197352
 20
265.2955170067431
 10
116.2032179197352
 20
288.8368661936782
  0
LWPOLYLINE
  5
12D
330
1F
100
AcDbEntity
  8
0_Pen_No__1
  6
Continuous
100
AcDbPolyline
 90
        2
 70
   128
 43
0.0
 10
108.1406724469787
 20
293.4917790130703
 10
116.2032179197352
 20
288.8368661936782
  0
LWPOLYLINE
  5
12E
330
1F
100
AcDbEntity
  8
0_Pen_No__1
  6
Continuous
100
AcDbPolyline
 90
        2
 70
   128
 43
0.0
 10
108.1406724469787
 20
269.9504298261351
 10
116.2032179197352
 20
265.2955170067431
  0
LWPOLYLINE
  5
12F
330
1F
100
AcDbEntity
  8
0_Pen_No__1
  6
Continuous
100
AcDbPolyline
 90
        2
 70
   128
 43
0.0
 10
108.1406724469787
 20
293.4917790130703
 10
116.2032179197352
 20
265.2955170067431
  0
LWPOLYLINE
  5
130
330
1F
100
AcDbEntity
  8
0_Pen_No__1
  6
Continuous
100
AcDbPolyline
 90
        2
 70
   128
 43
0.0
 10
108.1406724469787
 20
293.4917790130703
 10
125.3020078976375
 20
303.3998806984587
  0
LWPOLYLINE
  5
131
330
1F
100
AcDbEntity
  8
0_Pen_No__1
  6
Continuous
100
AcDbPolyline
 90
        2
 70
   128
 43
0.0
 10
116.2032179197352
 20
265.2955170067431
 10
120.6935656877031
 20
267.8880205106634
  0
LWPOLYLINE
  5
132
330
1F
100
AcDbEntity
  8
0_Pen_No__1
  6
Continuous
100
AcDbPolyline
 90
        2
 70
   128
 43
0.0
 10
116.2032179197352
 20
288.8368661936782
 10
120.6935656877039
 20
291.429369697599
  0
LWPOLYLINE
  5
133
330
1F
100
AcDbEntity
  8
0_Pen_No__1
  6
Continuous
100
AcDbPolyline
 90
        2
 70
   128
 43
0.0
 10
116.0595638476027
 20
99.20482580461965
 10
119.1573420653307
 20
100.9933289003304
  0
LWPOLYLINE
  5
134
330
1F
100
AcDbEntity
  8
0_Pen_No__1
  6
Continuous
100
AcDbPolyline
 90
        2
 70
   128
 43
0.0
 10
118.68988530306
 20
97.68620899762249
 10
120.6935656876986
 20
98.84303441211895
  0
LWPOLYLINE
  5
135
330
1F
100
AcDbEntity
  8
0_Pen_No__1
  6
Continuous
100
AcDbPolyline
 90
        2
 70
   128
 43
0.0
 10
393.6700108453349
 20
519.3255797798635
 10
393.6700108453349
 20
531.7021940458089
  0
LWPOLYLINE
  5
136
330
1F
100
AcDbEntity
  8
0_Pen_No__1
  6
Continuous
100
AcDbPolyline
 90
        2
 70
   128
 43
0.0
 10
458.7733596087973
 20
666.3082762787159
 10
498.0858095668435
 20
689.0053299436803
  0
LWPOLYLINE
  5
137
330
1F
100
AcDbEntity
  8
0_Pen_No__1
  6
Continuous
100
AcDbPolyline
 90
        2
 70
   128
 43
0.0
 10
494.2547365384535
 20
691.2172009975696
 10
564.2677594176997
 20
689.8540490859212
  0
LWPOLYLINE
  5
138
330
1F
100
AcDbEntity
  8
0_Pen_No__1
  6
Continuous
100
AcDbPolyline
 90
        2
 70
   128
 43
0.0
 10
438.8818203061282
 20
655.6545845606552
 10
442.1443318534824
 20
657.6529599113175
  0
LWPOLYLINE
  5
139
330
1F
100
AcDbEntity
  8
0_Pen_No__1
  6
Continuous
100
AcDbPolyline
 90
        2
 70
   128
 43
0.0
 10
454.9422865627258
 20
668.5201473223968
 10
494.2547365384535
 20
691.2172009975696
  0
LWPOLYLINE
  5
13A
330
1F
100
AcDbEntity
  8
0_Pen_No__1
  6
Continuous
100
AcDbPolyline
 90
        2
 70
   128
 43
0.0
 10
438.8818203061282
 20
500.5991435689972
 10
438.8818203061282
 20
673.9792768549949
  0
LWPOLYLINE
  5
13B
330
1F
100
AcDbEntity
  8
0_Pen_No__1
  6
Continuous
100
AcDbPolyline
 90
        2
 70
   128
 43
0.0
 10
455.5807109100542
 20
427.2483328716832
 10
460.0944588542995
 20
431.6935247271365
  0
LWPOLYLINE
  5
13C
330
1F
100
AcDbEntity
  8
0_Pen_No__1
  6
Continuous
100
AcDbPolyline
 90
        2
 70
   128
 43
0.0
 10
460.0944588542995
 20
431.6935247271365
 10
455.7754252604304
 20
437.863572718378
  0
LWPOLYLINE
  5
13D
330
1F
100
AcDbEntity
  8
0_Pen_No__1
  6
Continuous
100
AcDbPolyline
 90
        2
 70
   128
 43
0.0
 10
455.7754252604304
 20
437.863572718378
 10
455.7754252604304
 20
490.8456161584239
  0
LWPOLYLINE
  5
13E
330
1F
100
AcDbEntity
  8
0_Pen_No__1
  6
Continuous
100
AcDbPolyline
 90
        2
 70
   128
 43
0.0
 10
134.3923824682358
 20
252.4741050235297
 10
455.7754252604304
 20
438.0246921283289
  0
LWPOLYLINE
  5
13F
330
1F
100
AcDbEntity
  8
0_Pen_No__1
  6
Continuous
100
AcDbPolyline
 90
        2
 70
   128
 43
0.0
 10
138.7114160621046
 20
246.3040570322883
 10
460.0141369703862
 20
431.8082702755854
  0
LWPOLYLINE
  5
140
330
1F
100
AcDbEntity
  8
0_Pen_No__1
  6
Continuous
100
AcDbPolyline
 90
        2
 70
   128
 43
0.0
 10
134.1976681178596
 20
241.858865176835
 10
455.9761333788107
 20
427.6377495514121
  0
LWPOLYLINE
  5
141
330
1F
100
AcDbEntity
  8
0_Pen_No__1
  6
Continuous
100
AcDbPolyline
 90
        2
 70
   128
 43
0.0
 10
486.3324180525983
 20
671.346600784312
 10
486.3324180525983
 20
477.1679644114779
  0
LWPOLYLINE
  5
142
330
1F
100
AcDbEntity
  8
0_Pen_No__1
  6
AStair_dashed
100
AcDbPolyline
 90
        2
 70
   128
 43
0.0
 10
438.8818203061282
 20
592.1990650925835
 10
521.015393851382
 20
639.6189060956607
  0
LWPOLYLINE
  5
143
330
1F
100
AcDbEntity
  8
0_Pen_No__1
  6
Continuous
100
AcDbPolyline
 90
        2
 70
   128
 43
0.0
 10
442.1443318534824
 20
671.3031571376142
 10
463.7949669244468
 20
658.8031570966573
  0
LWPOLYLINE
  5
144
330
1F
100
AcDbEntity
  8
0_Pen_No__1
  6
Continuous
100
AcDbPolyline
 90
        2
 70
   128
 43
0.0
 10
442.1443318534824
 20
671.3031571376142
 10
485.4456019953992
 20
696.3031572195488
  0
LWPOLYLINE
  5
145
330
1F
100
AcDbEntity
  8
0_Pen_No__1
  6
Continuous
100
AcDbPolyline
 90
        2
 70
   128
 43
0.0
 10
463.7949669244468
 20
658.8031570966573
 10
463.7949669244468
 20
464.1559609029379
  0
LWPOLYLINE
  5
146
330
1F
100
AcDbEntity
  8
0_Pen_No__1
  6
Continuous
100
AcDbPolyline
 90
        2
 70
   128
 43
0.0
 10
463.7949669244468
 20
658.8031570966573
 10
485.4456019954054
 20
671.3031571376242
  0
LWPOLYLINE
  5
147
330
1F
100
AcDbEntity
  8
0_Pen_No__1
  6
Continuous
100
AcDbPolyline
 90
        2
 70
   128
 43
0.0
 10
442.1443318534824
 20
671.3031571376142
 10
442.1443318534824
 20
498.7155316406664
  0
LWPOLYLINE
  5
148
330
1F
100
AcDbEntity
  8
0_Pen_No__1
  6
Continuous
100
AcDbPolyline
 90
        3
 70
   128
 43
0.0
 10
604.979064341969
 20
476.3636823710371
 10
602.5419669119285
 20
550.4514442442745
 10
601.8858968231382
 20
573.9229129015857
  0
LWPOLYLINE
  5
149
330
1F
100
AcDbEntity
  8
0_Pen_No__1
  6
Continuous
100
AcDbPolyline
 90
        2
 70
   128
 43
0.0
 10
590.0757417128964
 20
597.1043166397175
 10
604.2077446295892
 20
605.2634323635131
  0
LWPOLYLINE
  5
14A
330
1F
100
AcDbEntity
  8
0_Pen_No__1
  6
Continuous
100
AcDbPolyline
 90
        3
 70
   128
 43
0.0
 10
556.4561325307611
 20
241.8387287730604
 10
558.0413275156983
 20
274.7575537240307
 10
558.1583044669853
 20
283.2968711680053
  0
LWPOLYLINE
  5
14B
330
1F
100
AcDbEntity
  8
0_Pen_No__1
  6
AStair_dashed
100
AcDbPolyline
 90
        3
 70
   128
 43
0.0
 10
521.015393851382
 20
639.6189060956607
 10
521.015393851382
 20
572.5085636935556
 10
521.015393851382
 20
461.8106572173475
  0
LWPOLYLINE
  5
14C
330
1F
100
AcDbEntity
  8
0_Pen_No__1
  6
Continuous
100
AcDbPolyline
 90
        5
 70
   128
 43
0.0
 10
559.376324194663
 20
319.3799995941608
 10
561.4532639177554
 20
341.5340233071466
 10
572.6639120959431
 20
374.1911288696924
 10
601.4216617704244
 20
431.7066282186537
 10
602.6572165355184
 20
445.0231629091102
  0
LWPOLYLINE
  5
14D
330
1F
100
AcDbEntity
  8
0_Pen_No__1
  6
Continuous
100
AcDbPolyline
 90
        5
 70
   128
 43
0.0
 10
605.7169184342783
 20
606.1347542697122
 10
605.7169184342783
 20
627.3502477651951
 10
607.309155421905
 20
668.7484094434875
 10
585.8139560889452
 20
686.2630163073804
 10
564.2677594176995
 20
689.8540490859212
  0
LWPOLYLINE
  5
14E
330
1F
100
AcDbEntity
  8
0_Pen_No__1
  6
Continuous
100
AcDbPolyline
 90
        2
 70
   128
 43
0.0
 10
590.8470614252761
 20
468.2045666472414
 10
604.979064341969
 20
476.3636823710371
  0
LWPOLYLINE
  5
14F
330
1F
100
AcDbEntity
  8
0_Pen_No__1
  6
Continuous
100
AcDbPolyline
 90
        2
 70
   128
 43
0.0
 10
545.24432127797
 20
311.2208838703652
 10
559.376324194663
 20
319.3799995941608
  0
LWPOLYLINE
  5
150
330
1F
100
AcDbEntity
  8
0_Pen_No__1
  6
Continuous
100
AcDbPolyline
 90
        2
 70
   128
 43
0.0
 10
393.6700108453349
 20
519.3255797798635
 10
455.7754252604304
 20
483.4690018924784
  0
LWPOLYLINE
  5
151
330
1F
100
AcDbEntity
  8
0_Pen_No__1
  6
Continuous
100
AcDbPolyline
 90
        2
 70
   128
 43
0.0
 10
393.6700108453349
 20
531.7021940458089
 10
72.4888694758099
 20
346.2681747822468
  0
LWPOLYLINE
  5
152
330
1F
100
AcDbEntity
  8
0_Pen_No__1
  6
Continuous
100
AcDbPolyline
 90
        2
 70
   128
 43
0.0
 10
393.6700108453349
 20
531.7021940458089
 10
455.7754252604304
 20
490.8456161584239
  0
LWPOLYLINE
  5
153
330
1F
100
AcDbEntity
  8
0_Pen_No__1
  6
Continuous
100
AcDbPolyline
 90
        2
 70
   128
 43
0.0
 10
458.7733596087973
 20
666.3082762787159
 10
454.9422865627258
 20
668.5201473223968
  0
LWPOLYLINE
  5
154
330
1F
100
AcDbEntity
  8
0_Pen_No__1
  6
Continuous
100
AcDbPolyline
 90
        2
 70
   128
 43
0.0
 10
458.7733596087973
 20
666.3082762787159
 10
458.7733596087973
 20
661.7023834447781
  0
LWPOLYLINE
  5
155
330
1F
100
AcDbEntity
  8
0_Pen_No__1
  6
Continuous
100
AcDbPolyline
 90
        2
 70
   128
 43
0.0
 10
454.9422865627258
 20
668.5201473223968
 10
454.9422865627258
 20
664.0053298617456
  0
LWPOLYLINE
  5
156
330
1F
100
AcDbEntity
  8
0_Pen_No__1
  6
Continuous
100
AcDbPolyline
 90
        2
 70
   128
 43
0.0
 10
360.9395340506825
 20
538.222529434144
 10
382.9515485701438
 20
525.513886938055
  0
LWPOLYLINE
  5
157
330
1F
100
AcDbEntity
  8
0_Pen_No__1
  6
Continuous
100
AcDbPolyline
 90
        2
 70
   128
 43
0.0
 10
463.7949669244468
 20
464.1559609029379
 10
455.7754252604304
 20
468.7860453769096
  0
LWPOLYLINE
  5
158
330
1F
100
AcDbEntity
  8
0_Pen_No__1
  6
Continuous
100
AcDbPolyline
 90
        2
 70
   128
 43
0.0
 10
44.75043095380715
 20
646.7014194848247
 10
95.53588677823655
 20
676.0224162080449
  0
LWPOLYLINE
  5
159
330
1F
100
AcDbEntity
  8
0_Pen_No__1
  6
Continuous
100
AcDbPolyline
 90
        2
 70
   128
 43
0.0
 10
95.53588677823655
 20
676.0224162080449
 10
95.53588677823655
 20
700.775644739936
  0
LWPOLYLINE
  5
15A
330
1F
100
AcDbEntity
  8
0_Pen_No__1
  6
Continuous
100
AcDbPolyline
 90
        2
 70
   128
 43
0.0
 10
95.53588677823655
 20
676.0224162080449
 10
140.7240621026813
 20
649.9330109062756
  0
LWPOLYLINE
  5
15B
330
1F
100
AcDbEntity
  8
0_Pen_No__1
  6
Continuous
100
AcDbPolyline
 90
        2
 70
   128
 43
0.0
 10
95.53588677823655
 20
700.775644739936
 10
44.75043095380723
 20
671.4546480167156
  0
LWPOLYLINE
  5
15C
330
1F
100
AcDbEntity
  8
0_Pen_No__1
  6
Continuous
100
AcDbPolyline
 90
        2
 70
   128
 43
0.0
 10
95.53588677823655
 20
700.775644739936
 10
140.7240621026814
 20
671.0482172343037
  0
LWPOLYLINE
  5
15D
330
1F
100
AcDbEntity
  8
0_Pen_No__1
  6
Continuous
100
AcDbPolyline
 90
        2
 70
   128
 43
0.0
 10
140.7240621026813
 20
688.9286313818096
 10
140.7240621026813
 20
640.0693282514737
  0
LWPOLYLINE
  5
15E
330
1F
100
AcDbEntity
  8
0_Pen_No__1
  6
Continuous
100
AcDbPolyline
 90
        2
 70
   128
 43
0.0
 10
44.75043095380721
 20
686.0203395288135
 10
44.75043095380721
 20
633.0894278042829
  0
LWPOLYLINE
  5
160
330
1F
100
AcDbEntity
  8
0_Pen_No__1
  6
Contour Line
100
AcDbPolyline
 90
        4
 70
   128
 43
0.0
 10
95.53588677823655
 20
700.775644739936
 10
76.2173702524552
 20
695.5992638378855
 10
76.2173702524552
 20
670.8460353059945
 10
95.53588677823655
 20
676.0224162080449
  0
CIRCLE
  5
161
330
1F
100
AcDbEntity
  8
0_Pen_No__1
  6
Contour Line
100
AcDbCircle
 10
393.6700108453349
 20
523.9238773089021
 30
0.0
 40
29.90961453905997
  0
INSERT
  5
168
330
1F
100
AcDbEntity
  8
0
  6
Continuous
100
AcDbBlockReference
  2
Arc_1
 10
201.4893877839774
 20
425.3400201256369
 30
0.0
  0
WIPEOUT
  5
16A
330
1F
100
AcDbEntity
  8
Key_ Sections_Pen_No__1
  6
Wipeout_Contour
 48
4246.482379065808
 92
      296
310
28010000060000000C0000000E000000120000000C00000016000000000000C20C00000014000000010000006C000000070000000400000020CC690F7A718540A1C80ADBB14E874000000000000000004928F9D16FA28B40A1C80ADBB14E874000000000000000004928F9D16FA28B40F7D6378D4F1E854000000000000000
310
0020CC690F7A718540F7D6378D4F1E854000000000000000000C0000000E0000000700000084000000060000000500000020CC690F7A718540A1C80ADBB14E874000000000000000004928F9D16FA28B40A1C80ADBB14E874000000000000000004928F9D16FA28B40F7D6378D4F1E8540000000000000000020CC690F7A71
310
8540F7D6378D4F1E8540000000000000000020CC690F7A718540A1C80ADBB14E87400000000000000000
100
AcDbWipeout
 90
        0
 10
686.1845997109813
 20
675.7888435709455
 30
0.0
 11
198.12
 21
0.0
 31
0.0
 12
0.0
 22
70.048
 32
0.0
 13
1.0
 23
1.0
340
0
 70
    15
280
     1
281
    50
282
    50
283
     0
360
0
 71
     2
 91
        5
 14
-0.4999999999999997
 24
-0.5
 14
0.5000000000000003
 24
-0.5
 14
0.5000000000000003
 24
0.5
 14
-0.4999999999999997
 24
0.5
 14
-0.4999999999999997
 24
-0.5
  0
MTEXT
  5
16D
102
{ACAD_REACTORS
330
16E
102
}
330
1F
100
AcDbEntity
  8
Key_ Sections_Pen_No__1
  6
Continuous
100
AcDbMText
 10
691.1845997109813
 20
709.9139577646539
 30
0.0
 40
12.5
 41
188.12
 71
     4
 72
     1
  1
{Absorbent breather type \Pbuilding underlay turned \Pinto opening over frame}
  7
GENERATED_STYLE_1
 73
     1
 44
0.9544562503071141
  0
LEADER
  5
16E
330
1F
100
AcDbEntity
  8
Key_ Sections_Pen_No__1
  6
Continuous
100
AcDbLeader
  3
GENERATED_STYLE__1
 72
     1
 73
     0
 74
     0
 40
56.14401042946309
 41
186.475
 76
     3
 10
615.1974697787721
 20
692.9224157549085
 30
0.0
 10
647.3790504392197
 20
706.0734024622732
 30
0.0
 10
691.0945997109812
 20
709.9139577646539
 30
0.0
340
16D
  0
WIPEOUT
  5
175
330
1F
100
AcDbEntity
  8
Key_ Sections_Pen_No__1
  6
Wipeout_Contour
 48
3991.3061820484
 92
      296
310
28010000060000000C0000000E000000120000000C00000016000000000000C20C00000014000000010000006C000000070000000400000020CC690F7A718540FF703D9BE682844000000000000000001FCC690F7AB78A40FF703D9BE682844000000000000000001FCC690F7AB78A4038250612A5F2824000000000000000
310
0020CC690F7A71854038250612A5F2824000000000000000000C0000000E0000000700000084000000060000000500000020CC690F7A718540FF703D9BE682844000000000000000001FCC690F7AB78A40FF703D9BE682844000000000000000001FCC690F7AB78A4038250612A5F28240000000000000000020CC690F7A71
310
854038250612A5F28240000000000000000020CC690F7A718540FF703D9BE68284400000000000000000
100
AcDbWipeout
 90
        0
 10
686.1845997109813
 20
606.3306007843121
 30
0.0
 11
168.7499999999999
 21
0.0
 31
0.0
 12
0.0
 22
50.03200000000004
 32
0.0
 13
1.0
 23
1.0
340
0
 70
    15
280
     1
281
    50
282
    50
283
     0
360
0
 71
     2
 91
        5
 14
-0.5000000000000003
 24
-0.4999999999999989
 14
0.4999999999999997
 24
-0.4999999999999989
 14
0.4999999999999997
 24
0.5000000000000011
 14
-0.5000000000000003
 24
0.5000000000000011
 14
-0.5000000000000003
 24
-0.4999999999999989
  0
MTEXT
  5
176
102
{ACAD_REACTORS
330
177
102
}
330
1F
100
AcDbEntity
  8
Key_ Sections_Pen_No__1
  6
Continuous
100
AcDbMText
 10
691.1845997109813
 20
630.4475864525948
 30
0.0
 40
12.5
 41
158.75
 71
     4
 72
     1
  1
{Palliside 2 part jamb \Pflashing base}
  7
GENERATED_STYLE_1
 73
     1
 44
0.9459980913343259
  0
LEADER
  5
177
330
1F
100
AcDbEntity
  8
Key_ Sections_Pen_No__1
  6
Continuous
100
AcDbLeader
  3
GENERATED_STYLE__1
 72
     1
 73
     0
 74
     0
 40
36.13059347403185
 41
155.025
 76
     2
 10
486.3324180525983
 20
631.346600784312
 30
0.0
 10
691.0945997109812
 20
630.4475864525948
 30
0.0
340
176
  0
WIPEOUT
  5
178
330
1F
100
AcDbEntity
  8
Key_ Sections_Pen_No__1
  6
Wipeout_Contour
 48
3927.319550104675
 92
      296
310
28010000060000000C0000000E000000120000000C00000016000000000000C20C00000014000000010000006C000000070000000400000020CC690F7A71854058E64B525DDD82400000000000000000900974E61D868B4058E64B525DDD82400000000000000000900974E61D868B407440B08D3CED814000000000000000
310
0020CC690F7A7185407440B08D3CED814000000000000000000C0000000E0000000700000084000000060000000500000020CC690F7A71854058E64B525DDD82400000000000000000900974E61D868B4058E64B525DDD82400000000000000000900974E61D868B407440B08D3CED8140000000000000000020CC690F7A71
310
85407440B08D3CED8140000000000000000020CC690F7A71854058E64B525DDD82400000000000000000
100
AcDbWipeout
 90
        0
 10
686.1845997109813
 20
573.6545671243352
 30
0.0
 11
194.5799999999999
 21
0.0
 31
0.0
 12
0.0
 22
30.01600000000008
 32
0.0
 13
1.0
 23
1.0
340
0
 70
    15
280
     1
281
    50
282
    50
283
     0
360
0
 71
     2
 91
        5
 14
-0.5
 24
-0.5
 14
0.5
 24
-0.5
 14
0.5
 24
0.5
 14
-0.5
 24
0.5
 14
-0.5
 24
-0.5
  0
MTEXT
  5
179
102
{ACAD_REACTORS
330
17A
102
}
330
1F
100
AcDbEntity
  8
Key_ Sections_Pen_No__1
  6
Continuous
100
AcDbMText
 10
691.1845997109813
 20
587.7634242671925
 30
0.0
 40
12.5
 41
184.58
 71
     4
 72
     1
  1
{H3.1 jamb packer to suit}
  7
GENERATED_STYLE_1
 73
     1
 44
1.0
  0
LEADER
  5
17A
330
1F
100
AcDbEntity
  8
Key_ Sections_Pen_No__1
  6
Continuous
100
AcDbLeader
  3
GENERATED_STYLE__1
 72
     1
 73
     0
 74
     0
 40
33.58333333333334
 41
154.075
 76
     2
 10
402.5105750346754
 20
588.6625671243353
 30
0.0
 10
691.0945997109812
 20
587.7634242671925
 30
0.0
340
179
  0
WIPEOUT
  5
17B
330
1F
100
AcDbEntity
  8
Key_ Sections_Pen_No__1
  6
Wipeout_Contour
 48
3814.768657745192
 92
      296
310
28010000060000000C0000000E000000120000000C00000016000000000000C20C00000014000000010000006C000000070000000400000020CC690F7A718540F6011AAA8F7A81400000000000000000337AB1F0F4C78B40F6011AAA8F7A81400000000000000000337AB1F0F4C78B405E6CC5419CD47F4000000000000000
310
0020CC690F7A7185405E6CC5419CD47F4000000000000000000C0000000E0000000700000084000000060000000500000020CC690F7A718540F6011AAA8F7A81400000000000000000337AB1F0F4C78B40F6011AAA8F7A81400000000000000000337AB1F0F4C78B405E6CC5419CD47F40000000000000000020CC690F7A71
310
85405E6CC5419CD47F40000000000000000020CC690F7A718540F6011AAA8F7A81400000000000000000
100
AcDbWipeout
 90
        0
 10
686.1845997109813
 20
509.2881486617897
 30
0.0
 11
202.8099999999998
 21
0.0
 31
0.0
 12
0.0
 22
50.03200000000004
 32
0.0
 13
1.0
 23
1.0
340
0
 70
    15
280
     1
281
    50
282
    50
283
     0
360
0
 71
     2
 91
        5
 14
-0.5000000000000003
 24
-0.5000000000000011
 14
0.4999999999999997
 24
-0.5000000000000011
 14
0.4999999999999997
 24
0.4999999999999989
 14
-0.5000000000000003
 24
0.4999999999999989
 14
-0.5000000000000003
 24
-0.5000000000000011
  0
MTEXT
  5
17C
102
{ACAD_REACTORS
330
17D
102
}
330
1F
100
AcDbEntity
  8
Key_ Sections_Pen_No__1
  6
Continuous
100
AcDbMText
 10
691.1845997109813
 20
533.4051343300724
 30
0.0
 40
12.5
 41
192.81
 71
     4
 72
     1
  1
{Apply flashing tape to sill \Pstopend / jamb junction}
  7
GENERATED_STYLE_1
 73
     1
 44
0.9393387383253238
  0
LEADER
  5
17D
330
1F
100
AcDbEntity
  8
Key_ Sections_Pen_No__1
  6
Continuous
100
AcDbLeader
  3
GENERATED_STYLE__1
 72
     1
 73
     0
 74
     0
 40
36.13166653033839
 41
190.8125
 76
     3
 10
432.0857160726532
 20
497.2955090297376
 30
0.0
 10
646.6000455545314
 20
531.4517248464923
 30
0.0
 10
691.0945997109812
 20
533.4051343300724
 30
0.0
340
17C
  0
WIPEOUT
  5
17E
330
1F
100
AcDbEntity
  8
Key_ Sections_Pen_No__1
  6
Wipeout_Contour
 48
3659.364462065222
 92
      296
310
28010000060000000C0000000E000000120000000C00000016000000000000C20C00000014000000010000006C000000070000000400000021CC690F7A718540C9C3E24DFA9C7D400000000000000000E4C1926B093C8C40C9C3E24DFA9C7D400000000000000000E4C1926B093C8C404A5926D966887A4000000000000000
310
0021CC690F7A7185404A5926D966887A4000000000000000000C0000000E0000000700000084000000060000000500000021CC690F7A718540C9C3E24DFA9C7D400000000000000000E4C1926B093C8C40C9C3E24DFA9C7D400000000000000000E4C1926B093C8C404A5926D966887A40000000000000000021CC690F7A71
310
85404A5926D966887A40000000000000000021CC690F7A718540C9C3E24DFA9C7D400000000000000000
100
AcDbWipeout
 90
        0
 10
686.1845997109814
 20
424.525109433937
 30
0.0
 11
217.3200000000001
 21
0.0
 31
0.0
 12
0.0
 22
49.286
 32
0.0
 13
1.0
 23
1.0
340
0
 70
    15
280
     1
281
    50
282
    50
283
     0
360
0
 71
     2
 91
        5
 14
-0.4999999999999997
 24
-0.4999999999999994
 14
0.5000000000000002
 24
-0.4999999999999994
 14
0.5000000000000002
 24
0.5000000000000006
 14
-0.4999999999999997
 24
0.5000000000000006
 14
-0.4999999999999997
 24
-0.4999999999999994
  0
MTEXT
  5
17F
102
{ACAD_REACTORS
330
180
102
}
330
1F
100
AcDbEntity
  8
Key_ Sections_Pen_No__1
  6
Continuous
100
AcDbMText
 10
691.1845997109814
 20
448.181109433937
 30
0.0
 40
12.5
 41
207.32
 71
     4
 72
     1
  1
{H3.1 timber (or equivalent) \Ppacker to suit}
  7
GENERATED_STYLE_1
 73
     1
 44
0.9312510935145416
  0
LEADER
  5
180
330
1F
100
AcDbEntity
  8
Key_ Sections_Pen_No__1
  6
Continuous
100
AcDbLeader
  3
GENERATED_STYLE__1
 72
     1
 73
     0
 74
     0
 40
35.54981466692253
 41
204.5125
 76
     2
 10
237.4616018104203
 20
449.168109433937
 30
0.0
 10
691.0945997109814
 20
448.181109433937
 30
0.0
340
17F
  0
WIPEOUT
  5
181
330
1F
100
AcDbEntity
  8
Key_ Sections_Pen_No__1
  6
Wipeout_Contour
 48
3439.999739706237
 92
      296
310
28010000060000000C0000000E000000120000000C00000016000000000000C20C00000014000000010000006C000000070000000400000021CC690F7A718540175090F3F1AF764000000000000000004928F9D16F228C40175090F3F1AF764000000000000000004928F9D16F228C40C36CEA572D4F724000000000000000
310
0021CC690F7A718540C36CEA572D4F724000000000000000000C0000000E0000000700000084000000060000000500000021CC690F7A718540175090F3F1AF764000000000000000004928F9D16F228C40175090F3F1AF764000000000000000004928F9D16F228C40C36CEA572D4F7240000000000000000021CC690F7A71
310
8540C36CEA572D4F7240000000000000000021CC690F7A718540175090F3F1AF76400000000000000000
100
AcDbWipeout
 90
        0
 10
686.1845997109814
 20
292.9485701710911
 30
0.0
 11
214.1199999999999
 21
0.0
 31
0.0
 12
0.0
 22
70.048
 32
0.0
 13
1.0
 23
1.0
340
0
 70
    15
280
     1
281
    50
282
    50
283
     0
360
0
 71
     2
 91
        5
 14
-0.5
 24
-0.5
 14
0.5
 24
-0.5
 14
0.5
 24
0.5
 14
-0.5
 24
0.5
 14
-0.5
 24
-0.5
  0
MTEXT
  5
182
102
{ACAD_REACTORS
330
183
102
}
330
1F
100
AcDbEntity
  8
Key_ Sections_Pen_No__1
  6
Continuous
100
AcDbMText
 10
691.1845997109814
 20
327.1722557933709
 30
0.0
 40
12.5
 41
204.12
 71
     4
 72
     1
  1
{Flat sill tray flashing \Pto full width of opening\P8mm upstand with stopend}
  7
GENERATED_STYLE_1
 73
     1
 44
0.6350711939309625
  0
LEADER
  5
183
330
1F
100
AcDbEntity
  8
Key_ Sections_Pen_No__1
  6
Continuous
100
AcDbLeader
  3
GENERATED_STYLE__1
 72
     1
 73
     0
 74
     0
 40
55.95610843780237
 41
172.1375
 76
     2
 10
186.1069436227147
 20
327.9725701710912
 30
0.0
 10
691.0945997109814
 20
327.1722557933709
 30
0.0
340
182
  0
WIPEOUT
  5
184
330
1F
100
AcDbEntity
  8
Key_ Sections_Pen_No__1
  6
Wipeout_Contour
 48
3168.335440031134
 92
      296
310
28010000060000000C0000000E000000120000000C00000016000000000000C20C00000014000000010000006C000000070000000400000021CC690F7A7185402E8EE26EF40C6C400000000000000000920974E61D468A402E8EE26EF40C6C400000000000000000920974E61D468A40A1F6735C714C684000000000000000
310
0021CC690F7A718540A1F6735C714C684000000000000000000C0000000E0000000700000084000000060000000500000021CC690F7A7185402E8EE26EF40C6C400000000000000000920974E61D468A402E8EE26EF40C6C400000000000000000920974E61D468A40A1F6735C714C6840000000000000000021CC690F7A71
310
8540A1F6735C714C6840000000000000000021CC690F7A7185402E8EE26EF40C6C400000000000000000
100
AcDbWipeout
 90
        0
 10
686.1845997109814
 20
194.3888380303297
 30
0.0
 11
154.58
 21
0.0
 31
0.0
 12
0.0
 22
30.01599999999999
 32
0.0
 13
1.0
 23
1.0
340
0
 70
    15
280
     1
281
    50
282
    50
283
     0
360
0
 71
     2
 91
        5
 14
-0.5000000000000003
 24
-0.4999999999999995
 14
0.4999999999999996
 24
-0.4999999999999995
 14
0.4999999999999996
 24
0.5000000000000004
 14
-0.5000000000000003
 24
0.5000000000000004
 14
-0.5000000000000003
 24
-0.4999999999999995
  0
MTEXT
  5
185
102
{ACAD_REACTORS
330
186
102
}
330
1F
100
AcDbEntity
  8
Key_ Sections_Pen_No__1
  6
Continuous
100
AcDbMText
 10
691.1845997109814
 20
208.5962666017583
 30
0.0
 40
12.5
 41
144.58
 71
     4
 72
     1
  1
{H3.1 timber packer}
  7
GENERATED_STYLE_1
 73
     1
 44
1.0
  0
LEADER
  5
186
330
1F
100
AcDbEntity
  8
Key_ Sections_Pen_No__1
  6
Continuous
100
AcDbLeader
  3
GENERATED_STYLE__1
 72
     1
 73
     0
 74
     0
 40
36.84583333333334
 41
89.01250000000002
 76
     3
 10
116.2032179197352
 20
277.0661916002107
 30
0.0
 10
206.1650038291691
 20
237.6918831064218
 30
0.0
 10
691.0945997109814
 20
208.5962666017583
 30
0.0
340
185
  0
WIPEOUT
  5
187
330
1F
100
AcDbEntity
  8
Key_ Sections_Pen_No__1
  6
Wipeout_Contour
 48
3127.56790675442
 92
      296
310
28010000060000000C0000000E000000120000000C00000016000000000000C20C00000014000000010000006C000000070000000400000021CC690F7A7185403DBA5E8DD1FC65400000000000000000BA6503A913918A403DBA5E8DD1FC65400000000000000000BA6503A913918A402AE725AC90765A4000000000000000
310
0021CC690F7A7185402AE725AC90765A4000000000000000000C0000000E0000000700000084000000060000000500000021CC690F7A7185403DBA5E8DD1FC65400000000000000000BA6503A913918A403DBA5E8DD1FC65400000000000000000BA6503A913918A402AE725AC90765A40000000000000000021CC690F7A71
310
85402AE725AC90765A40000000000000000021CC690F7A7185403DBA5E8DD1FC65400000000000000000
100
AcDbWipeout
 90
        0
 10
686.1845997109814
 20
105.8525801057955
 30
0.0
 11
163.9499999999999
 21
0.0
 31
0.0
 12
0.0
 22
70.048
 32
0.0
 13
1.0
 23
1.0
340
0
 70
    15
280
     1
281
    50
282
    50
283
     0
360
0
 71
     2
 91
        5
 14
-0.5000000000000003
 24
-0.5
 14
0.4999999999999997
 24
-0.5
 14
0.4999999999999997
 24
0.5
 14
-0.5000000000000003
 24
0.5
 14
-0.5000000000000003
 24
-0.5
  0
MTEXT
  5
188
102
{ACAD_REACTORS
330
189
102
}
330
1F
100
AcDbEntity
  8
Key_ Sections_Pen_No__1
  6
Continuous
100
AcDbMText
 10
691.1845997109814
 20
141.6791228709324
 30
0.0
 40
12.5
 41
153.95
 71
     4
 72
     1
  1
{Palliside Rusticated \Pweatherboard fixed \Pwith Palliside nails}
  7
GENERATED_STYLE_1
 73
     1
 44
0.9558154610760365
  0
LEADER
  5
189
330
1F
100
AcDbEntity
  8
Key_ Sections_Pen_No__1
  6
Continuous
100
AcDbLeader
  3
GENERATED_STYLE__1
 72
     1
 73
     0
 74
     0
 40
52.72875499698019
 41
149.625
 76
     3
 10
295.0281070796063
 20
166.7584846160477
 30
0.0
 10
392.2627024621465
 20
150.5793999595822
 30
0.0
 10
691.0945997109814
 20
141.6791228709324
 30
0.0
340
188
  0
WIPEOUT
  5
18A
330
1F
100
AcDbEntity
  8
Key_ Sections_Pen_No__1
  6
Wipeout_Contour
 48
3244.541326774307
 92
      296
310
28010000060000000C0000000E000000120000000C00000016000000000000C20C00000014000000010000006C000000070000000400000021CC690F7A7185404425FF7AE77F554000000000000000009BE017575B188D404425FF7AE77F554000000000000000009BE017575B188D400A194BF5DC1438C000000000000000
310
0021CC690F7A7185400A194BF5DC1438C000000000000000000C0000000E0000000700000084000000060000000500000021CC690F7A7185404425FF7AE77F554000000000000000009BE017575B188D404425FF7AE77F554000000000000000009BE017575B188D400A194BF5DC1438C0000000000000000021CC690F7A71
310
85400A194BF5DC1438C0000000000000000021CC690F7A7185404425FF7AE77F55400000000000000000
100
AcDbWipeout
 90
        0
 10
686.1845997109814
 20
-24.08149655421679
 30
0.0
 11
244.8599999999999
 21
0.0
 31
0.0
 12
0.0
 22
110.08
 32
0.0
 13
1.0
 23
1.0
340
0
 70
    15
280
     1
281
    50
282
    50
283
     0
360
0
 71
     2
 91
        5
 14
-0.5
 24
-0.5
 14
0.5
 24
-0.5
 14
0.5
 24
0.5
 14
-0.5
 24
0.5
 14
-0.5
 24
-0.5
  0
MTEXT
  5
18B
102
{ACAD_REACTORS
330
18C
102
}
330
1F
100
AcDbEntity
  8
Key_ Sections_Pen_No__1
  6
Continuous
100
AcDbMText
 10
691.1845997109814
 20
30.05987469034282
 30
0.0
 40
12.5
 41
234.86
 71
     4
 72
     1
  1
{Flexible sill flashing tape \Pto full width of opening and \Pminimum 100mm up jambs. \PFlashing tape to extend 50mm \Pmin onto face of building wrap.}
  7
GENERATED_STYLE_1
 73
     1
 44
0.7642027215710635
  0
LEADER
  5
18C
330
1F
100
AcDbEntity
  8
Key_ Sections_Pen_No__1
  6
Continuous
100
AcDbLeader
  3
GENERATED_STYLE__1
 72
     1
 73
     0
 74
     0
 40
96.1305496708111
 41
232.1375
 76
     3
 10
109.3640962625475
 20
224.1436687035969
 30
0.0
 10
187.605117809397
 20
110.0152935413157
 30
0.0
 10
691.0945997109814
 20
30.05987469034282
 30
0.0
340
18B
  0
WIPEOUT
  5
18D
330
1F
100
AcDbEntity
  8
Key_ Sections_Pen_No__1
  6
Wipeout_Contour
 48
3019.970235746282
 92
      296
310
28010000060000000C0000000E000000120000000C00000016000000000000C20C00000014000000010000006C00000007000000040000005F113B410F6666400574815BAB9D8640000000000000000016EF03076E2574400574815BAB9D8640000000000000000016EF03076E2574406559527E86B0854000000000000000
310
005F113B410F6666406559527E86B0854000000000000000000C0000000E000000070000008400000006000000050000005F113B410F6666400574815BAB9D8640000000000000000016EF03076E2574400574815BAB9D8640000000000000000016EF03076E2574406559527E86B0854000000000000000005F113B410F66
310
66406559527E86B0854000000000000000005F113B410F6666400574815BAB9D86400000000000000000
100
AcDbWipeout
 90
        0
 10
179.1893621591252
 20
694.0656706269771
 30
0.0
 11
143.15
 21
0.0
 31
0.0
 12
0.0
 22
29.64300000000003
 32
0.0
 13
1.0
 23
1.0
340
0
 70
    15
280
     1
281
    50
282
    50
283
     0
360
0
 71
     2
 91
        5
 14
-0.5000000000000001
 24
-0.5
 14
0.4999999999999999
 24
-0.5
 14
0.4999999999999999
 24
0.5
 14
-0.5000000000000001
 24
0.5
 14
-0.5000000000000001
 24
-0.5
  0
MTEXT
  5
18E
102
{ACAD_REACTORS
330
18F
102
}
330
1F
100
AcDbEntity
  8
Key_ Sections_Pen_No__1
  6
Continuous
100
AcDbMText
 10
184.1893621591252
 20
707.9000991984057
 30
0.0
 40
12.5
 41
133.15
 71
     4
 72
     1
  1
{Tapered end dam}
  7
GENERATED_STYLE_1
 73
     1
 44
1.0
  0
LEADER
  5
18F
330
1F
100
AcDbEntity
  8
Key_ Sections_Pen_No__1
  6
Continuous
100
AcDbLeader
  3
GENERATED_STYLE__1
 72
     1
 73
     0
 74
     0
 40
33.53333333333334
 41
97.25000000000001
 76
     3
 10
120.6195956751744
 20
676.3708519927836
 30
0.0
 10
156.2050166703424
 20
703.3589738277062
 30
0.0
 10
184.0993621591252
 20
707.9000991984057
 30
0.0
340
18E
  0
WIPEOUT
  5
190
330
1F
100
AcDbEntity
  8
Key_ Sections_Pen_No__1
  6
Wipeout_Contour
 48
3235.366709241423
 92
      296
310
28010000060000000C0000000E000000120000000C00000016000000000000C20C00000014000000010000006C00000007000000040000005F113B410F666640FFCD0450E9C988400000000000000000C436E581824F7340FFCD0450E9C988400000000000000000C436E581824F7340BF98A6959F3F874000000000000000
310
005F113B410F666640BF98A6959F3F874000000000000000000C0000000E000000070000008400000006000000050000005F113B410F666640FFCD0450E9C988400000000000000000C436E581824F7340FFCD0450E9C988400000000000000000C436E581824F7340BF98A6959F3F874000000000000000005F113B410F66
310
6640BF98A6959F3F874000000000000000005F113B410F666640FFCD0450E9C988400000000000000000
100
AcDbWipeout
 90
        0
 10
179.1893621591252
 20
743.9529221549382
 30
0.0
 11
129.78
 21
0.0
 31
0.0
 12
0.0
 22
49.28600000000006
 32
0.0
 13
1.0
 23
1.0
340
0
 70
    15
280
     1
281
    50
282
    50
283
     0
360
0
 71
     2
 91
        5
 14
-0.5000000000000001
 24
-0.5
 14
0.4999999999999999
 24
-0.5
 14
0.4999999999999999
 24
0.5
 14
-0.5000000000000001
 24
0.5
 14
-0.5000000000000001
 24
-0.5
  0
MTEXT
  5
191
102
{ACAD_REACTORS
330
192
102
}
330
1F
100
AcDbEntity
  8
Key_ Sections_Pen_No__1
  6
Continuous
100
AcDbMText
 10
184.1893621591252
 20
767.5103507263667
 30
0.0
 40
12.5
 41
119.78
 71
     4
 72
     1
  1
{Factory formed \Psealed joint }
  7
GENERATED_STYLE_1
 73
     1
 44
0.9305735717105635
  0
LEADER
  5
192
330
1F
100
AcDbEntity
  8
Key_ Sections_Pen_No__1
  6
Continuous
100
AcDbLeader
  3
GENERATED_STYLE__1
 72
     1
 73
     0
 74
     0
 40
35.74719629462524
 41
114.625
 76
     3
 10
82.14972186684925
 20
697.18883266218
 30
0.0
 10
133.179400290557
 20
755.2743056079134
 30
0.0
 10
184.0993621591252
 20
767.5103507263667
 30
0.0
340
191
  0
WIPEOUT
  5
193
330
1F
100
AcDbEntity
  8
Key_ Sections_Pen_No__1
  6
Wipeout_Contour
 48
2463.422776051476
 92
      296
310
28010000060000000C0000000E000000120000000C00000016000000000000C20C00000014000000010000006C0000000700000004000000EE834B988E305F40E487471A3C8F824000000000000000005770D59B4CEC7040E487471A3C8F824000000000000000005770D59B4CEC7040456D183D17A2814000000000000000
310
00EE834B988E305F40456D183D17A2814000000000000000000C0000000E00000007000000840000000600000005000000EE834B988E305F40E487471A3C8F824000000000000000005770D59B4CEC7040E487471A3C8F824000000000000000005770D59B4CEC7040456D183D17A281400000000000000000EE834B988E30
310
5F40456D183D17A281400000000000000000EE834B988E305F40E487471A3C8F82400000000000000000
100
AcDbWipeout
 90
        0
 10
124.7587033021407
 20
564.2613469990107
 30
0.0
 11
146.01
 21
0.0
 31
0.0
 12
0.0
 22
29.64299999999992
 32
0.0
 13
1.0
 23
1.0
340
0
 70
    15
280
     1
281
    50
282
    50
283
     0
360
0
 71
     2
 91
        5
 14
-0.4999999999999999
 24
-0.5000000000000019
 14
0.5000000000000001
 24
-0.5000000000000019
 14
0.5000000000000001
 24
0.4999999999999981
 14
-0.4999999999999999
 24
0.4999999999999981
 14
-0.4999999999999999
 24
-0.5000000000000019
  0
MTEXT
  5
194
102
{ACAD_REACTORS
330
195
102
}
330
1F
100
AcDbEntity
  8
Key_ Sections_Pen_No__1
  6
Continuous
100
AcDbMText
 10
129.7587033021407
 20
578.0957755704392
 30
0.0
 40
12.5
 41
136.01
 71
     4
 72
     1
  1
{8mm min upstand}
  7
GENERATED_STYLE_1
 73
     1
 44
1.0
  0
LEADER
  5
195
330
1F
100
AcDbEntity
  8
Key_ Sections_Pen_No__1
  6
Continuous
100
AcDbLeader
  3
GENERATED_STYLE__1
 72
     1
 73
     0
 74
     0
 40
36.84583333333334
 41
69.825
 76
     3
 10
64.49389643582397
 20
658.1003146469462
 30
0.0
 10
98.02438298588787
 20
588.5078722761154
 30
0.0
 10
129.6687033021407
 20
578.0957755704392
 30
0.0
340
194
  0
MTEXT
  5
196
330
1F
100
AcDbEntity
  8
0_Pen_No__1
  6
Continuous
100
AcDbMText
 10
686.1845997109815
 20
-43.91439508660181
 30
0.0
 40
12.5
 41
0.0
 71
     1
 72
     1
  1
{Note:\PWindow omitted for clarity.\PSill tray nailed in place with \Pnail heads covered with either \Pflashing tape or neutral cured \Psilicon}
  7
GENERATED_STYLE_1
 73
     1
 44
1.005716072939189
  0
ENDSEC
  0
SECTION
  2
OBJECTS
  0
DICTIONARY
  5
C
330
0
100
AcDbDictionary
281
     1
  3
ACAD_GROUP
350
D
  3
ACAD_LAYOUT
350
1A
  3
ACAD_MATERIAL
350
3B
  3
ACAD_MLEADERSTYLE
350
1E7
  3
ACAD_MLINESTYLE
350
17
  3
ACAD_PLOTSETTINGS
350
19
  3
ACAD_PLOTSTYLENAME
350
E
  3
ACAD_SCALELIST
350
19A
  3
ACAD_TABLESTYLE
350
1E6
  3
ACAD_VISUALSTYLE
350
2A
  3
AcDbVariableDictionary
350
1BE
  3
WATERMARKS
350
1BC
  0
DICTIONARY
  5
D
102
{ACAD_REACTORS
330
C
102
}
330
C
100
AcDbDictionary
281
     1
  0
DICTIONARY
  5
1A
102
{ACAD_REACTORS
330
C
102
}
330
C
100
AcDbDictionary
281
     1
  3
Layout1
350
1E
  3
Layout2
350
26
  3
Model
350
22
  0
DICTIONARY
  5
3B
102
{ACAD_REACTORS
330
C
102
}
330
C
100
AcDbDictionary
281
     1
  3
ByBlock
350
3D
  3
ByLayer
350
3C
  3
Global
350
3E
  0
DICTIONARY
  5
1E7
102
{ACAD_REACTORS
330
C
102
}
330
C
100
AcDbDictionary
281
     1
  0
DICTIONARY
  5
17
102
{ACAD_REACTORS
330
C
102
}
330
C
100
AcDbDictionary
281
     1
  3
Standard
350
18
  0
DICTIONARY
  5
19
102
{ACAD_REACTORS
330
C
102
}
330
C
100
AcDbDictionary
281
     1
  0
ACDBDICTIONARYWDFLT
  5
E
102
{ACAD_REACTORS
330
C
102
}
330
C
100
AcDbDictionary
281
     1
  3
Normal
350
F
100
AcDbDictionaryWithDefault
340
F
  0
DICTIONARY
  5
19A
102
{ACAD_REACTORS
330
C
102
}
330
C
100
AcDbDictionary
281
     1
  3
A0
350
19B
  3
A1
350
19C
  3
A2
350
19D
  3
A3
350
19E
  3
A4
350
19F
  3
A5
350
1A0
  3
A6
350
1A1
  3
A7
350
1A2
  3
A8
350
1A3
  3
A9
350
1A4
  3
B0
350
1A5
  3
B1
350
1A6
  3
B2
350
1A7
  3
B3
350
1A8
  3
B4
350
1A9
  3
B5
350
1AA
  3
B6
350
1AB
  3
B7
350
1AC
  3
B8
350
1AD
  3
B9
350
1AE
  3
C0
350
1AF
  3
C1
350
1B0
  3
C2
350
1B1
  3
C3
350
1B2
  3
C4
350
1B3
  3
C5
350
1B4
  3
C6
350
1B5
  3
C7
350
1B6
  3
C8
350
1B7
  3
C9
350
1B8
  3
D0
350
1B9
  3
D1
350
1BA
  3
D2
350
1BB
  0
DICTIONARY
  5
1E6
102
{ACAD_REACTORS
330
C
102
}
330
C
100
AcDbDictionary
281
     1
  0
DICTIONARY
  5
2A
102
{ACAD_REACTORS
330
C
102
}
330
C
100
AcDbDictionary
281
     1
  3
2dWireframe
350
2F
  3
3D Hidden
350
31
  3
3dWireframe
350
30
  3
Basic
350
32
  3
Brighten
350
36
  3
ColorChange
350
3A
  3
Conceptual
350
34
  3
Dim
350
35
  3
Facepattern
350
39
  3
Flat
350
2B
  3
FlatWithEdges
350
2C
  3
Gouraud
350
2D
  3
GouraudWithEdges
350
2E
  3
Linepattern
350
38
  3
Realistic
350
33
  3
Thicken
350
37
  0
DICTIONARY
  5
1BE
102
{ACAD_REACTORS
330
C
102
}
330
C
100
AcDbDictionary
281
     1
  3
CANNOSCALE
350
1BF
  3
XCLIPFRAME
350
1E8
  0
DICTIONARY
  5
1BC
102
{ACAD_REACTORS
330
C
102
}
330
C
100
AcDbDictionary
281
     1
  3
AC_WATERMARK
350
1BD
  0
LAYOUT
  5
1E
102
{ACAD_REACTORS
330
1A
102
}
330
1A
100
AcDbPlotSettings
  1

  2
none_device
  4

  6

 40
0.0
 41
0.0
 42
0.0
 43
0.0
 44
0.0
 45
0.0
 46
0.0
 47
0.0
 48
0.0
 49
0.0
140
0.0
141
0.0
142
1.0
143
1.0
 70
   688
 72
     0
 73
     0
 74
     5
  7

 75
    16
 76
     0
 77
     2
 78
   300
147
1.0
148
0.0
149
0.0
100
AcDbLayout
  1
Layout1
 70
     1
 71
     1
 10
0.0
 20
0.0
 11
12.0
 21
9.0
 12
0.0
 22
0.0
 32
0.0
 14
1.000000000000000E+20
 24
1.000000000000000E+20
 34
1.000000000000000E+20
 15
-1.000000000000000E+20
 25
-1.000000000000000E+20
 35
-1.000000000000000E+20
146
0.0
 13
0.0
 23
0.0
 33
0.0
 16
1.0
 26
0.0
 36
0.0
 17
0.0
 27
1.0
 37
0.0
 76
     0
330
1B
  0
LAYOUT
  5
26
102
{ACAD_REACTORS
330
1A
102
}
330
1A
100
AcDbPlotSettings
  1

  2
none_device
  4

  6

 40
0.0
 41
0.0
 42
0.0
 43
0.0
 44
0.0
 45
0.0
 46
0.0
 47
0.0
 48
0.0
 49
0.0
140
0.0
141
0.0
142
1.0
143
1.0
 70
   688
 72
     0
 73
     0
 74
     5
  7

 75
    16
 76
     0
 77
     2
 78
   300
147
1.0
148
0.0
149
0.0
100
AcDbLayout
  1
Layout2
 70
     1
 71
     2
 10
0.0
 20
0.0
 11
0.0
 21
0.0
 12
0.0
 22
0.0
 32
0.0
 14
0.0
 24
0.0
 34
0.0
 15
0.0
 25
0.0
 35
0.0
146
0.0
 13
0.0
 23
0.0
 33
0.0
 16
1.0
 26
0.0
 36
0.0
 17
0.0
 27
1.0
 37
0.0
 76
     0
330
23
  0
LAYOUT
  5
22
102
{ACAD_REACTORS
330
1A
102
}
330
1A
100
AcDbPlotSettings
  1

  2
none_device
  4

  6

 40
0.0
 41
0.0
 42
0.0
 43
0.0
 44
0.0
 45
0.0
 46
0.0
 47
0.0
 48
0.0
 49
0.0
140
0.0
141
0.0
142
1.0
143
1.0
 70
  1712
 72
     0
 73
     0
 74
     0
  7

 75
     0
 76
     0
 77
     2
 78
   300
147
1.0
148
0.0
149
0.0
100
AcDbLayout
  1
Model
 70
     1
 71
     0
 10
0.0
 20
0.0
 11
12.0
 21
9.0
 12
0.0
 22
0.0
 32
0.0
 14
1.000000000000000E+20
 24
1.000000000000000E+20
 34
1.000000000000000E+20
 15
-1.000000000000000E+20
 25
-1.000000000000000E+20
 35
-1.000000000000000E+20
146
0.0
 13
0.0
 23
0.0
 33
0.0
 16
1.0
 26
0.0
 36
0.0
 17
0.0
 27
1.0
 37
0.0
 76
     0
330
1F
331
29
  0
MATERIAL
  5
3D
102
{ACAD_REACTORS
330
3B
102
}
102
{ACAD_XDICTIONARY
360
1E2
102
}
330
3B
100
AcDbMaterial
  1
ByBlock
  0
MATERIAL
  5
3C
102
{ACAD_REACTORS
330
3B
102
}
102
{ACAD_XDICTIONARY
360
1E0
102
}
330
3B
100
AcDbMaterial
  1
ByLayer
  0
MATERIAL
  5
3E
102
{ACAD_REACTORS
330
3B
102
}
102
{ACAD_XDICTIONARY
360
1E4
102
}
330
3B
100
AcDbMaterial
  1
Global
  0
MLINESTYLE
  5
18
102
{ACAD_REACTORS
330
17
102
}
330
17
100
AcDbMlineStyle
  2
Standard
 70
     0
  3

 62
   256
 51
90.0
 52
90.0
 71
     2
 49
0.5
 62
   256
  6
BYLAYER
 49
-0.5
 62
   256
  6
BYLAYER
  0
ACDBPLACEHOLDER
  5
F
102
{ACAD_REACTORS
330
E
102
}
330
E
  0
SCALE
  5
19B
102
{ACAD_REACTORS
330
19A
102
}
330
19A
100
AcDbScale
 70
     0
300
1:1
140
1.0
141
1.0
290
     1
  0
SCALE
  5
19C
102
{ACAD_REACTORS
330
19A
102
}
330
19A
100
AcDbScale
 70
     0
300
1:2
140
1.0
141
2.0
290
     0
  0
SCALE
  5
19D
102
{ACAD_REACTORS
330
19A
102
}
330
19A
100
AcDbScale
 70
     0
300
1:4
140
1.0
141
4.0
290
     0
  0
SCALE
  5
19E
102
{ACAD_REACTORS
330
19A
102
}
330
19A
100
AcDbScale
 70
     0
300
1:5
140
1.0
141
5.0
290
     0
  0
SCALE
  5
19F
102
{ACAD_REACTORS
330
19A
102
}
330
19A
100
AcDbScale
 70
     0
300
1:8
140
1.0
141
8.0
290
     0
  0
SCALE
  5
1A0
102
{ACAD_REACTORS
330
19A
102
}
330
19A
100
AcDbScale
 70
     0
300
1:10
140
1.0
141
10.0
290
     0
  0
SCALE
  5
1A1
102
{ACAD_REACTORS
330
19A
102
}
330
19A
100
AcDbScale
 70
     0
300
1:16
140
1.0
141
16.0
290
     0
  0
SCALE
  5
1A2
102
{ACAD_REACTORS
330
19A
102
}
330
19A
100
AcDbScale
 70
     0
300
1:20
140
1.0
141
20.0
290
     0
  0
SCALE
  5
1A3
102
{ACAD_REACTORS
330
19A
102
}
330
19A
100
AcDbScale
 70
     0
300
1:30
140
1.0
141
30.0
290
     0
  0
SCALE
  5
1A4
102
{ACAD_REACTORS
330
19A
102
}
330
19A
100
AcDbScale
 70
     0
300
1:40
140
1.0
141
40.0
290
     0
  0
SCALE
  5
1A5
102
{ACAD_REACTORS
330
19A
102
}
330
19A
100
AcDbScale
 70
     0
300
1:50
140
1.0
141
50.0
290
     0
  0
SCALE
  5
1A6
102
{ACAD_REACTORS
330
19A
102
}
330
19A
100
AcDbScale
 70
     0
300
1:100
140
1.0
141
100.0
290
     0
  0
SCALE
  5
1A7
102
{ACAD_REACTORS
330
19A
102
}
330
19A
100
AcDbScale
 70
     0
300
2:1
140
2.0
141
1.0
290
     0
  0
SCALE
  5
1A8
102
{ACAD_REACTORS
330
19A
102
}
330
19A
100
AcDbScale
 70
     0
300
4:1
140
4.0
141
1.0
290
     0
  0
SCALE
  5
1A9
102
{ACAD_REACTORS
330
19A
102
}
330
19A
100
AcDbScale
 70
     0
300
8:1
140
8.0
141
1.0
290
     0
  0
SCALE
  5
1AA
102
{ACAD_REACTORS
330
19A
102
}
330
19A
100
AcDbScale
 70
     0
300
10:1
140
10.0
141
1.0
290
     0
  0
SCALE
  5
1AB
102
{ACAD_REACTORS
330
19A
102
}
330
19A
100
AcDbScale
 70
     0
300
100:1
140
100.0
141
1.0
290
     0
  0
SCALE
  5
1AC
102
{ACAD_REACTORS
330
19A
102
}
330
19A
100
AcDbScale
 70
     0
300
1/128" = 1'-0"
140
0.0078125
141
12.0
290
     0
  0
SCALE
  5
1AD
102
{ACAD_REACTORS
330
19A
102
}
330
19A
100
AcDbScale
 70
     0
300
1/64" = 1'-0"
140
0.015625
141
12.0
290
     0
  0
SCALE
  5
1AE
102
{ACAD_REACTORS
330
19A
102
}
330
19A
100
AcDbScale
 70
     0
300
1/32" = 1'-0"
140
0.03125
141
12.0
290
     0
  0
SCALE
  5
1AF
102
{ACAD_REACTORS
330
19A
102
}
330
19A
100
AcDbScale
 70
     0
300
1/16" = 1'-0"
140
0.0625
141
12.0
290
     0
  0
SCALE
  5
1B0
102
{ACAD_REACTORS
330
19A
102
}
330
19A
100
AcDbScale
 70
     0
300
3/32" = 1'-0"
140
0.09375
141
12.0
290
     0
  0
SCALE
  5
1B1
102
{ACAD_REACTORS
330
19A
102
}
330
19A
100
AcDbScale
 70
     0
300
1/8" = 1'-0"
140
0.125
141
12.0
290
     0
  0
SCALE
  5
1B2
102
{ACAD_REACTORS
330
19A
102
}
330
19A
100
AcDbScale
 70
     0
300
3/16" = 1'-0"
140
0.1875
141
12.0
290
     0
  0
SCALE
  5
1B3
102
{ACAD_REACTORS
330
19A
102
}
330
19A
100
AcDbScale
 70
     0
300
1/4" = 1'-0"
140
0.25
141
12.0
290
     0
  0
SCALE
  5
1B4
102
{ACAD_REACTORS
330
19A
102
}
330
19A
100
AcDbScale
 70
     0
300
3/8" = 1'-0"
140
0.375
141
12.0
290
     0
  0
SCALE
  5
1B5
102
{ACAD_REACTORS
330
19A
102
}
330
19A
100
AcDbScale
 70
     0
300
1/2" = 1'-0"
140
0.5
141
12.0
290
     0
  0
SCALE
  5
1B6
102
{ACAD_REACTORS
330
19A
102
}
330
19A
100
AcDbScale
 70
     0
300
3/4" = 1'-0"
140
0.75
141
12.0
290
     0
  0
SCALE
  5
1B7
102
{ACAD_REACTORS
330
19A
102
}
330
19A
100
AcDbScale
 70
     0
300
1" = 1'-0"
140
1.0
141
12.0
290
     0
  0
SCALE
  5
1B8
102
{ACAD_REACTORS
330
19A
102
}
330
19A
100
AcDbScale
 70
     0
300
1-1/2" = 1'-0"
140
1.5
141
12.0
290
     0
  0
SCALE
  5
1B9
102
{ACAD_REACTORS
330
19A
102
}
330
19A
100
AcDbScale
 70
     0
300
3" = 1'-0"
140
3.0
141
12.0
290
     0
  0
SCALE
  5
1BA
102
{ACAD_REACTORS
330
19A
102
}
330
19A
100
AcDbScale
 70
     0
300
6" = 1'-0"
140
6.0
141
12.0
290
     0
  0
SCALE
  5
1BB
102
{ACAD_REACTORS
330
19A
102
}
330
19A
100
AcDbScale
 70
     0
300
1'-0" = 1'-0"
140
12.0
141
12.0
290
     0
  0
VISUALSTYLE
  5
2F
102
{ACAD_REACTORS
330
2A
102
}
102
{ACAD_XDICTIONARY
360
1C8
102
}
330
2A
100
AcDbVisualStyle
  2
2dWireframe
 70
     4
 71
     0
 72
     2
 73
     0
 90
        0
 40
-0.6
 41
-30.0
 62
     5
 63
     7
421
 16777215
 74
     1
 91
        4
 64
     7
 65
   257
 75
     1
175
     1
 42
1.0
 92
        0
 66
   257
 43
1.0
 76
     1
 77
     6
 78
     2
 67
     7
 79
     5
170
     0
171
     0
290
     0
174
     0
 93
        1
 44
0.0
173
     0
291
     0
 45
0.0
1001
ACAD
1000
AcDbSavedByObjectVersion
1070
     0
  0
VISUALSTYLE
  5
31
102
{ACAD_REACTORS
330
2A
102
}
102
{ACAD_XDICTIONARY
360
1CC
102
}
330
2A
100
AcDbVisualStyle
  2
3D Hidden
 70
     6
 71
     1
 72
     2
 73
     2
 90
        0
 40
-0.6
 41
-30.0
 62
     5
 63
     7
421
 16777215
 74
     2
 91
        2
 64
     7
 65
   257
 75
     2
175
     1
 42
40.0
 92
        0
 66
   257
 43
1.0
 76
     1
 77
     6
 78
     2
 67
     7
 79
     3
170
     0
171
     0
290
     0
174
     0
 93
        1
 44
0.0
173
     0
291
     0
 45
0.0
1001
ACAD
1000
AcDbSavedByObjectVersion
1070
     0
  0
VISUALSTYLE
  5
30
102
{ACAD_REACTORS
330
2A
102
}
102
{ACAD_XDICTIONARY
360
1CA
102
}
330
2A
100
AcDbVisualStyle
  2
3dWireframe
 70
     5
 71
     0
 72
     2
 73
     0
 90
        0
 40
-0.6
 41
-30.0
 62
     5
 63
     7
421
 16777215
 74
     1
 91
        4
 64
     7
 65
   257
 75
     1
175
     1
 42
1.0
 92
        0
 66
   257
 43
1.0
 76
     1
 77
     6
 78
     2
 67
     7
 79
     5
170
     0
171
     0
290
     0
174
     0
 93
        1
 44
0.0
173
     0
291
     0
 45
0.0
1001
ACAD
1000
AcDbSavedByObjectVersion
1070
     0
  0
VISUALSTYLE
  5
32
102
{ACAD_REACTORS
330
2A
102
}
102
{ACAD_XDICTIONARY
360
1CE
102
}
330
2A
100
AcDbVisualStyle
  2
Basic
 70
     7
 71
     1
 72
     0
 73
     1
 90
        0
 40
-0.6
 41
-30.0
 62
     5
 63
     7
421
 16777215
 74
     0
 91
        4
 64
     7
 65
   257
 75
     1
175
     1
 42
1.0
 92
        8
 66
     7
 43
1.0
 76
     1
 77
     6
 78
     2
 67
     7
 79
     5
170
     0
171
     0
290
     0
174
     0
 93
        1
 44
0.0
173
     0
291
     1
 45
0.0
1001
ACAD
1000
AcDbSavedByObjectVersion
1070
     0
  0
VISUALSTYLE
  5
36
102
{ACAD_REACTORS
330
2A
102
}
102
{ACAD_XDICTIONARY
360
1D6
102
}
330
2A
100
AcDbVisualStyle
  2
Brighten
 70
    12
 71
     2
 72
     2
 73
     0
 90
        0
 40
-0.6
 41
-30.0
 62
     5
 63
     7
421
 16777215
 74
     1
 91
        4
 64
     7
 65
   257
 75
     1
175
     1
 42
1.0
 92
        8
 66
     7
 43
1.0
 76
     1
 77
     6
 78
     2
 67
     7
 79
     5
170
     0
171
     0
290
     0
174
     0
 93
        1
 44
50.0
173
     0
291
     1
 45
0.0
1001
ACAD
1000
AcDbSavedByObjectVersion
1070
     0
  0
VISUALSTYLE
  5
3A
102
{ACAD_REACTORS
330
2A
102
}
102
{ACAD_XDICTIONARY
360
1DE
102
}
330
2A
100
AcDbVisualStyle
  2
ColorChange
 70
    16
 71
     2
 72
     2
 73
     3
 90
        0
 40
-0.6
 41
-30.0
 62
     5
 63
     8
421
  8421504
 74
     1
 91
        4
 64
     7
 65
   257
 75
     1
175
     1
 42
1.0
 92
        8
 66
     8
424
  8421504
 43
1.0
 76
     1
 77
     6
 78
     2
 67
     7
 79
     5
170
     0
171
     0
290
     0
174
     0
 93
        1
 44
0.0
173
     0
291
     1
 45
0.0
1001
ACAD
1000
AcDbSavedByObjectVersion
1070
     0
  0
VISUALSTYLE
  5
34
102
{ACAD_REACTORS
330
2A
102
}
102
{ACAD_XDICTIONARY
360
1D2
102
}
330
2A
100
AcDbVisualStyle
  2
Conceptual
 70
     9
 71
     3
 72
     2
 73
     0
 90
        0
 40
-0.6
 41
-30.0
 62
     5
 63
     7
421
 16777215
 74
     2
 91
        2
 64
     7
 65
   257
 75
     1
175
     1
 42
40.0
 92
        8
 66
     7
 43
1.0
 76
     1
 77
     6
 78
     2
 67
     7
 79
     3
170
     0
171
     0
290
     0
174
     0
 93
        1
 44
0.0
173
     0
291
     0
 45
0.0
1001
ACAD
1000
AcDbSavedByObjectVersion
1070
     0
  0
VISUALSTYLE
  5
35
102
{ACAD_REACTORS
330
2A
102
}
102
{ACAD_XDICTIONARY
360
1D4
102
}
330
2A
100
AcDbVisualStyle
  2
Dim
 70
    11
 71
     2
 72
     2
 73
     0
 90
        0
 40
-0.6
 41
-30.0
 62
     5
 63
     7
421
 16777215
 74
     1
 91
        4
 64
     7
 65
   257
 75
     1
175
     1
 42
1.0
 92
        8
 66
     7
 43
1.0
 76
     1
 77
     6
 78
     2
 67
     7
 79
     5
170
     0
171
     0
290
     0
174
     0
 93
        1
 44
-50.0
173
     0
291
     1
 45
0.0
1001
ACAD
1000
AcDbSavedByObjectVersion
1070
     0
  0
VISUALSTYLE
  5
39
102
{ACAD_REACTORS
330
2A
102
}
102
{ACAD_XDICTIONARY
360
1DC
102
}
330
2A
100
AcDbVisualStyle
  2
Facepattern
 70
    15
 71
     2
 72
     2
 73
     0
 90
        0
 40
-0.6
 41
-30.0
 62
     5
 63
     7
421
 16777215
 74
     1
 91
        4
 64
     7
 65
   257
 75
     1
175
     1
 42
1.0
 92
        8
 66
     7
 43
1.0
 76
     1
 77
     6
 78
     2
 67
     7
 79
     5
170
     0
171
     0
290
     0
174
     0
 93
        1
 44
0.0
173
     0
291
     1
 45
0.0
1001
ACAD
1000
AcDbSavedByObjectVersion
1070
     0
  0
VISUALSTYLE
  5
2B
102
{ACAD_REACTORS
330
2A
102
}
102
{ACAD_XDICTIONARY
360
1C0
102
}
330
2A
100
AcDbVisualStyle
  2
Flat
 70
     0
 71
     2
 72
     1
 73
     1
 90
        2
 40
-0.6
 41
30.0
 62
     5
 63
     7
421
 16777215
 74
     0
 91
        4
 64
     7
 65
   257
 75
     1
175
     1
 42
1.0
 92
        8
 66
     7
 43
1.0
 76
     1
 77
     6
 78
     2
 67
     7
 79
     5
170
     0
171
     0
290
     0
174
     0
 93
       13
 44
0.0
173
     0
291
     1
 45
0.0
1001
ACAD
1000
AcDbSavedByObjectVersion
1070
     0
  0
VISUALSTYLE
  5
2C
102
{ACAD_REACTORS
330
2A
102
}
102
{ACAD_XDICTIONARY
360
1C2
102
}
330
2A
100
AcDbVisualStyle
  2
FlatWithEdges
 70
     1
 71
     2
 72
     1
 73
     1
 90
        2
 40
-0.6
 41
30.0
 62
     5
 63
     7
421
 16777215
 74
     1
 91
        4
 64
     7
 65
   257
 75
     1
175
     1
 42
1.0
 92
        0
 66
   257
 43
1.0
 76
     1
 77
     6
 78
     2
 67
     7
 79
     5
170
     0
171
     0
290
     0
174
     0
 93
       13
 44
0.0
173
     0
291
     1
 45
0.0
1001
ACAD
1000
AcDbSavedByObjectVersion
1070
     0
  0
VISUALSTYLE
  5
2D
102
{ACAD_REACTORS
330
2A
102
}
102
{ACAD_XDICTIONARY
360
1C4
102
}
330
2A
100
AcDbVisualStyle
  2
Gouraud
 70
     2
 71
     2
 72
     2
 73
     1
 90
        2
 40
-0.6
 41
30.0
 62
     5
 63
     7
421
 16777215
 74
     0
 91
        4
 64
     7
 65
   257
 75
     1
175
     1
 42
1.0
 92
        0
 66
     7
 43
1.0
 76
     1
 77
     6
 78
     2
 67
     7
 79
     5
170
     0
171
     0
290
     0
174
     0
 93
       13
 44
0.0
173
     0
291
     1
 45
0.0
1001
ACAD
1000
AcDbSavedByObjectVersion
1070
     0
  0
VISUALSTYLE
  5
2E
102
{ACAD_REACTORS
330
2A
102
}
102
{ACAD_XDICTIONARY
360
1C6
102
}
330
2A
100
AcDbVisualStyle
  2
GouraudWithEdges
 70
     3
 71
     2
 72
     2
 73
     1
 90
        2
 40
-0.6
 41
30.0
 62
     5
 63
     7
421
 16777215
 74
     1
 91
        4
 64
     7
 65
   257
 75
     1
175
     1
 42
1.0
 92
        0
 66
   257
 43
1.0
 76
     1
 77
     6
 78
     2
 67
     7
 79
     5
170
     0
171
     0
290
     0
174
     0
 93
       13
 44
0.0
173
     0
291
     1
 45
0.0
1001
ACAD
1000
AcDbSavedByObjectVersion
1070
     0
  0
VISUALSTYLE
  5
38
102
{ACAD_REACTORS
330
2A
102
}
102
{ACAD_XDICTIONARY
360
1DA
102
}
330
2A
100
AcDbVisualStyle
  2
Linepattern
 70
    14
 71
     2
 72
     2
 73
     0
 90
        0
 40
-0.6
 41
-30.0
 62
     5
 63
     7
421
 16777215
 74
     1
 91
        4
 64
     7
 65
   257
 75
     7
175
     7
 42
1.0
 92
        8
 66
     7
 43
1.0
 76
     1
 77
     6
 78
     2
 67
     7
 79
     5
170
     0
171
     0
290
     0
174
     0
 93
        1
 44
0.0
173
     0
291
     1
 45
0.0
1001
ACAD
1000
AcDbSavedByObjectVersion
1070
     0
  0
VISUALSTYLE
  5
33
102
{ACAD_REACTORS
330
2A
102
}
102
{ACAD_XDICTIONARY
360
1D0
102
}
330
2A
100
AcDbVisualStyle
  2
Realistic
 70
     8
 71
     2
 72
     2
 73
     0
 90
        0
 40
-0.6
 41
-30.0
 62
     5
 63
     7
421
 16777215
 74
     1
 91
        0
 64
     7
 65
   257
 75
     1
175
     1
 42
1.0
 92
        8
 66
     8
424
  7895160
 43
1.0
 76
     1
 77
     6
 78
     2
 67
     7
 79
     5
170
     0
171
     0
290
     0
174
     0
 93
       13
 44
0.0
173
     0
291
     0
 45
0.0
1001
ACAD
1000
AcDbSavedByObjectVersion
1070
     0
  0
VISUALSTYLE
  5
37
102
{ACAD_REACTORS
330
2A
102
}
102
{ACAD_XDICTIONARY
360
1D8
102
}
330
2A
100
AcDbVisualStyle
  2
Thicken
 70
    13
 71
     2
 72
     2
 73
     0
 90
        0
 40
-0.6
 41
-30.0
 62
     5
 63
     7
421
 16777215
 74
     1
 91
        4
 64
     7
 65
   257
 75
     1
175
     1
 42
1.0
 92
       12
 66
     7
 43
1.0
 76
     1
 77
     6
 78
     2
 67
     7
 79
     5
170
     0
171
     0
290
     0
174
     0
 93
        1
 44
0.0
173
     0
291
     1
 45
0.0
1001
ACAD
1000
AcDbSavedByObjectVersion
1070
     0
  0
DICTIONARYVAR
  5
1BF
102
{ACAD_REACTORS
330
1BE
102
}
330
1BE
100
DictionaryVariables
280
     0
  1
1:1
  0
DICTIONARYVAR
  5
1E8
102
{ACAD_REACTORS
330
1BE
102
}
330
1BE
100
DictionaryVariables
280
     0
  1
0
  0
XRECORD
  5
1BD
102
{ACAD_REACTORS
330
1BC
102
}
330
1BC
100
AcDbXrecord
280
     1
1000
This DWG file was created in ArchiCAD(TM)®
  0
DICTIONARY
  5
1E2
330
3D
100
AcDbDictionary
280
     1
281
     1
  3
ACAD_XREC_ROUNDTRIP
360
1E3
  0
DICTIONARY
  5
1E0
330
3C
100
AcDbDictionary
280
     1
281
     1
  3
ACAD_XREC_ROUNDTRIP
360
1E1
  0
DICTIONARY
  5
1E4
330
3E
100
AcDbDictionary
280
     1
281
     1
  3
ACAD_XREC_ROUNDTRIP
360
1E5
  0
DICTIONARY
  5
1C8
330
2F
100
AcDbDictionary
280
     1
281
     1
  3
ACAD_XREC_ROUNDTRIP
360
1C9
  0
DICTIONARY
  5
1CC
330
31
100
AcDbDictionary
280
     1
281
     1
  3
ACAD_XREC_ROUNDTRIP
360
1CD
  0
DICTIONARY
  5
1CA
330
30
100
AcDbDictionary
280
     1
281
     1
  3
ACAD_XREC_ROUNDTRIP
360
1CB
  0
DICTIONARY
  5
1CE
330
32
100
AcDbDictionary
280
     1
281
     1
  3
ACAD_XREC_ROUNDTRIP
360
1CF
  0
DICTIONARY
  5
1D6
330
36
100
AcDbDictionary
280
     1
281
     1
  3
ACAD_XREC_ROUNDTRIP
360
1D7
  0
DICTIONARY
  5
1DE
330
3A
100
AcDbDictionary
280
     1
281
     1
  3
ACAD_XREC_ROUNDTRIP
360
1DF
  0
DICTIONARY
  5
1D2
330
34
100
AcDbDictionary
280
     1
281
     1
  3
ACAD_XREC_ROUNDTRIP
360
1D3
  0
DICTIONARY
  5
1D4
330
35
100
AcDbDictionary
280
     1
281
     1
  3
ACAD_XREC_ROUNDTRIP
360
1D5
  0
DICTIONARY
  5
1DC
330
39
100
AcDbDictionary
280
     1
281
     1
  3
ACAD_XREC_ROUNDTRIP
360
1DD
  0
DICTIONARY
  5
1C0
330
2B
100
AcDbDictionary
280
     1
281
     1
  3
ACAD_XREC_ROUNDTRIP
360
1C1
  0
DICTIONARY
  5
1C2
330
2C
100
AcDbDictionary
280
     1
281
     1
  3
ACAD_XREC_ROUNDTRIP
360
1C3
  0
DICTIONARY
  5
1C4
330
2D
100
AcDbDictionary
280
     1
281
     1
  3
ACAD_XREC_ROUNDTRIP
360
1C5
  0
DICTIONARY
  5
1C6
330
2E
100
AcDbDictionary
280
     1
281
     1
  3
ACAD_XREC_ROUNDTRIP
360
1C7
  0
DICTIONARY
  5
1DA
330
38
100
AcDbDictionary
280
     1
281
     1
  3
ACAD_XREC_ROUNDTRIP
360
1DB
  0
DICTIONARY
  5
1D0
330
33
100
AcDbDictionary
280
     1
281
     1
  3
ACAD_XREC_ROUNDTRIP
360
1D1
  0
DICTIONARY
  5
1D8
330
37
100
AcDbDictionary
280
     1
281
     1
  3
ACAD_XREC_ROUNDTRIP
360
1D9
  0
XRECORD
  5
1E3
102
{ACAD_REACTORS
330
1E2
102
}
330
1E2
100
AcDbXrecord
280
     1
102
MATERIAL
148
0.0
149
0.0
149
0.0
 93
        0
 94
      127
282
     0
 72
     1
 77
     1
171
     1
175
     1
179
     1
273
     0
  0
XRECORD
  5
1E1
102
{ACAD_REACTORS
330
1E0
102
}
330
1E0
100
AcDbXrecord
280
     1
102
MATERIAL
148
0.0
149
0.0
149
0.0
 93
        0
 94
      127
282
     0
 72
     1
 77
     1
171
     1
175
     1
179
     1
273
     0
  0
XRECORD
  5
1E5
102
{ACAD_REACTORS
330
1E4
102
}
330
1E4
100
AcDbXrecord
280
     1
102
MATERIAL
148
0.0
149
0.0
149
0.0
 93
        0
 94
      127
282
     0
 72
     1
 77
     1
171
     1
175
     1
179
     1
273
     0
  0
XRECORD
  5
1C9
102
{ACAD_REACTORS
330
1C8
102
}
330
1C8
100
AcDbXrecord
280
     1
102
RTVSPropertyOp0
 70
     1
102
RTVSPropertyOp1
 70
     1
102
RTVSPropertyOp2
 70
     1
102
RTVSPropertyOp3
 70
     1
102
RTVSPropertyOp4
 70
     1
102
RTVSPropertyOp5
 70
     1
102
RTVSPropertyOp6
 70
     1
102
RTVSPropertyOp7
 70
     1
102
RTVSPropertyOp8
 70
     1
102
RTVSPropertyOp9
 70
     1
102
RTVSPropertyOp10
 70
     1
102
RTVSPropertyOp11
 70
     1
102
RTVSPropertyOp12
 70
     1
102
RTVSPropertyOp13
 70
     1
102
RTVSPropertyOp14
 70
     1
102
RTVSPropertyOp15
 70
     1
102
RTVSPropertyOp16
 70
     1
102
RTVSPropertyOp17
 70
     1
102
RTVSPropertyOp18
 70
     1
102
RTVSPropertyOp19
 70
     1
102
RTVSPropertyOp20
 70
     1
102
RTVSPropertyOp21
 70
     1
102
RTVSPropertyOp22
 70
     1
102
RTVSPropertyOp23
 70
     1
102
RTVSPropertyOp24
 70
     1
102
RTVSPropertyOp25
 70
     1
102
RTVSPropertyOp26
 70
     1
102
RTVSPropertyOp27
 70
     1
102
RTVSPropertyOp28
 70
     1
102
RTVSPropertyOp29
 70
     1
102
RTVSPropertyOp30
 70
     1
102
RTVSPropertyOp31
 70
     1
102
RTVSPropertyOp32
 70
     1
  0
XRECORD
  5
1CD
102
{ACAD_REACTORS
330
1CC
102
}
330
1CC
100
AcDbXrecord
280
     1
102
RTVSPropertyOp0
 70
     1
102
RTVSPropertyOp1
 70
     1
102
RTVSPropertyOp2
 70
     1
102
RTVSPropertyOp3
 70
     1
102
RTVSPropertyOp4
 70
     1
102
RTVSPropertyOp5
 70
     1
102
RTVSPropertyOp6
 70
     1
102
RTVSPropertyOp7
 70
     1
102
RTVSPropertyOp8
 70
     1
102
RTVSPropertyOp9
 70
     1
102
RTVSPropertyOp10
 70
     1
102
RTVSPropertyOp11
 70
     1
102
RTVSPropertyOp12
 70
     1
102
RTVSPropertyOp13
 70
     1
102
RTVSPropertyOp14
 70
     1
102
RTVSPropertyOp15
 70
     1
102
RTVSPropertyOp16
 70
     1
102
RTVSPropertyOp17
 70
     1
102
RTVSPropertyOp18
 70
     1
102
RTVSPropertyOp19
 70
     1
102
RTVSPropertyOp20
 70
     1
102
RTVSPropertyOp21
 70
     1
102
RTVSPropertyOp22
 70
     1
102
RTVSPropertyOp23
 70
     1
102
RTVSPropertyOp24
 70
     1
102
RTVSPropertyOp25
 70
     1
102
RTVSPropertyOp26
 70
     1
102
RTVSPropertyOp27
 70
     1
102
RTVSPropertyOp28
 70
     1
102
RTVSPropertyOp29
 70
     1
102
RTVSPropertyOp30
 70
     1
102
RTVSPropertyOp31
 70
     1
102
RTVSPropertyOp32
 70
     1
  0
XRECORD
  5
1CB
102
{ACAD_REACTORS
330
1CA
102
}
330
1CA
100
AcDbXrecord
280
     1
102
RTVSPropertyOp0
 70
     1
102
RTVSPropertyOp1
 70
     1
102
RTVSPropertyOp2
 70
     1
102
RTVSPropertyOp3
 70
     1
102
RTVSPropertyOp4
 70
     1
102
RTVSPropertyOp5
 70
     1
102
RTVSPropertyOp6
 70
     1
102
RTVSPropertyOp7
 70
     1
102
RTVSPropertyOp8
 70
     1
102
RTVSPropertyOp9
 70
     1
102
RTVSPropertyOp10
 70
     1
102
RTVSPropertyOp11
 70
     1
102
RTVSPropertyOp12
 70
     1
102
RTVSPropertyOp13
 70
     1
102
RTVSPropertyOp14
 70
     1
102
RTVSPropertyOp15
 70
     1
102
RTVSPropertyOp16
 70
     1
102
RTVSPropertyOp17
 70
     1
102
RTVSPropertyOp18
 70
     1
102
RTVSPropertyOp19
 70
     1
102
RTVSPropertyOp20
 70
     1
102
RTVSPropertyOp21
 70
     1
102
RTVSPropertyOp22
 70
     1
102
RTVSPropertyOp23
 70
     1
102
RTVSPropertyOp24
 70
     1
102
RTVSPropertyOp25
 70
     1
102
RTVSPropertyOp26
 70
     1
102
RTVSPropertyOp27
 70
     1
102
RTVSPropertyOp28
 70
     1
102
RTVSPropertyOp29
 70
     1
102
RTVSPropertyOp30
 70
     1
102
RTVSPropertyOp31
 70
     1
102
RTVSPropertyOp32
 70
     1
  0
XRECORD
  5
1CF
102
{ACAD_REACTORS
330
1CE
102
}
330
1CE
100
AcDbXrecord
280
     1
102
RTVSPropertyOp0
 70
     1
102
RTVSPropertyOp1
 70
     1
102
RTVSPropertyOp2
 70
     1
102
RTVSPropertyOp3
 70
     1
102
RTVSPropertyOp4
 70
     1
102
RTVSPropertyOp5
 70
     1
102
RTVSPropertyOp6
 70
     1
102
RTVSPropertyOp7
 70
     1
102
RTVSPropertyOp8
 70
     1
102
RTVSPropertyOp9
 70
     1
102
RTVSPropertyOp10
 70
     1
102
RTVSPropertyOp11
 70
     1
102
RTVSPropertyOp12
 70
     1
102
RTVSPropertyOp13
 70
     1
102
RTVSPropertyOp14
 70
     1
102
RTVSPropertyOp15
 70
     1
102
RTVSPropertyOp16
 70
     1
102
RTVSPropertyOp17
 70
     1
102
RTVSPropertyOp18
 70
     1
102
RTVSPropertyOp19
 70
     1
102
RTVSPropertyOp20
 70
     1
102
RTVSPropertyOp21
 70
     1
102
RTVSPropertyOp22
 70
     1
102
RTVSPropertyOp23
 70
     1
102
RTVSPropertyOp24
 70
     1
102
RTVSPropertyOp25
 70
     1
102
RTVSPropertyOp26
 70
     1
102
RTVSPropertyOp27
 70
     1
102
RTVSPropertyOp28
 70
     1
102
RTVSPropertyOp29
 70
     1
102
RTVSPropertyOp30
 70
     1
102
RTVSPropertyOp31
 70
     1
102
RTVSPropertyOp32
 70
     1
  0
XRECORD
  5
1D7
102
{ACAD_REACTORS
330
1D6
102
}
330
1D6
100
AcDbXrecord
280
     1
102
RTVSPropertyOp0
 70
     1
102
RTVSPropertyOp1
 70
     1
102
RTVSPropertyOp2
 70
     1
102
RTVSPropertyOp3
 70
     1
102
RTVSPropertyOp4
 70
     1
102
RTVSPropertyOp5
 70
     1
102
RTVSPropertyOp6
 70
     1
102
RTVSPropertyOp7
 70
     1
102
RTVSPropertyOp8
 70
     1
102
RTVSPropertyOp9
 70
     1
102
RTVSPropertyOp10
 70
     1
102
RTVSPropertyOp11
 70
     1
102
RTVSPropertyOp12
 70
     1
102
RTVSPropertyOp13
 70
     1
102
RTVSPropertyOp14
 70
     1
102
RTVSPropertyOp15
 70
     1
102
RTVSPropertyOp16
 70
     1
102
RTVSPropertyOp17
 70
     1
102
RTVSPropertyOp18
 70
     1
102
RTVSPropertyOp19
 70
     1
102
RTVSPropertyOp20
 70
     1
102
RTVSPropertyOp21
 70
     1
102
RTVSPropertyOp22
 70
     1
102
RTVSPropertyOp23
 70
     1
102
RTVSPropertyOp24
 70
     1
102
RTVSPropertyOp25
 70
     1
102
RTVSPropertyOp26
 70
     1
102
RTVSPropertyOp27
 70
     1
102
RTVSPropertyOp28
 70
     1
102
RTVSPropertyOp29
 70
     1
102
RTVSPropertyOp30
 70
     1
102
RTVSPropertyOp31
 70
     1
102
RTVSPropertyOp32
 70
     1
  0
XRECORD
  5
1DF
102
{ACAD_REACTORS
330
1DE
102
}
330
1DE
100
AcDbXrecord
280
     1
102
RTVSPropertyOp0
 70
     1
102
RTVSPropertyOp1
 70
     1
102
RTVSPropertyOp2
 70
     1
102
RTVSPropertyOp3
 70
     1
102
RTVSPropertyOp4
 70
     1
102
RTVSPropertyOp5
 70
     1
102
RTVSPropertyOp6
 70
     1
102
RTVSPropertyOp7
 70
     1
102
RTVSPropertyOp8
 70
     1
102
RTVSPropertyOp9
 70
     1
102
RTVSPropertyOp10
 70
     1
102
RTVSPropertyOp11
 70
     1
102
RTVSPropertyOp12
 70
     1
102
RTVSPropertyOp13
 70
     1
102
RTVSPropertyOp14
 70
     1
102
RTVSPropertyOp15
 70
     1
102
RTVSPropertyOp16
 70
     1
102
RTVSPropertyOp17
 70
     1
102
RTVSPropertyOp18
 70
     1
102
RTVSPropertyOp19
 70
     1
102
RTVSPropertyOp20
 70
     1
102
RTVSPropertyOp21
 70
     1
102
RTVSPropertyOp22
 70
     1
102
RTVSPropertyOp23
 70
     1
102
RTVSPropertyOp24
 70
     1
102
RTVSPropertyOp25
 70
     1
102
RTVSPropertyOp26
 70
     1
102
RTVSPropertyOp27
 70
     1
102
RTVSPropertyOp28
 70
     1
102
RTVSPropertyOp29
 70
     1
102
RTVSPropertyOp30
 70
     1
102
RTVSPropertyOp31
 70
     1
102
RTVSPropertyOp32
 70
     1
  0
XRECORD
  5
1D3
102
{ACAD_REACTORS
330
1D2
102
}
330
1D2
100
AcDbXrecord
280
     1
102
RTVSPropertyOp0
 70
     1
102
RTVSPropertyOp1
 70
     1
102
RTVSPropertyOp2
 70
     1
102
RTVSPropertyOp3
 70
     1
102
RTVSPropertyOp4
 70
     1
102
RTVSPropertyOp5
 70
     1
102
RTVSPropertyOp6
 70
     1
102
RTVSPropertyOp7
 70
     1
102
RTVSPropertyOp8
 70
     1
102
RTVSPropertyOp9
 70
     1
102
RTVSPropertyOp10
 70
     1
102
RTVSPropertyOp11
 70
     1
102
RTVSPropertyOp12
 70
     1
102
RTVSPropertyOp13
 70
     1
102
RTVSPropertyOp14
 70
     1
102
RTVSPropertyOp15
 70
     1
102
RTVSPropertyOp16
 70
     1
102
RTVSPropertyOp17
 70
     1
102
RTVSPropertyOp18
 70
     1
102
RTVSPropertyOp19
 70
     1
102
RTVSPropertyOp20
 70
     1
102
RTVSPropertyOp21
 70
     1
102
RTVSPropertyOp22
 70
     1
102
RTVSPropertyOp23
 70
     1
102
RTVSPropertyOp24
 70
     1
102
RTVSPropertyOp25
 70
     1
102
RTVSPropertyOp26
 70
     1
102
RTVSPropertyOp27
 70
     1
102
RTVSPropertyOp28
 70
     1
102
RTVSPropertyOp29
 70
     1
102
RTVSPropertyOp30
 70
     1
102
RTVSPropertyOp31
 70
     1
102
RTVSPropertyOp32
 70
     1
  0
XRECORD
  5
1D5
102
{ACAD_REACTORS
330
1D4
102
}
330
1D4
100
AcDbXrecord
280
     1
102
RTVSPropertyOp0
 70
     1
102
RTVSPropertyOp1
 70
     1
102
RTVSPropertyOp2
 70
     1
102
RTVSPropertyOp3
 70
     1
102
RTVSPropertyOp4
 70
     1
102
RTVSPropertyOp5
 70
     1
102
RTVSPropertyOp6
 70
     1
102
RTVSPropertyOp7
 70
     1
102
RTVSPropertyOp8
 70
     1
102
RTVSPropertyOp9
 70
     1
102
RTVSPropertyOp10
 70
     1
102
RTVSPropertyOp11
 70
     1
102
RTVSPropertyOp12
 70
     1
102
RTVSPropertyOp13
 70
     1
102
RTVSPropertyOp14
 70
     1
102
RTVSPropertyOp15
 70
     1
102
RTVSPropertyOp16
 70
     1
102
RTVSPropertyOp17
 70
     1
102
RTVSPropertyOp18
 70
     1
102
RTVSPropertyOp19
 70
     1
102
RTVSPropertyOp20
 70
     1
102
RTVSPropertyOp21
 70
     1
102
RTVSPropertyOp22
 70
     1
102
RTVSPropertyOp23
 70
     1
102
RTVSPropertyOp24
 70
     1
102
RTVSPropertyOp25
 70
     1
102
RTVSPropertyOp26
 70
     1
102
RTVSPropertyOp27
 70
     1
102
RTVSPropertyOp28
 70
     1
102
RTVSPropertyOp29
 70
     1
102
RTVSPropertyOp30
 70
     1
102
RTVSPropertyOp31
 70
     1
102
RTVSPropertyOp32
 70
     1
  0
XRECORD
  5
1DD
102
{ACAD_REACTORS
330
1DC
102
}
330
1DC
100
AcDbXrecord
280
     1
102
RTVSPropertyOp0
 70
     1
102
RTVSPropertyOp1
 70
     1
102
RTVSPropertyOp2
 70
     1
102
RTVSPropertyOp3
 70
     1
102
RTVSPropertyOp4
 70
     1
102
RTVSPropertyOp5
 70
     1
102
RTVSPropertyOp6
 70
     1
102
RTVSPropertyOp7
 70
     1
102
RTVSPropertyOp8
 70
     1
102
RTVSPropertyOp9
 70
     1
102
RTVSPropertyOp10
 70
     1
102
RTVSPropertyOp11
 70
     1
102
RTVSPropertyOp12
 70
     1
102
RTVSPropertyOp13
 70
     1
102
RTVSPropertyOp14
 70
     1
102
RTVSPropertyOp15
 70
     1
102
RTVSPropertyOp16
 70
     1
102
RTVSPropertyOp17
 70
     1
102
RTVSPropertyOp18
 70
     1
102
RTVSPropertyOp19
 70
     1
102
RTVSPropertyOp20
 70
     1
102
RTVSPropertyOp21
 70
     1
102
RTVSPropertyOp22
 70
     1
102
RTVSPropertyOp23
 70
     1
102
RTVSPropertyOp24
 70
     1
102
RTVSPropertyOp25
 70
     1
102
RTVSPropertyOp26
 70
     1
102
RTVSPropertyOp27
 70
     1
102
RTVSPropertyOp28
 70
     1
102
RTVSPropertyOp29
 70
     1
102
RTVSPropertyOp30
 70
     1
102
RTVSPropertyOp31
 70
     1
102
RTVSPropertyOp32
 70
     1
  0
XRECORD
  5
1C1
102
{ACAD_REACTORS
330
1C0
102
}
330
1C0
100
AcDbXrecord
280
     1
102
RTVSPropertyOp0
 70
     1
102
RTVSPropertyOp1
 70
     1
102
RTVSPropertyOp2
 70
     1
102
RTVSPropertyOp3
 70
     1
102
RTVSPropertyOp4
 70
     1
102
RTVSPropertyOp5
 70
     1
102
RTVSPropertyOp6
 70
     1
102
RTVSPropertyOp7
 70
     1
102
RTVSPropertyOp8
 70
     1
102
RTVSPropertyOp9
 70
     1
102
RTVSPropertyOp10
 70
     1
102
RTVSPropertyOp11
 70
     1
102
RTVSPropertyOp12
 70
     1
102
RTVSPropertyOp13
 70
     1
102
RTVSPropertyOp14
 70
     1
102
RTVSPropertyOp15
 70
     1
102
RTVSPropertyOp16
 70
     1
102
RTVSPropertyOp17
 70
     1
102
RTVSPropertyOp18
 70
     1
102
RTVSPropertyOp19
 70
     1
102
RTVSPropertyOp20
 70
     1
102
RTVSPropertyOp21
 70
     1
102
RTVSPropertyOp22
 70
     1
102
RTVSPropertyOp23
 70
     1
102
RTVSPropertyOp24
 70
     1
102
RTVSPropertyOp25
 70
     1
102
RTVSPropertyOp26
 70
     1
102
RTVSPropertyOp27
 70
     1
102
RTVSPropertyOp28
 70
     1
102
RTVSPropertyOp29
 70
     1
102
RTVSPropertyOp30
 70
     1
102
RTVSPropertyOp31
 70
     1
102
RTVSPropertyOp32
 70
     1
  0
XRECORD
  5
1C3
102
{ACAD_REACTORS
330
1C2
102
}
330
1C2
100
AcDbXrecord
280
     1
102
RTVSPropertyOp0
 70
     1
102
RTVSPropertyOp1
 70
     1
102
RTVSPropertyOp2
 70
     1
102
RTVSPropertyOp3
 70
     1
102
RTVSPropertyOp4
 70
     1
102
RTVSPropertyOp5
 70
     1
102
RTVSPropertyOp6
 70
     1
102
RTVSPropertyOp7
 70
     1
102
RTVSPropertyOp8
 70
     1
102
RTVSPropertyOp9
 70
     1
102
RTVSPropertyOp10
 70
     1
102
RTVSPropertyOp11
 70
     1
102
RTVSPropertyOp12
 70
     1
102
RTVSPropertyOp13
 70
     1
102
RTVSPropertyOp14
 70
     1
102
RTVSPropertyOp15
 70
     1
102
RTVSPropertyOp16
 70
     1
102
RTVSPropertyOp17
 70
     1
102
RTVSPropertyOp18
 70
     1
102
RTVSPropertyOp19
 70
     1
102
RTVSPropertyOp20
 70
     1
102
RTVSPropertyOp21
 70
     1
102
RTVSPropertyOp22
 70
     1
102
RTVSPropertyOp23
 70
     1
102
RTVSPropertyOp24
 70
     1
102
RTVSPropertyOp25
 70
     1
102
RTVSPropertyOp26
 70
     1
102
RTVSPropertyOp27
 70
     1
102
RTVSPropertyOp28
 70
     1
102
RTVSPropertyOp29
 70
     1
102
RTVSPropertyOp30
 70
     1
102
RTVSPropertyOp31
 70
     1
102
RTVSPropertyOp32
 70
     1
  0
XRECORD
  5
1C5
102
{ACAD_REACTORS
330
1C4
102
}
330
1C4
100
AcDbXrecord
280
     1
102
RTVSPropertyOp0
 70
     1
102
RTVSPropertyOp1
 70
     1
102
RTVSPropertyOp2
 70
     1
102
RTVSPropertyOp3
 70
     1
102
RTVSPropertyOp4
 70
     1
102
RTVSPropertyOp5
 70
     1
102
RTVSPropertyOp6
 70
     1
102
RTVSPropertyOp7
 70
     1
102
RTVSPropertyOp8
 70
     1
102
RTVSPropertyOp9
 70
     1
102
RTVSPropertyOp10
 70
     1
102
RTVSPropertyOp11
 70
     1
102
RTVSPropertyOp12
 70
     1
102
RTVSPropertyOp13
 70
     1
102
RTVSPropertyOp14
 70
     1
102
RTVSPropertyOp15
 70
     1
102
RTVSPropertyOp16
 70
     1
102
RTVSPropertyOp17
 70
     1
102
RTVSPropertyOp18
 70
     1
102
RTVSPropertyOp19
 70
     1
102
RTVSPropertyOp20
 70
     1
102
RTVSPropertyOp21
 70
     1
102
RTVSPropertyOp22
 70
     1
102
RTVSPropertyOp23
 70
     1
102
RTVSPropertyOp24
 70
     1
102
RTVSPropertyOp25
 70
     1
102
RTVSPropertyOp26
 70
     1
102
RTVSPropertyOp27
 70
     1
102
RTVSPropertyOp28
 70
     1
102
RTVSPropertyOp29
 70
     1
102
RTVSPropertyOp30
 70
     1
102
RTVSPropertyOp31
 70
     1
102
RTVSPropertyOp32
 70
     1
  0
XRECORD
  5
1C7
102
{ACAD_REACTORS
330
1C6
102
}
330
1C6
100
AcDbXrecord
280
     1
102
RTVSPropertyOp0
 70
     1
102
RTVSPropertyOp1
 70
     1
102
RTVSPropertyOp2
 70
     1
102
RTVSPropertyOp3
 70
     1
102
RTVSPropertyOp4
 70
     1
102
RTVSPropertyOp5
 70
     1
102
RTVSPropertyOp6
 70
     1
102
RTVSPropertyOp7
 70
     1
102
RTVSPropertyOp8
 70
     1
102
RTVSPropertyOp9
 70
     1
102
RTVSPropertyOp10
 70
     1
102
RTVSPropertyOp11
 70
     1
102
RTVSPropertyOp12
 70
     1
102
RTVSPropertyOp13
 70
     1
102
RTVSPropertyOp14
 70
     1
102
RTVSPropertyOp15
 70
     1
102
RTVSPropertyOp16
 70
     1
102
RTVSPropertyOp17
 70
     1
102
RTVSPropertyOp18
 70
     1
102
RTVSPropertyOp19
 70
     1
102
RTVSPropertyOp20
 70
     1
102
RTVSPropertyOp21
 70
     1
102
RTVSPropertyOp22
 70
     1
102
RTVSPropertyOp23
 70
     1
102
RTVSPropertyOp24
 70
     1
102
RTVSPropertyOp25
 70
     1
102
RTVSPropertyOp26
 70
     1
102
RTVSPropertyOp27
 70
     1
102
RTVSPropertyOp28
 70
     1
102
RTVSPropertyOp29
 70
     1
102
RTVSPropertyOp30
 70
     1
102
RTVSPropertyOp31
 70
     1
102
RTVSPropertyOp32
 70
     1
  0
XRECORD
  5
1DB
102
{ACAD_REACTORS
330
1DA
102
}
330
1DA
100
AcDbXrecord
280
     1
102
RTVSPropertyOp0
 70
     1
102
RTVSPropertyOp1
 70
     1
102
RTVSPropertyOp2
 70
     1
102
RTVSPropertyOp3
 70
     1
102
RTVSPropertyOp4
 70
     1
102
RTVSPropertyOp5
 70
     1
102
RTVSPropertyOp6
 70
     1
102
RTVSPropertyOp7
 70
     1
102
RTVSPropertyOp8
 70
     1
102
RTVSPropertyOp9
 70
     1
102
RTVSPropertyOp10
 70
     1
102
RTVSPropertyOp11
 70
     1
102
RTVSPropertyOp12
 70
     1
102
RTVSPropertyOp13
 70
     1
102
RTVSPropertyOp14
 70
     1
102
RTVSPropertyOp15
 70
     1
102
RTVSPropertyOp16
 70
     1
102
RTVSPropertyOp17
 70
     1
102
RTVSPropertyOp18
 70
     1
102
RTVSPropertyOp19
 70
     1
102
RTVSPropertyOp20
 70
     1
102
RTVSPropertyOp21
 70
     1
102
RTVSPropertyOp22
 70
     1
102
RTVSPropertyOp23
 70
     1
102
RTVSPropertyOp24
 70
     1
102
RTVSPropertyOp25
 70
     1
102
RTVSPropertyOp26
 70
     1
102
RTVSPropertyOp27
 70
     1
102
RTVSPropertyOp28
 70
     1
102
RTVSPropertyOp29
 70
     1
102
RTVSPropertyOp30
 70
     1
102
RTVSPropertyOp31
 70
     1
102
RTVSPropertyOp32
 70
     1
  0
XRECORD
  5
1D1
102
{ACAD_REACTORS
330
1D0
102
}
330
1D0
100
AcDbXrecord
280
     1
102
RTVSPropertyOp0
 70
     1
102
RTVSPropertyOp1
 70
     1
102
RTVSPropertyOp2
 70
     1
102
RTVSPropertyOp3
 70
     1
102
RTVSPropertyOp4
 70
     1
102
RTVSPropertyOp5
 70
     1
102
RTVSPropertyOp6
 70
     1
102
RTVSPropertyOp7
 70
     1
102
RTVSPropertyOp8
 70
     1
102
RTVSPropertyOp9
 70
     1
102
RTVSPropertyOp10
 70
     1
102
RTVSPropertyOp11
 70
     1
102
RTVSPropertyOp12
 70
     1
102
RTVSPropertyOp13
 70
     1
102
RTVSPropertyOp14
 70
     1
102
RTVSPropertyOp15
 70
     1
102
RTVSPropertyOp16
 70
     1
102
RTVSPropertyOp17
 70
     1
102
RTVSPropertyOp18
 70
     1
102
RTVSPropertyOp19
 70
     1
102
RTVSPropertyOp20
 70
     1
102
RTVSPropertyOp21
 70
     1
102
RTVSPropertyOp22
 70
     1
102
RTVSPropertyOp23
 70
     1
102
RTVSPropertyOp24
 70
     1
102
RTVSPropertyOp25
 70
     1
102
RTVSPropertyOp26
 70
     1
102
RTVSPropertyOp27
 70
     1
102
RTVSPropertyOp28
 70
     1
102
RTVSPropertyOp29
 70
     1
102
RTVSPropertyOp30
 70
     1
102
RTVSPropertyOp31
 70
     1
102
RTVSPropertyOp32
 70
     1
  0
XRECORD
  5
1D9
102
{ACAD_REACTORS
330
1D8
102
}
330
1D8
100
AcDbXrecord
280
     1
102
RTVSPropertyOp0
 70
     1
102
RTVSPropertyOp1
 70
     1
102
RTVSPropertyOp2
 70
     1
102
RTVSPropertyOp3
 70
     1
102
RTVSPropertyOp4
 70
     1
102
RTVSPropertyOp5
 70
     1
102
RTVSPropertyOp6
 70
     1
102
RTVSPropertyOp7
 70
     1
102
RTVSPropertyOp8
 70
     1
102
RTVSPropertyOp9
 70
     1
102
RTVSPropertyOp10
 70
     1
102
RTVSPropertyOp11
 70
     1
102
RTVSPropertyOp12
 70
     1
102
RTVSPropertyOp13
 70
     1
102
RTVSPropertyOp14
 70
     1
102
RTVSPropertyOp15
 70
     1
102
RTVSPropertyOp16
 70
     1
102
RTVSPropertyOp17
 70
     1
102
RTVSPropertyOp18
 70
     1
102
RTVSPropertyOp19
 70
     1
102
RTVSPropertyOp20
 70
     1
102
RTVSPropertyOp21
 70
     1
102
RTVSPropertyOp22
 70
     1
102
RTVSPropertyOp23
 70
     1
102
RTVSPropertyOp24
 70
     1
102
RTVSPropertyOp25
 70
     1
102
RTVSPropertyOp26
 70
     1
102
RTVSPropertyOp27
 70
     1
102
RTVSPropertyOp28
 70
     1
102
RTVSPropertyOp29
 70
     1
102
RTVSPropertyOp30
 70
     1
102
RTVSPropertyOp31
 70
     1
102
RTVSPropertyOp32
 70
     1
  0
ENDSEC
  0
EOF
