  0
SECTION
  2
HEADER
  9
$ACADVER
  1
AC1021
  9
$ACADMAINTVER
 70
    53
  9
$DWGCODEPAGE
  3
ANSI_1252
  9
$LASTSAVEDBY
  1
Dallas Williams
  9
$INSBASE
 10
0.0
 20
0.0
 30
0.0
  9
$EXTMIN
 10
-644.3578174597648
 20
-7446.678051687367
 30
0.0
  9
$EXTMAX
 10
8261.594831344778
 20
4835.622039572035
 30
0.0
  9
$LIMMIN
 10
0.0
 20
0.0
  9
$LIMMAX
 10
12.0
 20
9.0
  9
$ORTHOMODE
 70
     0
  9
$REGENMODE
 70
     1
  9
$FILLMODE
 70
     1
  9
$QTEXTMODE
 70
     0
  9
$MIRRTEXT
 70
     0
  9
$LTSCALE
 40
1.0
  9
$ATTMODE
 70
     1
  9
$TEXTSIZE
 40
2.0
  9
$TRACEWID
 40
0.05
  9
$TEXTSTYLE
  7
2mm
  9
$CLAYER
  8
0
  9
$CELTYPE
  6
ByLayer
  9
$CECOLOR
 62
   256
  9
$CELTSCALE
 40
1.0
  9
$DISPSILH
 70
     0
  9
$DIMSCALE
 40
1.0
  9
$DIMASZ
 40
2.0
  9
$DIMEXO
 40
0.0
  9
$DIMDLI
 40
50.0
  9
$DIMRND
 40
0.0
  9
$DIMDLE
 40
0.0
  9
$DIMEXE
 40
0.0
  9
$DIMTP
 40
0.0
  9
$DIMTM
 40
0.0
  9
$DIMTXT
 40
2.0
  9
$DIMCEN
 40
0.09
  9
$DIMTSZ
 40
0.0
  9
$DIMTOL
 70
     0
  9
$DIMLIM
 70
     0
  9
$DIMTIH
 70
     0
  9
$DIMTOH
 70
     0
  9
$DIMSE1
 70
     0
  9
$DIMSE2
 70
     0
  9
$DIMTAD
 70
     1
  9
$DIMZIN
 70
     0
  9
$DIMBLK
  1
tick1
  9
$DIMASO
 70
     1
  9
$DIMSHO
 70
     1
  9
$DIMPOST
  1

  9
$DIMAPOST
  1

  9
$DIMALT
 70
     0
  9
$DIMALTD
 70
     2
  9
$DIMALTF
 40
25.4
  9
$DIMLFAC
 40
1.0
  9
$DIMTOFL
 70
     0
  9
$DIMTVP
 40
0.0
  9
$DIMTIX
 70
     0
  9
$DIMSOXD
 70
     0
  9
$DIMSAH
 70
     0
  9
$DIMBLK1
  1

  9
$DIMBLK2
  1

  9
$DIMSTYLE
  2
3D 2.0mm
  9
$DIMCLRD
 70
     0
  9
$DIMCLRE
 70
     0
  9
$DIMCLRT
 70
     0
  9
$DIMTFAC
 40
1.0
  9
$DIMGAP
 40
1.0
  9
$DIMJUST
 70
     0
  9
$DIMSD1
 70
     0
  9
$DIMSD2
 70
     0
  9
$DIMTOLJ
 70
     1
  9
$DIMTZIN
 70
     0
  9
$DIMALTZ
 70
     0
  9
$DIMALTTZ
 70
     0
  9
$DIMUPT
 70
     0
  9
$DIMDEC
 70
     0
  9
$DIMTDEC
 70
     0
  9
$DIMALTU
 70
     2
  9
$DIMALTTD
 70
     2
  9
$DIMTXSTY
  7
2mm
  9
$DIMAUNIT
 70
     0
  9
$DIMADEC
 70
     1
  9
$DIMALTRND
 40
0.0
  9
$DIMAZIN
 70
     0
  9
$DIMDSEP
 70
    46
  9
$DIMATFIT
 70
     3
  9
$DIMFRAC
 70
     0
  9
$DIMLDRBLK
  1

  9
$DIMLUNIT
 70
     2
  9
$DIMLWD
 70
    -2
  9
$DIMLWE
 70
    -2
  9
$DIMTMOVE
 70
     0
  9
$DIMFXL
 40
1.0
  9
$DIMFXLON
 70
     1
  9
$DIMJOGANG
 40
0.7853981633974483
  9
$DIMTFILL
 70
     0
  9
$DIMTFILLCLR
 70
     0
  9
$DIMARCSYM
 70
     0
  9
$DIMLTYPE
  6

  9
$DIMLTEX1
  6

  9
$DIMLTEX2
  6

  9
$LUNITS
 70
     2
  9
$LUPREC
 70
     0
  9
$SKETCHINC
 40
0.1
  9
$FILLETRAD
 40
0.0
  9
$AUNITS
 70
     0
  9
$AUPREC
 70
     1
  9
$MENU
  1
.
  9
$ELEVATION
 40
0.0
  9
$PELEVATION
 40
0.0
  9
$THICKNESS
 40
0.0
  9
$LIMCHECK
 70
     0
  9
$CHAMFERA
 40
0.0
  9
$CHAMFERB
 40
0.0
  9
$CHAMFERC
 40
0.0
  9
$CHAMFERD
 40
0.0
  9
$SKPOLY
 70
     0
  9
$TDCREATE
 40
2456332.398470405
  9
$TDUCREATE
 40
2456331.898470405
  9
$TDUPDATE
 40
2456554.815717951
  9
$TDUUPDATE
 40
2456554.315717951
  9
$TDINDWG
 40
0.2400881597
  9
$TDUSRTIMER
 40
0.2400881597
  9
$USRTIMER
 70
     1
  9
$ANGBASE
 50
0.0
  9
$ANGDIR
 70
     0
  9
$PDMODE
 70
    35
  9
$PDSIZE
 40
0.0
  9
$PLINEWID
 40
0.0
  9
$SPLFRAME
 70
     0
  9
$SPLINETYPE
 70
     6
  9
$SPLINESEGS
 70
     8
  9
$HANDSEED
  5
B990
  9
$SURFTAB1
 70
     6
  9
$SURFTAB2
 70
     6
  9
$SURFTYPE
 70
     6
  9
$SURFU
 70
     6
  9
$SURFV
 70
     6
  9
$UCSBASE
  2

  9
$UCSNAME
  2

  9
$UCSORG
 10
0.0
 20
0.0
 30
0.0
  9
$UCSXDIR
 10
1.0
 20
0.0
 30
0.0
  9
$UCSYDIR
 10
0.0
 20
1.0
 30
0.0
  9
$UCSORTHOREF
  2

  9
$UCSORTHOVIEW
 70
     0
  9
$UCSORGTOP
 10
0.0
 20
0.0
 30
0.0
  9
$UCSORGBOTTOM
 10
0.0
 20
0.0
 30
0.0
  9
$UCSORGLEFT
 10
0.0
 20
0.0
 30
0.0
  9
$UCSORGRIGHT
 10
0.0
 20
0.0
 30
0.0
  9
$UCSORGFRONT
 10
0.0
 20
0.0
 30
0.0
  9
$UCSORGBACK
 10
0.0
 20
0.0
 30
0.0
  9
$PUCSBASE
  2

  9
$PUCSNAME
  2

  9
$PUCSORG
 10
0.0
 20
0.0
 30
0.0
  9
$PUCSXDIR
 10
1.0
 20
0.0
 30
0.0
  9
$PUCSYDIR
 10
0.0
 20
1.0
 30
0.0
  9
$PUCSORTHOREF
  2

  9
$PUCSORTHOVIEW
 70
     0
  9
$PUCSORGTOP
 10
0.0
 20
0.0
 30
0.0
  9
$PUCSORGBOTTOM
 10
0.0
 20
0.0
 30
0.0
  9
$PUCSORGLEFT
 10
0.0
 20
0.0
 30
0.0
  9
$PUCSORGRIGHT
 10
0.0
 20
0.0
 30
0.0
  9
$PUCSORGFRONT
 10
0.0
 20
0.0
 30
0.0
  9
$PUCSORGBACK
 10
0.0
 20
0.0
 30
0.0
  9
$USERI1
 70
     0
  9
$USERI2
 70
     0
  9
$USERI3
 70
     0
  9
$USERI4
 70
     0
  9
$USERI5
 70
     0
  9
$USERR1
 40
0.0
  9
$USERR2
 40
0.0
  9
$USERR3
 40
0.0
  9
$USERR4
 40
0.0
  9
$USERR5
 40
0.0
  9
$WORLDVIEW
 70
     1
  9
$SHADEDGE
 70
     3
  9
$SHADEDIF
 70
    70
  9
$TILEMODE
 70
     1
  9
$MAXACTVP
 70
    64
  9
$PINSBASE
 10
0.0
 20
0.0
 30
0.0
  9
$PLIMCHECK
 70
     0
  9
$PEXTMIN
 10
1.000000000000000E+20
 20
1.000000000000000E+20
 30
1.000000000000000E+20
  9
$PEXTMAX
 10
-1.000000000000000E+20
 20
-1.000000000000000E+20
 30
-1.000000000000000E+20
  9
$PLIMMIN
 10
-0.7937499880790711
 20
-0.7937499880790711
  9
$PLIMMAX
 10
296.2062500119209
 20
209.2062500119209
  9
$UNITMODE
 70
     0
  9
$VISRETAIN
 70
     1
  9
$PLINEGEN
 70
     0
  9
$PSLTSCALE
 70
     1
  9
$TREEDEPTH
 70
  3020
  9
$CMLSTYLE
  2
Standard
  9
$CMLJUST
 70
     0
  9
$CMLSCALE
 40
1.0
  9
$PROXYGRAPHICS
 70
     1
  9
$MEASUREMENT
 70
     0
  9
$CELWEIGHT
370
    -1
  9
$ENDCAPS
280
     0
  9
$JOINSTYLE
280
     0
  9
$LWDISPLAY
290
     0
  9
$INSUNITS
 70
     4
  9
$HYPERLINKBASE
  1

  9
$STYLESHEET
  1

  9
$XEDIT
290
     1
  9
$CEPSNTYPE
380
     0
  9
$PSTYLEMODE
290
     1
  9
$FINGERPRINTGUID
  2
{C2DBB197-A9E4-43FA-9C69-81C1E1A60DB9}
  9
$VERSIONGUID
  2
{9B20CA6E-D51D-4BDA-8AFE-7CB208F71825}
  9
$EXTNAMES
290
     1
  9
$PSVPSCALE
 40
0.0
  9
$OLESTARTUP
290
     0
  9
$SORTENTS
280
   127
  9
$INDEXCTL
280
     0
  9
$HIDETEXT
280
     0
  9
$XCLIPFRAME
290
     0
  9
$HALOGAP
280
     0
  9
$OBSCOLOR
 70
   257
  9
$OBSLTYPE
280
     0
  9
$INTERSECTIONDISPLAY
280
     0
  9
$INTERSECTIONCOLOR
 70
   257
  9
$DIMASSOC
280
     1
  9
$PROJECTNAME
  1

  9
$CAMERADISPLAY
290
     0
  9
$LENSLENGTH
 40
50.0
  9
$CAMERAHEIGHT
 40
0.0
  9
$STEPSPERSEC
 40
2.0
  9
$STEPSIZE
 40
6.0
  9
$3DDWFPREC
 40
2.0
  9
$PSOLWIDTH
 40
0.25
  9
$PSOLHEIGHT
 40
4.0
  9
$LOFTANG1
 40
1.570796326794896
  9
$LOFTANG2
 40
1.570796326794896
  9
$LOFTMAG1
 40
0.0
  9
$LOFTMAG2
 40
0.0
  9
$LOFTPARAM
 70
     7
  9
$LOFTNORMALS
280
     1
  9
$LATITUDE
 40
37.795
  9
$LONGITUDE
 40
-122.394
  9
$NORTHDIRECTION
 40
0.0
  9
$TIMEZONE
 70
 -8000
  9
$LIGHTGLYPHDISPLAY
280
     1
  9
$TILEMODELIGHTSYNCH
280
     1
  9
$CMATERIAL
347
217
  9
$SOLIDHIST
280
     0
  9
$SHOWHIST
280
     1
  9
$DWFFRAME
280
     2
  9
$DGNFRAME
280
     0
  9
$REALWORLDSCALE
290
     1
  9
$INTERFERECOLOR
 62
     1
  9
$INTERFEREOBJVS
345
224
  9
$INTERFEREVPVS
346
221
  9
$CSHADOW
280
     0
  9
$SHADOWPLANELOCATION
 40
0.0
  0
ENDSEC
  0
SECTION
  2
CLASSES
  0
CLASS
  1
ACDBDICTIONARYWDFLT
  2
AcDbDictionaryWithDefault
  3
ObjectDBX Classes
 90
        0
 91
        1
280
     0
281
     0
  0
CLASS
  1
MATERIAL
  2
AcDbMaterial
  3
ObjectDBX Classes
 90
     1153
 91
        3
280
     0
281
     0
  0
CLASS
  1
VISUALSTYLE
  2
AcDbVisualStyle
  3
ObjectDBX Classes
 90
     4095
 91
       16
280
     0
281
     0
  0
CLASS
  1
TABLESTYLE
  2
AcDbTableStyle
  3
ObjectDBX Classes
 90
     4095
 91
        3
280
     0
281
     0
  0
CLASS
  1
DICTIONARYVAR
  2
AcDbDictionaryVar
  3
ObjectDBX Classes
 90
        0
 91
        8
280
     0
281
     0
  0
CLASS
  1
SCALE
  2
AcDbScale
  3
ObjectDBX Classes
 90
     1153
 91
       84
280
     0
281
     0
  0
CLASS
  1
MLEADERSTYLE
  2
AcDbMLeaderStyle
  3
ACDB_MLEADERSTYLE_CLASS
 90
     4095
 91
        2
280
     0
281
     0
  0
CLASS
  1
CELLSTYLEMAP
  2
AcDbCellStyleMap
  3
ObjectDBX Classes
 90
     1152
 91
        9
280
     0
281
     0
  0
CLASS
  1
ACDB_TEXTOBJECTCONTEXTDATA_CLASS
  2
AcDbTextObjectContextData
  3
ObjectDBX Classes
 90
     1153
 91
        1
280
     0
281
     0
  0
CLASS
  1
ACDB_ALDIMOBJECTCONTEXTDATA_CLASS
  2
AcDbAlignedDimensionObjectContextData
  3
ObjectDBX Classes
 90
     1153
 91
        0
280
     0
281
     0
  0
CLASS
  1
MULTILEADER
  2
AcDbMLeader
  3
ACDB_MLEADER_CLASS
 90
     1025
 91
        0
280
     0
281
     1
  0
CLASS
  1
ACDB_MLEADEROBJECTCONTEXTDATA_CLASS
  2
AcDbMLeaderObjectContextData
  3
ObjectDBX Classes
 90
     1153
 91
        0
280
     0
281
     0
  0
CLASS
  1
SORTENTSTABLE
  2
AcDbSortentsTable
  3
ObjectDBX Classes
 90
        0
 91
        5
280
     0
281
     0
  0
CLASS
  1
AEC_REFEDIT_STATUS_TRACKER
  2
AecDbRefEditStatusTracker
  3
AecArchBase50|Product Desc: Autodesk Architectural Desktop 2007 |Company: Autodesk,Inc. |WEB Address: www.autodesk.com
 90
      129
 91
        0
280
     0
281
     0
  0
CLASS
  1
NPOCOLLECTION
  2
AcDbImpNonPersistentObjectsCollection
  3
ObjectDBX Classes
 90
     1153
 91
        1
280
     0
281
     0
  0
CLASS
  1
ACAD_EVALUATION_GRAPH
  2
AcDbEvalGraph
  3
ObjectDBX Classes
 90
     1153
 91
        1
280
     0
281
     0
  0
CLASS
  1
BLOCKPOLARPARAMETER
  2
AcDbBlockPolarParameter
  3
ObjectDBX Classes
 90
     1153
 91
        0
280
     0
281
     0
  0
CLASS
  1
BLOCKPOLARGRIP
  2
AcDbBlockPolarGrip
  3
ObjectDBX Classes
 90
     1153
 91
        0
280
     0
281
     0
  0
CLASS
  1
BLOCKGRIPLOCATIONCOMPONENT
  2
AcDbBlockGripExpr
  3
ObjectDBX Classes
 90
     1153
 91
        2
280
     0
281
     0
  0
CLASS
  1
BLOCKPOLARSTRETCHACTION
  2
AcDbBlockPolarStretchAction
  3
ObjectDBX Classes
 90
     1153
 91
        0
280
     0
281
     0
  0
CLASS
  1
ACDB_DYNAMICBLOCKPURGEPREVENTER_VERSION
  2
AcDbDynamicBlockPurgePreventer
  3
ObjectDBX Classes
 90
     1153
 91
        1
280
     0
281
     0
  0
CLASS
  1
BLOCKROTATIONPARAMETER
  2
AcDbBlockRotationParameter
  3
ObjectDBX Classes
 90
     1153
 91
        0
280
     0
281
     0
  0
CLASS
  1
BLOCKROTATIONGRIP
  2
AcDbBlockRotationGrip
  3
ObjectDBX Classes
 90
     1153
 91
        0
280
     0
281
     0
  0
CLASS
  1
BLOCKFLIPPARAMETER
  2
AcDbBlockFlipParameter
  3
ObjectDBX Classes
 90
     1153
 91
        0
280
     0
281
     0
  0
CLASS
  1
BLOCKFLIPGRIP
  2
AcDbBlockFlipGrip
  3
ObjectDBX Classes
 90
     1153
 91
        0
280
     0
281
     0
  0
CLASS
  1
BLOCKROTATEACTION
  2
AcDbBlockRotateAction
  3
ObjectDBX Classes
 90
     1153
 91
        0
280
     0
281
     0
  0
CLASS
  1
BLOCKFLIPACTION
  2
AcDbBlockFlipAction
  3
ObjectDBX Classes
 90
     1153
 91
        0
280
     0
281
     0
  0
CLASS
  1
BLOCKLINEARPARAMETER
  2
AcDbBlockLinearParameter
  3
ObjectDBX Classes
 90
     1153
 91
        1
280
     0
281
     0
  0
CLASS
  1
BLOCKLINEARGRIP
  2
AcDbBlockLinearGrip
  3
ObjectDBX Classes
 90
     1153
 91
        1
280
     0
281
     0
  0
CLASS
  1
BLOCKSTRETCHACTION
  2
AcDbBlockStretchAction
  3
ObjectDBX Classes
 90
     1153
 91
        1
280
     0
281
     0
  0
CLASS
  1
BLOCKVISIBILITYPARAMETER
  2
AcDbBlockVisibilityParameter
  3
ObjectDBX Classes
 90
     1153
 91
        0
280
     0
281
     0
  0
CLASS
  1
BLOCKVISIBILITYGRIP
  2
AcDbBlockVisibilityGrip
  3
ObjectDBX Classes
 90
     1153
 91
        0
280
     0
281
     0
  0
CLASS
  1
BLOCKPOINTPARAMETER
  2
AcDbBlockPointParameter
  3
ObjectDBX Classes
 90
     1153
 91
        0
280
     0
281
     0
  0
CLASS
  1
BLOCKMOVEACTION
  2
AcDbBlockMoveAction
  3
ObjectDBX Classes
 90
     1153
 91
        0
280
     0
281
     0
  0
CLASS
  1
ACDB_BLOCKREPRESENTATION_DATA
  2
AcDbBlockRepresentationData
  3
ObjectDBX Classes
 90
     1153
 91
        0
280
     0
281
     0
  0
CLASS
  1
ACDB_BLKREFOBJECTCONTEXTDATA_CLASS
  2
AcDbBlkRefObjectContextData
  3
ObjectDBX Classes
 90
     1153
 91
        0
280
     0
281
     0
  0
CLASS
  1
ACDB_MTEXTATTRIBUTEOBJECTCONTEXTDATA_CLASS
  2
AcDbMTextAttributeObjectContextData
  3
ObjectDBX Classes
 90
     1153
 91
        0
280
     0
281
     0
  0
CLASS
  1
AEC_VARS_DWG_SETUP
  2
AecDbVarsDwgSetup
  3
AecBase50|Product Desc: Autodesk Architectural Desktop 2007 |Company: Autodesk,Inc. |WEB Address: www.autodesk.com
 90
      129
 91
        0
280
     0
281
     0
  0
CLASS
  1
AEC_DISP_REP_CONFIG
  2
AecDbDispRepConfig
  3
AecBase50|Product Desc: Autodesk Architectural Desktop 2007 |Company: Autodesk,Inc. |WEB Address: www.autodesk.com
 90
      129
 91
        0
280
     0
281
     0
  0
CLASS
  1
AEC_DISP_REP_SET
  2
AecDbDispRepSet
  3
AecBase50|Product Desc: Autodesk Architectural Desktop 2007 |Company: Autodesk,Inc. |WEB Address: www.autodesk.com
 90
      129
 91
        0
280
     0
281
     0
  0
CLASS
  1
AEC_DISP_REP_2D_SECTION
  2
AecDbDispRep2dSection
  3
AecBase50|Product Desc: Autodesk Architectural Desktop 2007 |Company: Autodesk,Inc. |WEB Address: www.autodesk.com
 90
      129
 91
        0
280
     0
281
     0
  0
CLASS
  1
AEC_DISP_REP_ANCHOR_BUB_TO_GRID
  2
AecDbDispRepAnchorBubToGrid
  3
AecStructureBase50|Product Desc: Autodesk Architectural Desktop 2007 |Company: Autodesk,Inc. |WEB Address: www.autodesk.com
 90
      129
 91
        0
280
     0
281
     0
  0
CLASS
  1
AEC_DISP_REP_ANCHOR_BUB_TO_GRID_MODEL
  2
AecDbDispRepAnchorBubToGridMdl
  3
AecStructureBase50|Product Desc: Autodesk Architectural Desktop 2007 |Company: Autodesk,Inc. |WEB Address: www.autodesk.com
 90
      129
 91
        0
280
     0
281
     0
  0
CLASS
  1
AEC_DISP_REP_ANCHOR_ENT_TO_NODE
  2
AecDbDispRepAnchorEntToNode
  3
AecBaseEx50|Product Desc: Autodesk Architectural Desktop 2007 |Company: Autodesk,Inc. |WEB Address: www.autodesk.com
 90
      129
 91
        0
280
     0
281
     0
  0
CLASS
  1
AEC_DISP_REP_ANCHOR_TAG_TO_ENT
  2
AecDbDispRepAnchorTagToEnt
  3
AecScheduleData50|Product Desc: Autodesk Architectural Desktop 2007 |Company: Autodesk,Inc. |WEB Address: www.autodesk.com
 90
      129
 91
        0
280
     0
281
     0
  0
CLASS
  1
AEC_DISP_REP_BDG_ELEVLINE_MODEL
  2
AecDbDispRepBdgElevLineModel
  3
AecArchBase50|Product Desc: Autodesk Architectural Desktop 2007 |Company: Autodesk,Inc. |WEB Address: www.autodesk.com
 90
      129
 91
        0
280
     0
281
     0
  0
CLASS
  1
AEC_DISP_REP_BDG_SECTIONLINE_PLAN
  2
AecDbDispRepBdgElevLinePlan
  3
AecArchBase50|Product Desc: Autodesk Architectural Desktop 2007 |Company: Autodesk,Inc. |WEB Address: www.autodesk.com
 90
      129
 91
        0
280
     0
281
     0
  0
CLASS
  1
AEC_DISP_REP_BDG_SECTIONLINE_MODEL
  2
AecDbDispRepBdgSectionLineModel
  3
AecArchBase50|Product Desc: Autodesk Architectural Desktop 2007 |Company: Autodesk,Inc. |WEB Address: www.autodesk.com
 90
      129
 91
        0
280
     0
281
     0
  0
CLASS
  1
AEC_DISP_REP_BDG_SECTIONLINE_PLAN
  2
AecDbDispRepBdgSectionLinePlan
  3
AecArchBase50|Product Desc: Autodesk Architectural Desktop 2007 |Company: Autodesk,Inc. |WEB Address: www.autodesk.com
 90
      129
 91
        0
280
     0
281
     0
  0
CLASS
  1
AEC_DISP_REP_BDG_SECTION_SUBDIV
  2
AecDbDispRepBdgSectionSubDiv
  3
AecArchBase50|Product Desc: Autodesk Architectural Desktop 2007 |Company: Autodesk,Inc. |WEB Address: www.autodesk.com
 90
      129
 91
        0
280
     0
281
     0
  0
CLASS
  1
AEC_DISP_REP_CEILING_GRID
  2
AecDbDispRepCeilingGrid
  3
AecArchBase50|Product Desc: Autodesk Architectural Desktop 2007 |Company: Autodesk,Inc. |WEB Address: www.autodesk.com
 90
      893
 91
        0
280
     0
281
     0
  0
CLASS
  1
AEC_DISP_REP_CEILING_GRID_MODEL
  2
AecDbDispRepCeilingGridModel
  3
AecArchBase50|Product Desc: Autodesk Architectural Desktop 2007 |Company: Autodesk,Inc. |WEB Address: www.autodesk.com
 90
      129
 91
        0
280
     0
281
     0
  0
CLASS
  1
AEC_DISP_REP_CEILING_GRID_RCP
  2
AecDbDispRepCeilingGridRcp
  3
AecArchBase50|Product Desc: Autodesk Architectural Desktop 2007 |Company: Autodesk,Inc. |WEB Address: www.autodesk.com
 90
      129
 91
        0
280
     0
281
     0
  0
CLASS
  1
AEC_DISP_REP_CLIP_VOLUME_MODEL
  2
AecDbDispRepClipVolModel
  3
AecBase50|Product Desc: Autodesk Architectural Desktop 2007 |Company: Autodesk,Inc. |WEB Address: www.autodesk.com
 90
      129
 91
        0
280
     0
281
     0
  0
CLASS
  1
AEC_DISP_REP_CLIP_VOLUME_PLAN
  2
AecDbDispRepClipVolPlan
  3
AecBase50|Product Desc: Autodesk Architectural Desktop 2007 |Company: Autodesk,Inc. |WEB Address: www.autodesk.com
 90
      129
 91
        0
280
     0
281
     0
  0
CLASS
  1
AEC_DISP_REP_CLIP_VOLUME_RESULT_SUBDIV
  2
AecDbDispRepClipVolResSubDiv
  3
AecBase50|Product Desc: Autodesk Architectural Desktop 2007 |Company: Autodesk,Inc. |WEB Address: www.autodesk.com
 90
      129
 91
        0
280
     0
281
     0
  0
CLASS
  1
AEC_DISP_REP_CLIP_VOLUME_RESULT
  2
AecDbDispRepClipVolResult
  3
AecBase50|Product Desc: Autodesk Architectural Desktop 2007 |Company: Autodesk,Inc. |WEB Address: www.autodesk.com
 90
      129
 91
        0
280
     0
281
     0
  0
CLASS
  1
AEC_DISP_REP_COLUMN_GRID
  2
AecDbDispRepColumnGrid
  3
AecStructureBase50|Product Desc: Autodesk Architectural Desktop 2007 |Company: Autodesk,Inc. |WEB Address: www.autodesk.com
 90
      129
 91
        0
280
     0
281
     0
  0
CLASS
  1
AEC_DISP_REP_COLUMN_GRID_MODEL
  2
AecDbDispRepColumnGridModel
  3
AecStructureBase50|Product Desc: Autodesk Architectural Desktop 2007 |Company: Autodesk,Inc. |WEB Address: www.autodesk.com
 90
      129
 91
        0
280
     0
281
     0
  0
CLASS
  1
AEC_DISP_REP_CURTAIN_WALL_LAYOUT_MODEL
  2
AecDbDispRepCurtainWallLayoutModel
  3
AecArchBase50|Product Desc: Autodesk Architectural Desktop 2007 |Company: Autodesk,Inc. |WEB Address: www.autodesk.com
 90
      129
 91
        0
280
     0
281
     0
  0
CLASS
  1
AEC_DISP_REP_CURTAIN_WALL_LAYOUT_PLAN
  2
AecDbDispRepCurtainWallLayoutPlan
  3
AecArchBase50|Product Desc: Autodesk Architectural Desktop 2007 |Company: Autodesk,Inc. |WEB Address: www.autodesk.com
 90
      129
 91
        0
280
     0
281
     0
  0
CLASS
  1
AEC_DISP_REP_CURTAIN_WALL_UNIT_MODEL
  2
AecDbDispRepCurtainWallUnitModel
  3
AecArchBase50|Product Desc: Autodesk Architectural Desktop 2007 |Company: Autodesk,Inc. |WEB Address: www.autodesk.com
 90
      129
 91
        0
280
     0
281
     0
  0
CLASS
  1
AEC_DISP_REP_CURTAIN_WALL_UNIT_PLAN
  2
AecDbDispRepCurtainWallUnitPlan
  3
AecArchBase50|Product Desc: Autodesk Architectural Desktop 2007 |Company: Autodesk,Inc. |WEB Address: www.autodesk.com
 90
      129
 91
        0
280
     0
281
     0
  0
CLASS
  1
AEC_DB_DISP_REP_DIM_GROUP_PLAN
  2
AecDbDispRepDimGroupPlan
  3
AecArchDACHBase50|Product Desc: Autodesk Architectural Desktop 2007 |Company: Autodesk,Inc. |WEB Address: www.autodesk.com
 90
      129
 91
        0
280
     0
281
     0
  0
CLASS
  1
AEC_DISP_REP_DISPLAYTHEME
  2
AecDbDispRepDisplayTheme
  3
AecBase50|Product Desc: Autodesk Architectural Desktop 2007 |Company: Autodesk,Inc. |WEB Address: www.autodesk.com
 90
      129
 91
        0
280
     0
281
     0
  0
CLASS
  1
AEC_DISP_REP_DOOR_MODEL
  2
AecDbDispRepDoorModel
  3
AecArchBase50|Product Desc: Autodesk Architectural Desktop 2007 |Company: Autodesk,Inc. |WEB Address: www.autodesk.com
 90
      129
 91
        0
280
     0
281
     0
  0
CLASS
  1
AEC_DISP_REP_DOOR_NOMINAL
  2
AecDbDispRepDoorNominal
  3
AecArchBase50|Product Desc: Autodesk Architectural Desktop 2007 |Company: Autodesk,Inc. |WEB Address: www.autodesk.com
 90
      129
 91
        0
280
     0
281
     0
  0
CLASS
  1
AEC_DISP_REP_DOOR_PLAN
  2
AecDbDispRepDoorPlan
  3
AecArchBase50|Product Desc: Autodesk Architectural Desktop 2007 |Company: Autodesk,Inc. |WEB Address: www.autodesk.com
 90
      129
 91
        0
280
     0
281
     0
  0
CLASS
  1
AEC_DISP_REP_EDITINPLACEPROFILE
  2
AecDbDispRepEditInPlaceProfile
  3
AecBase50|Product Desc: Autodesk Architectural Desktop 2007 |Company: Autodesk,Inc. |WEB Address: www.autodesk.com
 90
      129
 91
        0
280
     0
281
     0
  0
CLASS
  1
AEC_DISP_REP_ENT_REF
  2
AecDbDispRepEntRef
  3
AecBase50|Product Desc: Autodesk Architectural Desktop 2007 |Company: Autodesk,Inc. |WEB Address: www.autodesk.com
 90
      129
 91
        0
280
     0
281
     0
  0
CLASS
  1
AEC_DISP_REP_LAYOUT_CURVE
  2
AecDbDispRepLayoutCurve
  3
AecBase50|Product Desc: Autodesk Architectural Desktop 2007 |Company: Autodesk,Inc. |WEB Address: www.autodesk.com
 90
      129
 91
        0
280
     0
281
     0
  0
CLASS
  1
AEC_DISP_REP_LAYOUT_GRID2D
  2
AecDbDispRepLayoutGrid2d
  3
AecBase50|Product Desc: Autodesk Architectural Desktop 2007 |Company: Autodesk,Inc. |WEB Address: www.autodesk.com
 90
      129
 91
        0
280
     0
281
     0
  0
CLASS
  1
AEC_DISP_REP_LAYOUT_GRID3D
  2
AecDbDispRepLayoutGrid3d
  3
AecBase50|Product Desc: Autodesk Architectural Desktop 2007 |Company: Autodesk,Inc. |WEB Address: www.autodesk.com
 90
      129
 91
        0
280
     0
281
     0
  0
CLASS
  1
AEC_DISP_REP_MASKBLOCK_REF
  2
AecDbDispRepMaskBlockRef
  3
AecBase50|Product Desc: Autodesk Architectural Desktop 2007 |Company: Autodesk,Inc. |WEB Address: www.autodesk.com
 90
      129
 91
        0
280
     0
281
     0
  0
CLASS
  1
AEC_DISP_REP_MASKBLOCK_REF_RCP
  2
AecDbDispRepMaskBlockRefRcp
  3
AecArchBase50|Product Desc: Autodesk Architectural Desktop 2007 |Company: Autodesk,Inc. |WEB Address: www.autodesk.com
 90
      129
 91
        0
280
     0
281
     0
  0
CLASS
  1
AEC_DISP_REP_MASS_ELEM_MODEL
  2
AecDbDispRepMassElemModel
  3
AecBaseEx50|Product Desc: Autodesk Architectural Desktop 2007 |Company: Autodesk,Inc. |WEB Address: www.autodesk.com
 90
      129
 91
        0
280
     0
281
     0
  0
CLASS
  1
AEC_DISP_REP_MASS_ELEM_SCHEM
  2
AecDbDispRepMassElemSchem
  3
AecBaseEx50|Product Desc: Autodesk Architectural Desktop 2007 |Company: Autodesk,Inc. |WEB Address: www.autodesk.com
 90
      129
 91
        0
280
     0
281
     0
  0
CLASS
  1
AEC_DISP_REP_MASS_GROUP_MODEL
  2
AecDbDispRepMassGroupModel
  3
AecBaseEx50|Product Desc: Autodesk Architectural Desktop 2007 |Company: Autodesk,Inc. |WEB Address: www.autodesk.com
 90
      129
 91
        0
280
     0
281
     0
  0
CLASS
  1
AEC_DISP_REP_MASS_GROUP_PLAN
  2
AecDbDispRepMassGroupPlan
  3
AecBaseEx50|Product Desc: Autodesk Architectural Desktop 2007 |Company: Autodesk,Inc. |WEB Address: www.autodesk.com
 90
      129
 91
        0
280
     0
281
     0
  0
CLASS
  1
AEC_DISP_REP_MATERIAL
  2
AecDbDispRepMaterial
  3
AecBase50|Product Desc: Autodesk Architectural Desktop 2007 |Company: Autodesk,Inc. |WEB Address: www.autodesk.com
 90
      129
 91
        0
280
     0
281
     0
  0
CLASS
  1
AEC_DISP_REP_MVBLOCK_REF
  2
AecDbDispRepMvBlockRef
  3
AecBase50|Product Desc: Autodesk Architectural Desktop 2007 |Company: Autodesk,Inc. |WEB Address: www.autodesk.com
 90
      129
 91
        0
280
     0
281
     0
  0
CLASS
  1
AEC_DISP_REP_MVBLOCK_REF_MODEL
  2
AecDbDispRepMvBlockRefModel
  3
AecBase50|Product Desc: Autodesk Architectural Desktop 2007 |Company: Autodesk,Inc. |WEB Address: www.autodesk.com
 90
      129
 91
        0
280
     0
281
     0
  0
CLASS
  1
AEC_DISP_REP_OPENING
  2
AecDbDispRepOpening
  3
AecArchBase50|Product Desc: Autodesk Architectural Desktop 2007 |Company: Autodesk,Inc. |WEB Address: www.autodesk.com
 90
      129
 91
        0
280
     0
281
     0
  0
CLASS
  1
AEC_DISP_REP_OPENING_MODEL
  2
AecDbDispRepOpeningModel
  3
AecArchBase50|Product Desc: Autodesk Architectural Desktop 2007 |Company: Autodesk,Inc. |WEB Address: www.autodesk.com
 90
      129
 91
        0
280
     0
281
     0
  0
CLASS
  1
AEC_DISP_REP_POLYGON_MODEL
  2
AecDbDispRepPolygonModel
  3
AecBaseEx50|Product Desc: Autodesk Architectural Desktop 2007 |Company: Autodesk,Inc. |WEB Address: www.autodesk.com
 90
      129
 91
        0
280
     0
281
     0
  0
CLASS
  1
AEC_DISP_REP_RAILING_MODEL
  2
AecDbDispRepRailingModel
  3
AecArchBase50|Product Desc: Autodesk Architectural Desktop 2007 |Company: Autodesk,Inc. |WEB Address: www.autodesk.com
 90
      129
 91
        0
280
     0
281
     0
  0
CLASS
  1
AEC_DISP_REP_RAILING_PLAN
  2
AecDbDispRepRailingPlan
  3
AecArchBase50|Product Desc: Autodesk Architectural Desktop 2007 |Company: Autodesk,Inc. |WEB Address: www.autodesk.com
 90
      129
 91
        0
280
     0
281
     0
  0
CLASS
  1
AEC_DISP_REP_ROOF_MODEL
  2
AecDbDispRepRoofModel
  3
AecArchBase50|Product Desc: Autodesk Architectural Desktop 2007 |Company: Autodesk,Inc. |WEB Address: www.autodesk.com
 90
      129
 91
        0
280
     0
281
     0
  0
CLASS
  1
AEC_DISP_REP_ROOF_PLAN
  2
AecDbDispRepRoofPlan
  3
AecArchBase50|Product Desc: Autodesk Architectural Desktop 2007 |Company: Autodesk,Inc. |WEB Address: www.autodesk.com
 90
      129
 91
        0
280
     0
281
     0
  0
CLASS
  1
AEC_DISP_REP_ROOFSLAB_MODEL
  2
AecDbDispRepRoofSlabModel
  3
AecArchBase50|Product Desc: Autodesk Architectural Desktop 2007 |Company: Autodesk,Inc. |WEB Address: www.autodesk.com
 90
      129
 91
        0
280
     0
281
     0
  0
CLASS
  1
AEC_DISP_REP_ROOFSLAB_PLAN
  2
AecDbDispRepRoofSlabPlan
  3
AecArchBase50|Product Desc: Autodesk Architectural Desktop 2007 |Company: Autodesk,Inc. |WEB Address: www.autodesk.com
 90
      129
 91
        0
280
     0
281
     0
  0
CLASS
  1
AEC_DISP_REP_SCHEDULE_TABLE
  2
AecDbDispRepScheduleTable
  3
AecSchedule50|Product Desc: Autodesk Architectural Desktop 2007 |Company: Autodesk,Inc. |WEB Address: www.autodesk.com
 90
      129
 91
        0
280
     0
281
     0
  0
CLASS
  1
AEC_DISP_REP_SLAB_MODEL
  2
AecDbDispRepSlabModel
  3
AecArchBase50|Product Desc: Autodesk Architectural Desktop 2007 |Company: Autodesk,Inc. |WEB Address: www.autodesk.com
 90
      129
 91
        0
280
     0
281
     0
  0
CLASS
  1
AEC_DISP_REP_SLAB_PLAN
  2
AecDbDispRepSlabPlan
  3
AecArchBase50|Product Desc: Autodesk Architectural Desktop 2007 |Company: Autodesk,Inc. |WEB Address: www.autodesk.com
 90
      129
 91
        0
280
     0
281
     0
  0
CLASS
  1
AEC_DISP_REP_SLICE
  2
AecDbDispRepSlice
  3
AecBase50|Product Desc: Autodesk Architectural Desktop 2007 |Company: Autodesk,Inc. |WEB Address: www.autodesk.com
 90
      129
 91
        0
280
     0
281
     0
  0
CLASS
  1
AEC_DISP_REP_SPACE_DECOMPOSED
  2
AecDbDispRepSpaceDecomposed
  3
AecArchBase50|Product Desc: Autodesk Architectural Desktop 2007 |Company: Autodesk,Inc. |WEB Address: www.autodesk.com
 90
      129
 91
        0
280
     0
281
     0
  0
CLASS
  1
AEC_DISP_REP_SPACE_MODEL
  2
AecDbDispRepSpaceModel
  3
AecArchBase50|Product Desc: Autodesk Architectural Desktop 2007 |Company: Autodesk,Inc. |WEB Address: www.autodesk.com
 90
      129
 91
        0
280
     0
281
     0
  0
CLASS
  1
AEC_DISP_REP_SPACE_PLAN
  2
AecDbDispRepSpacePlan
  3
AecArchBase50|Product Desc: Autodesk Architectural Desktop 2007 |Company: Autodesk,Inc. |WEB Address: www.autodesk.com
 90
      129
 91
        0
280
     0
281
     0
  0
CLASS
  1
AEC_DISP_REP_STAIR_MODEL
  2
AecDbDispRepStairModel
  3
AecArchBase50|Product Desc: Autodesk Architectural Desktop 2007 |Company: Autodesk,Inc. |WEB Address: www.autodesk.com
 90
      129
 91
        0
280
     0
281
     0
  0
CLASS
  1
AEC_DISP_REP_STAIR_PLAN
  2
AecDbDispRepStairPlan
  3
AecArchBase50|Product Desc: Autodesk Architectural Desktop 2007 |Company: Autodesk,Inc. |WEB Address: www.autodesk.com
 90
      129
 91
        0
280
     0
281
     0
  0
CLASS
  1
AEC_DISP_REP_WALL_GRAPH
  2
AecDbDispRepWallGraph
  3
AecArchBase50|Product Desc: Autodesk Architectural Desktop 2007 |Company: Autodesk,Inc. |WEB Address: www.autodesk.com
 90
      129
 91
        0
280
     0
281
     0
  0
CLASS
  1
AEC_DISP_REP_WALL_MODEL
  2
AecDbDispRepWallModel
  3
AecArchBase50|Product Desc: Autodesk Architectural Desktop 2007 |Company: Autodesk,Inc. |WEB Address: www.autodesk.com
 90
      129
 91
        0
280
     0
281
     0
  0
CLASS
  1
AEC_DISP_REP_WALL_PLAN
  2
AecDbDispRepWallPlan
  3
AecArchBase50|Product Desc: Autodesk Architectural Desktop 2007 |Company: Autodesk,Inc. |WEB Address: www.autodesk.com
 90
      129
 91
        0
280
     0
281
     0
  0
CLASS
  1
AEC_DISP_REP_WALL_SCHEM
  2
AecDbDispRepWallSchem
  3
AecArchBase50|Product Desc: Autodesk Architectural Desktop 2007 |Company: Autodesk,Inc. |WEB Address: www.autodesk.com
 90
      129
 91
        0
280
     0
281
     0
  0
CLASS
  1
AEC_DISP_REP_WINDOW_ASSEMBLY_MODEL
  2
AecDbDispRepWindowAssemblyModel
  3
AecArchBase50|Product Desc: Autodesk Architectural Desktop 2007 |Company: Autodesk,Inc. |WEB Address: www.autodesk.com
 90
      129
 91
        0
280
     0
281
     0
  0
CLASS
  1
AEC_DISP_REP_WINDOW_ASSEMBLY_PLAN
  2
AecDbDispRepWindowAssemblyPlan
  3
AecArchBase50|Product Desc: Autodesk Architectural Desktop 2007 |Company: Autodesk,Inc. |WEB Address: www.autodesk.com
 90
      129
 91
        0
280
     0
281
     0
  0
CLASS
  1
AEC_AECDBDISPREPWINDOWASSEMBLYPLAN100
  2
AecDbDispRepWindowAssemblyPlan100
  3
AecArchDACHBase50|Product Desc: Autodesk Architectural Desktop 2007 |Company: Autodesk,Inc. |WEB Address: www.autodesk.com
 90
      129
 91
        0
280
     0
281
     0
  0
CLASS
  1
AEC_DISP_REP_WINDOW_MODEL
  2
AecDbDispRepWindowModel
  3
AecArchBase50|Product Desc: Autodesk Architectural Desktop 2007 |Company: Autodesk,Inc. |WEB Address: www.autodesk.com
 90
      129
 91
        0
280
     0
281
     0
  0
CLASS
  1
AEC_DISP_REP_WINDOW_NOMINAL
  2
AecDbDispRepWindowNominal
  3
AecArchBase50|Product Desc: Autodesk Architectural Desktop 2007 |Company: Autodesk,Inc. |WEB Address: www.autodesk.com
 90
      129
 91
        0
280
     0
281
     0
  0
CLASS
  1
AEC_DISP_REP_WINDOW_PLAN
  2
AecDbDispRepWindowPlan
  3
AecArchBase50|Product Desc: Autodesk Architectural Desktop 2007 |Company: Autodesk,Inc. |WEB Address: www.autodesk.com
 90
      129
 91
        0
280
     0
281
     0
  0
CLASS
  1
AEC_DISP_REP_ZONE
  2
AecDbDispRepZone
  3
AecArchBase50|Product Desc: Autodesk Architectural Desktop 2007 |Company: Autodesk,Inc. |WEB Address: www.autodesk.com
 90
      129
 91
        0
280
     0
281
     0
  0
CLASS
  1
AECS_DISP_REP_MEMBER_LOGICAL
  2
AecsDbDispRepMemberLogical
  3
AecStructureBase50|Product Desc: Autodesk Architectural Desktop 2007 |Company: Autodesk,Inc. |WEB Address: www.autodesk.com
 90
      129
 91
        0
280
     0
281
     0
  0
CLASS
  1
AECS_DISP_REP_MEMBER_MODEL_DESIGN
  2
AecsDbDispRepMemberModelDesign
  3
AecStructureBase50|Product Desc: Autodesk Architectural Desktop 2007 |Company: Autodesk,Inc. |WEB Address: www.autodesk.com
 90
      129
 91
        0
280
     0
281
     0
  0
CLASS
  1
AECS_DISP_REP_MEMBER_PLAN_DESIGN
  2
AecsDbDispRepMemberPlanDesign
  3
AecStructureBase50|Product Desc: Autodesk Architectural Desktop 2007 |Company: Autodesk,Inc. |WEB Address: www.autodesk.com
 90
      129
 91
        0
280
     0
281
     0
  0
CLASS
  1
AEC_DISP_PROPS_ENT
  2
AecDbDispPropsEnt
  3
AecBase50|Product Desc: Autodesk Architectural Desktop 2007 |Company: Autodesk,Inc. |WEB Address: www.autodesk.com
 90
      129
 91
        0
280
     0
281
     0
  0
CLASS
  1
AEC_DISP_PROPS_ZONE
  2
AecDbDispPropsZone
  3
AecArchBase50|Product Desc: Autodesk Architectural Desktop 2007 |Company: Autodesk,Inc. |WEB Address: www.autodesk.com
 90
      129
 91
        0
280
     0
281
     0
  0
CLASS
  1
AEC_DISP_PROPS_GRID_ASSEMBLY_MODEL
  2
AecDbDispPropsGridAssemblyModel
  3
AecArchBase50|Product Desc: Autodesk Architectural Desktop 2007 |Company: Autodesk,Inc. |WEB Address: www.autodesk.com
 90
      129
 91
        0
280
     0
281
     0
  0
CLASS
  1
AEC_DISP_PROPS_2D_SECTION
  2
AecDbDispProps2dSection
  3
AecBase50|Product Desc: Autodesk Architectural Desktop 2007 |Company: Autodesk,Inc. |WEB Address: www.autodesk.com
 90
      129
 91
        0
280
     0
281
     0
  0
CLASS
  1
AEC_DISP_PROPS_OPENING
  2
AecDbDispPropsOpening
  3
AecArchBase50|Product Desc: Autodesk Architectural Desktop 2007 |Company: Autodesk,Inc. |WEB Address: www.autodesk.com
 90
      129
 91
        0
280
     0
281
     0
  0
CLASS
  1
AEC_DISP_PROPS_DOOR
  2
AecDbDispPropsDoor
  3
AecArchBase50|Product Desc: Autodesk Architectural Desktop 2007 |Company: Autodesk,Inc. |WEB Address: www.autodesk.com
 90
      129
 91
        0
280
     0
281
     0
  0
CLASS
  1
AEC_DISP_PROPS_WALL_SCHEM
  2
AecDbDispPropsWallSchem
  3
AecArchBase50|Product Desc: Autodesk Architectural Desktop 2007 |Company: Autodesk,Inc. |WEB Address: www.autodesk.com
 90
      129
 91
        0
280
     0
281
     0
  0
CLASS
  1
AEC_DISP_PROPS_MASKBLOCK
  2
AecDbDispPropsMaskBlock
  3
AecBase50|Product Desc: Autodesk Architectural Desktop 2007 |Company: Autodesk,Inc. |WEB Address: www.autodesk.com
 90
      129
 91
        0
280
     0
281
     0
  0
CLASS
  1
AEC_DISP_PROPS_SCHEDULE_TABLE
  2
AecDbDispPropsScheduleTable
  3
AecSchedule50|Product Desc: Autodesk Architectural Desktop 2007 |Company: Autodesk,Inc. |WEB Address: www.autodesk.com
 90
      129
 91
        0
280
     0
281
     0
  0
CLASS
  1
AECS_DISP_PROPS_MEMBER
  2
AecsDbDispPropsMember
  3
AecStructureBase50|Product Desc: Autodesk Architectural Desktop 2007 |Company: Autodesk,Inc. |WEB Address: www.autodesk.com
 90
      129
 91
        0
280
     0
281
     0
  0
CLASS
  1
AEC_DISP_PROPS_LAYOUT_GRID2D
  2
AecDbDispPropsLayoutGrid2d
  3
AecBase50|Product Desc: Autodesk Architectural Desktop 2007 |Company: Autodesk,Inc. |WEB Address: www.autodesk.com
 90
      129
 91
        0
280
     0
281
     0
  0
CLASS
  1
AEC_DISP_PROPS_EDITINPLACEPROFILE_MODEL
  2
AecDbDispPropsEditInPlaceProfile
  3
AecBase50|Product Desc: Autodesk Architectural Desktop 2007 |Company: Autodesk,Inc. |WEB Address: www.autodesk.com
 90
      129
 91
        0
280
     0
281
     0
  0
CLASS
  1
AEC_DISP_PROPS_ENT_REF
  2
AecDbDispPropsEntRef
  3
AecBase50|Product Desc: Autodesk Architectural Desktop 2007 |Company: Autodesk,Inc. |WEB Address: www.autodesk.com
 90
      129
 91
        0
280
     0
281
     0
  0
CLASS
  1
AEC_DISP_PROPS_ROOFSLAB
  2
AecDbDispPropsRoofSlab
  3
AecArchBase50|Product Desc: Autodesk Architectural Desktop 2007 |Company: Autodesk,Inc. |WEB Address: www.autodesk.com
 90
      129
 91
        0
280
     0
281
     0
  0
CLASS
  1
AEC_DISP_PROPS_LAYOUT_GRID3D
  2
AecDbDispPropsLayoutGrid3d
  3
AecBase50|Product Desc: Autodesk Architectural Desktop 2007 |Company: Autodesk,Inc. |WEB Address: www.autodesk.com
 90
      129
 91
        0
280
     0
281
     0
  0
CLASS
  1
AEC_DISP_PROPS_WALL_GRAPH
  2
AecDbDispPropsWallGraph
  3
AecArchBase50|Product Desc: Autodesk Architectural Desktop 2007 |Company: Autodesk,Inc. |WEB Address: www.autodesk.com
 90
      129
 91
        0
280
     0
281
     0
  0
CLASS
  1
AEC_DISP_PROPS_DIM
  2
AecDbDispPropsDimGroup
  3
AecArchDACHBase50|Product Desc: Autodesk Architectural Desktop 2007 |Company: Autodesk,Inc. |WEB Address: www.autodesk.com
 90
      129
 91
        0
280
     0
281
     0
  0
CLASS
  1
AEC_DISP_PROPS_CLIP_VOLUME
  2
AecDbDispPropsClipVol
  3
AecBase50|Product Desc: Autodesk Architectural Desktop 2007 |Company: Autodesk,Inc. |WEB Address: www.autodesk.com
 90
      129
 91
        0
280
     0
281
     0
  0
CLASS
  1
AEC_DISP_PROPS_STAIR_MODEL
  2
AecDbDispPropsStairModel
  3
AecArchBase50|Product Desc: Autodesk Architectural Desktop 2007 |Company: Autodesk,Inc. |WEB Address: www.autodesk.com
 90
      129
 91
        0
280
     0
281
     0
  0
CLASS
  1
AEC_DISP_PROPS_MASS_GROUP
  2
AecDbDispPropsMassGroup
  3
AecBaseEx50|Product Desc: Autodesk Architectural Desktop 2007 |Company: Autodesk,Inc. |WEB Address: www.autodesk.com
 90
      129
 91
        0
280
     0
281
     0
  0
CLASS
  1
AEC_DISP_PROPS_GRID_ASSEMBLY_PLAN
  2
AecDbDispPropsGridAssemblyPlan
  3
AecArchBase50|Product Desc: Autodesk Architectural Desktop 2007 |Company: Autodesk,Inc. |WEB Address: www.autodesk.com
 90
      129
 91
        0
280
     0
281
     0
  0
CLASS
  1
AEC_DISP_PROPS_SLAB_PLAN
  2
AecDbDispPropsSlabPlan
  3
AecArchBase50|Product Desc: Autodesk Architectural Desktop 2007 |Company: Autodesk,Inc. |WEB Address: www.autodesk.com
 90
      129
 91
        0
280
     0
281
     0
  0
CLASS
  1
AEC_DISP_PROPS_RAILING_MODEL
  2
AecDbDispPropsRailingModel
  3
AecArchBase50|Product Desc: Autodesk Architectural Desktop 2007 |Company: Autodesk,Inc. |WEB Address: www.autodesk.com
 90
      129
 91
        0
280
     0
281
     0
  0
CLASS
  1
AEC_DISP_PROPS_MASS_ELEM_MODEL
  2
AecDbDispPropsMassElem
  3
AecBaseEx50|Product Desc: Autodesk Architectural Desktop 2007 |Company: Autodesk,Inc. |WEB Address: www.autodesk.com
 90
      129
 91
        0
280
     0
281
     0
  0
CLASS
  1
AEC_DISP_PROPS_SPACE_PLAN
  2
AecDbDispPropsSpacePlan
  3
AecArchBase50|Product Desc: Autodesk Architectural Desktop 2007 |Company: Autodesk,Inc. |WEB Address: www.autodesk.com
 90
      129
 91
        0
280
     0
281
     0
  0
CLASS
  1
AECS_DISP_PROPS_MEMBER_PLAN
  2
AecsDbDispPropsMemberPlan
  3
AecStructureBase50|Product Desc: Autodesk Architectural Desktop 2007 |Company: Autodesk,Inc. |WEB Address: www.autodesk.com
 90
      129
 91
        0
280
     0
281
     0
  0
CLASS
  1
AEC_DISP_PROPS_ROOF
  2
AecDbDispPropsRoof
  3
AecArchBase50|Product Desc: Autodesk Architectural Desktop 2007 |Company: Autodesk,Inc. |WEB Address: www.autodesk.com
 90
      129
 91
        0
280
     0
281
     0
  0
CLASS
  1
AEC_DISP_PROPS_DISPLAYTHEME
  2
AecDbDispPropsDisplayTheme
  3
AecBase50|Product Desc: Autodesk Architectural Desktop 2007 |Company: Autodesk,Inc. |WEB Address: www.autodesk.com
 90
      129
 91
        0
280
     0
281
     0
  0
CLASS
  1
AEC_DISP_PROPS_ROOFSLAB_PLAN
  2
AecDbDispPropsRoofSlabPlan
  3
AecArchBase50|Product Desc: Autodesk Architectural Desktop 2007 |Company: Autodesk,Inc. |WEB Address: www.autodesk.com
 90
      129
 91
        0
280
     0
281
     0
  0
CLASS
  1
AEC_DISP_PROPS_WINDOW_NOMINAL
  2
AecDbDispPropsWindowNominal
  3
AecArchBase50|Product Desc: Autodesk Architectural Desktop 2007 |Company: Autodesk,Inc. |WEB Address: www.autodesk.com
 90
      129
 91
        0
280
     0
281
     0
  0
CLASS
  1
AEC_DISP_PROPS_STAIR_PLAN
  2
AecDbDispPropsStairPlan
  3
AecArchBase50|Product Desc: Autodesk Architectural Desktop 2007 |Company: Autodesk,Inc. |WEB Address: www.autodesk.com
 90
      129
 91
        0
280
     0
281
     0
  0
CLASS
  1
AECS_DISP_PROPS_MEMBER_LOGICAL
  2
AecsDbDispPropsMemberLogical
  3
AecStructureBase50|Product Desc: Autodesk Architectural Desktop 2007 |Company: Autodesk,Inc. |WEB Address: www.autodesk.com
 90
      129
 91
        0
280
     0
281
     0
  0
CLASS
  1
AEC_DISP_PROPS_POLYGON_MODEL
  2
AecDbDispPropsPolygonModel
  3
AecBaseEx50|Product Desc: Autodesk Architectural Desktop 2007 |Company: Autodesk,Inc. |WEB Address: www.autodesk.com
 90
      129
 91
        0
280
     0
281
     0
  0
CLASS
  1
AEC_DISP_PROPS_LAYOUT_CURVE
  2
AecDbDispPropsLayoutCurve
  3
AecBase50|Product Desc: Autodesk Architectural Desktop 2007 |Company: Autodesk,Inc. |WEB Address: www.autodesk.com
 90
      129
 91
        0
280
     0
281
     0
  0
CLASS
  1
AEC_DISP_PROPS_SPACE_DECOMPOSED
  2
AecDbDispPropsSpaceDecomposed
  3
AecArchBase50|Product Desc: Autodesk Architectural Desktop 2007 |Company: Autodesk,Inc. |WEB Address: www.autodesk.com
 90
      129
 91
        0
280
     0
281
     0
  0
CLASS
  1
AEC_DISP_PROPS_RAILING_PLAN
  2
AecDbDispPropsRailingPlan
  3
AecArchBase50|Product Desc: Autodesk Architectural Desktop 2007 |Company: Autodesk,Inc. |WEB Address: www.autodesk.com
 90
      129
 91
        0
280
     0
281
     0
  0
CLASS
  1
AEC_DISP_PROPS_SLICE
  2
AecDbDispPropsSlice
  3
AecBase50|Product Desc: Autodesk Architectural Desktop 2007 |Company: Autodesk,Inc. |WEB Address: www.autodesk.com
 90
      129
 91
        0
280
     0
281
     0
  0
CLASS
  1
AEC_DISP_PROPS_WINDOW
  2
AecDbDispPropsWindow
  3
AecArchBase50|Product Desc: Autodesk Architectural Desktop 2007 |Company: Autodesk,Inc. |WEB Address: www.autodesk.com
 90
      129
 91
        0
280
     0
281
     0
  0
CLASS
  1
AEC_DISP_PROPS_SPACE_MODEL
  2
AecDbDispPropsSpaceModel
  3
AecArchBase50|Product Desc: Autodesk Architectural Desktop 2007 |Company: Autodesk,Inc. |WEB Address: www.autodesk.com
 90
      129
 91
        0
280
     0
281
     0
  0
CLASS
  1
AEC_DISP_PROPS_WALL_PLAN
  2
AecDbDispPropsWallPlan
  3
AecArchBase50|Product Desc: Autodesk Architectural Desktop 2007 |Company: Autodesk,Inc. |WEB Address: www.autodesk.com
 90
      129
 91
        0
280
     0
281
     0
  0
CLASS
  1
AEC_DISP_PROPS_SLAB
  2
AecDbDispPropsSlab
  3
AecArchBase50|Product Desc: Autodesk Architectural Desktop 2007 |Company: Autodesk,Inc. |WEB Address: www.autodesk.com
 90
      129
 91
        0
280
     0
281
     0
  0
CLASS
  1
AEC_DISP_PROPS_CLIP_VOLUME_RESULT
  2
AecDbDispPropsClipVolResSubDiv
  3
AecBase50|Product Desc: Autodesk Architectural Desktop 2007 |Company: Autodesk,Inc. |WEB Address: www.autodesk.com
 90
      129
 91
        0
280
     0
281
     0
  0
CLASS
  1
AEC_DISP_PROPS_DOOR_NOMINAL
  2
AecDbDispPropsDoorNominal
  3
AecArchBase50|Product Desc: Autodesk Architectural Desktop 2007 |Company: Autodesk,Inc. |WEB Address: www.autodesk.com
 90
      129
 91
        0
280
     0
281
     0
  0
CLASS
  1
AEC_DISP_PROPS_MATERIAL
  2
AecDbDispPropsMaterial
  3
AecBase50|Product Desc: Autodesk Architectural Desktop 2007 |Company: Autodesk,Inc. |WEB Address: www.autodesk.com
 90
      129
 91
        0
280
     0
281
     0
  0
CLASS
  1
AEC_DISP_PROPS_WALL_MODEL
  2
AecDbDispPropsWallModel
  3
AecArchBase50|Product Desc: Autodesk Architectural Desktop 2007 |Company: Autodesk,Inc. |WEB Address: www.autodesk.com
 90
      129
 91
        0
280
     0
281
     0
  0
CLASS
  1
AEC_LAYERKEY_STYLE
  2
AecDbLayerKeyStyle
  3
AecBase50|Product Desc: Autodesk Architectural Desktop 2007 |Company: Autodesk,Inc. |WEB Address: www.autodesk.com
 90
      129
 91
        0
280
     0
281
     0
  0
CLASS
  1
AEC_VARS_ARCHBASE
  2
AecDbVarsArchBase
  3
AecArchBase50|Product Desc: Autodesk Architectural Desktop 2007 |Company: Autodesk,Inc. |WEB Address: www.autodesk.com
 90
      129
 91
        0
280
     0
281
     0
  0
CLASS
  1
AEC_VARS_MUNICH
  2
AecDbVarsMunich
  3
AecArchDACHBase50|Product Desc: Autodesk Architectural Desktop 2007 |Company: Autodesk,Inc. |WEB Address: www.autodesk.com
 90
      129
 91
        0
280
     0
281
     0
  0
CLASS
  1
AEC_NOTIFICATION_TRACKER
  2
AecDbNotificationTracker
  3
AecBase50|Product Desc: Autodesk Architectural Desktop 2007 |Company: Autodesk,Inc. |WEB Address: www.autodesk.com
 90
      129
 91
        0
280
     0
281
     0
  0
CLASS
  1
AEC_DISP_REP_DOOR_THRESHOLD_SYMBOL_PLAN
  2
AecDbDispRepDoorThresholdSymbolPlan
  3
AecArchDACHBase50|Product Desc: Autodesk Architectural Desktop 2007 |Company: Autodesk,Inc. |WEB Address: www.autodesk.com
 90
      129
 91
        0
280
     0
281
     0
  0
CLASS
  1
AEC_DISP_PROPS_DOOR_THRESHOLD_SYMBOL_PLAN
  2
AecDbDispPropsDoorThresholdSymbolPlan
  3
AecArchDACHBase50|Product Desc: Autodesk Architectural Desktop 2007 |Company: Autodesk,Inc. |WEB Address: www.autodesk.com
 90
      129
 91
        0
280
     0
281
     0
  0
CLASS
  1
AEC_DISP_REP_RAILING_PLAN_100
  2
AecDbDispRepRailingPlan100
  3
AecArchDACHBase50|Product Desc: Autodesk Architectural Desktop 2007 |Company: Autodesk,Inc. |WEB Address: www.autodesk.com
 90
      129
 91
        0
280
     0
281
     0
  0
CLASS
  1
AEC_DISP_ROPS_RAILING_PLAN_100
  2
AecDbDispPropsRailingPlan100
  3
AecArchDACHBase50|Product Desc: Autodesk Architectural Desktop 2007 |Company: Autodesk,Inc. |WEB Address: www.autodesk.com
 90
      129
 91
        0
280
     0
281
     0
  0
CLASS
  1
AEC_DISP_REP_STAIR_PLAN_50
  2
AecDbDispRepStairPlan50
  3
AecArchDACHBase50|Product Desc: Autodesk Architectural Desktop 2007 |Company: Autodesk,Inc. |WEB Address: www.autodesk.com
 90
      129
 91
        0
280
     0
281
     0
  0
CLASS
  1
AEC_DISP_ROPS_STAIR_PLAN_50
  2
AecDbDispPropsStairPlan50
  3
AecArchDACHBase50|Product Desc: Autodesk Architectural Desktop 2007 |Company: Autodesk,Inc. |WEB Address: www.autodesk.com
 90
      129
 91
        0
280
     0
281
     0
  0
CLASS
  1
AEC_DISP_REP_STAIR_PLAN_100
  2
AecDbDispRepStairPlan100
  3
AecArchDACHBase50|Product Desc: Autodesk Architectural Desktop 2007 |Company: Autodesk,Inc. |WEB Address: www.autodesk.com
 90
      129
 91
        0
280
     0
281
     0
  0
CLASS
  1
AEC_DISP_ROPS_STAIR_PLAN_100
  2
AecDbDispPropsStairPlan100
  3
AecArchDACHBase50|Product Desc: Autodesk Architectural Desktop 2007 |Company: Autodesk,Inc. |WEB Address: www.autodesk.com
 90
      129
 91
        0
280
     0
281
     0
  0
CLASS
  1
AEC_DISP_REP_DOOR_PLAN_HEKTO
  2
AecDbDispRepDoorPlanHekto
  3
AecArchDACHBase50|Product Desc: Autodesk Architectural Desktop 2007 |Company: Autodesk,Inc. |WEB Address: www.autodesk.com
 90
      129
 91
        0
280
     0
281
     0
  0
CLASS
  1
AEC_DISP_PROPS_DOOR_PLAN_100
  2
AecDbDispPropsDoorPlan100
  3
AecArchDACHBase50|Product Desc: Autodesk Architectural Desktop 2007 |Company: Autodesk,Inc. |WEB Address: www.autodesk.com
 90
      129
 91
        0
280
     0
281
     0
  0
CLASS
  1
AEC_DB_DISP_REP_DIM_GROUP_PLAN50
  2
AecDbDispRepDimGroupPlan50
  3
AecArchDACHBase50|Product Desc: Autodesk Architectural Desktop 2007 |Company: Autodesk,Inc. |WEB Address: www.autodesk.com
 90
      129
 91
        0
280
     0
281
     0
  0
CLASS
  1
AEC_DISPREPAECDBDISPREPMASSGROUPPLAN100
  2
AecDbDispRepMassGroupPlan100
  3
AecArchDACHBase50|Product Desc: Autodesk Architectural Desktop 2007 |Company: Autodesk,Inc. |WEB Address: www.autodesk.com
 90
      129
 91
        0
280
     0
281
     0
  0
CLASS
  1
AEC_DISPROPSMASSGROUPPLANCOMMON
  2
AecDbDispPropsMassGroupPlanCommon
  3
AecArchDACHBase50|Product Desc: Autodesk Architectural Desktop 2007 |Company: Autodesk,Inc. |WEB Address: www.autodesk.com
 90
      129
 91
        0
280
     0
281
     0
  0
CLASS
  1
AEC_DISP_REP_WINDOW_PLAN_100
  2
AecDbDispRepWindowPlan100
  3
AecArchDACHBase50|Product Desc: Autodesk Architectural Desktop 2007 |Company: Autodesk,Inc. |WEB Address: www.autodesk.com
 90
      129
 91
        0
280
     0
281
     0
  0
CLASS
  1
AEC_DISP_PROPS_WINDOW_PLAN_100
  2
AecDbDispPropsWindowPlan100
  3
AecArchDACHBase50|Product Desc: Autodesk Architectural Desktop 2007 |Company: Autodesk,Inc. |WEB Address: www.autodesk.com
 90
      129
 91
        0
280
     0
281
     0
  0
CLASS
  1
AEC_DISPREPAECDBDISPREPMASSELEMPLAN50
  2
AecDbDispRepMassElemPlan50
  3
AecArchDACHBase50|Product Desc: Autodesk Architectural Desktop 2007 |Company: Autodesk,Inc. |WEB Address: www.autodesk.com
 90
      129
 91
        0
280
     0
281
     0
  0
CLASS
  1
AEC_DISPROPSMASSELEMPLANCOMMON
  2
AecDbDispPropsMassElemPlanCommon
  3
AecArchDACHBase50|Product Desc: Autodesk Architectural Desktop 2007 |Company: Autodesk,Inc. |WEB Address: www.autodesk.com
 90
      129
 91
        0
280
     0
281
     0
  0
CLASS
  1
AEC_DB_DISP_REP_DIM_GROUP_PLAN100
  2
AecDbDispRepDimGroupPlan100
  3
AecArchDACHBase50|Product Desc: Autodesk Architectural Desktop 2007 |Company: Autodesk,Inc. |WEB Address: www.autodesk.com
 90
      129
 91
        0
280
     0
281
     0
  0
CLASS
  1
AEC_DISPREPAECDBDISPREPMASSELEMPLAN100
  2
AecDbDispRepMassElemPlan100
  3
AecArchDACHBase50|Product Desc: Autodesk Architectural Desktop 2007 |Company: Autodesk,Inc. |WEB Address: www.autodesk.com
 90
      129
 91
        0
280
     0
281
     0
  0
CLASS
  1
AEC_DISP_REP_DOOR_PLAN_50
  2
AecDbDispRepDoorPlan50
  3
AecArchDACHBase50|Product Desc: Autodesk Architectural Desktop 2007 |Company: Autodesk,Inc. |WEB Address: www.autodesk.com
 90
      129
 91
        0
280
     0
281
     0
  0
CLASS
  1
AEC_DISP_PROPS_DOOR_PLAN_50
  2
AecDbDispPropsDoorPlan50
  3
AecArchDACHBase50|Product Desc: Autodesk Architectural Desktop 2007 |Company: Autodesk,Inc. |WEB Address: www.autodesk.com
 90
      129
 91
        0
280
     0
281
     0
  0
CLASS
  1
AEC_DISPREPAECDBDISPREPOPENINGPLANREFLECTED
  2
AecDbDispRepOpeningPlanReflected
  3
AecArchDACHBase50|Product Desc: Autodesk Architectural Desktop 2007 |Company: Autodesk,Inc. |WEB Address: www.autodesk.com
 90
      129
 91
        0
280
     0
281
     0
  0
CLASS
  1
AEC_DISPROPSOPENINGPLANCOMMON
  2
AecDbDispPropsOpeningPlanCommon
  3
AecArchDACHBase50|Product Desc: Autodesk Architectural Desktop 2007 |Company: Autodesk,Inc. |WEB Address: www.autodesk.com
 90
      129
 91
        0
280
     0
281
     0
  0
CLASS
  1
AEC_DISPREPAECDBDISPREPMASSGROUPPLAN50
  2
AecDbDispRepMassGroupPlan50
  3
AecArchDACHBase50|Product Desc: Autodesk Architectural Desktop 2007 |Company: Autodesk,Inc. |WEB Address: www.autodesk.com
 90
      129
 91
        0
280
     0
281
     0
  0
CLASS
  1
AEC_DISPREPAECDBDISPREPOPENINGPLAN50
  2
AecDbDispRepOpeningPlan50
  3
AecArchDACHBase50|Product Desc: Autodesk Architectural Desktop 2007 |Company: Autodesk,Inc. |WEB Address: www.autodesk.com
 90
      129
 91
        0
280
     0
281
     0
  0
CLASS
  1
AEC_DISPROPSOPENINGPLANCOMMONHATCHED
  2
AecDbDispPropsOpeningPlanCommonHatched
  3
AecArchDACHBase50|Product Desc: Autodesk Architectural Desktop 2007 |Company: Autodesk,Inc. |WEB Address: www.autodesk.com
 90
      129
 91
        0
280
     0
281
     0
  0
CLASS
  1
AEC_DISPREPAECDBDISPREPOPENINGSILLPLAN
  2
AecDbDispRepOpeningSillPlan
  3
AecArchDACHBase50|Product Desc: Autodesk Architectural Desktop 2007 |Company: Autodesk,Inc. |WEB Address: www.autodesk.com
 90
      129
 91
        0
280
     0
281
     0
  0
CLASS
  1
AEC_DISPROPSOPENINGSILLPLAN
  2
AecDbDispPropsOpeningSillPlan
  3
AecArchDACHBase50|Product Desc: Autodesk Architectural Desktop 2007 |Company: Autodesk,Inc. |WEB Address: www.autodesk.com
 90
      129
 91
        0
280
     0
281
     0
  0
CLASS
  1
AEC_DISP_REP_WINDOW_PLAN_50
  2
AecDbDispRepWindowPlan50
  3
AecArchDACHBase50|Product Desc: Autodesk Architectural Desktop 2007 |Company: Autodesk,Inc. |WEB Address: www.autodesk.com
 90
      129
 91
        0
280
     0
281
     0
  0
CLASS
  1
AEC_DISP_PROPS_WINDOW_PLAN_50
  2
AecDbDispPropsWindowPlan50
  3
AecArchDACHBase50|Product Desc: Autodesk Architectural Desktop 2007 |Company: Autodesk,Inc. |WEB Address: www.autodesk.com
 90
      129
 91
        0
280
     0
281
     0
  0
CLASS
  1
AEC_DISP_REP_RAILING_PLAN_50
  2
AecDbDispRepRailingPlan50
  3
AecArchDACHBase50|Product Desc: Autodesk Architectural Desktop 2007 |Company: Autodesk,Inc. |WEB Address: www.autodesk.com
 90
      129
 91
        0
280
     0
281
     0
  0
CLASS
  1
AEC_DISP_ROPS_RAILING_PLAN_50
  2
AecDbDispPropsRailingPlan50
  3
AecArchDACHBase50|Product Desc: Autodesk Architectural Desktop 2007 |Company: Autodesk,Inc. |WEB Address: www.autodesk.com
 90
      129
 91
        0
280
     0
281
     0
  0
CLASS
  1
AEC_DISPREPAECDBDISPREPOPENINGPLAN100
  2
AecDbDispRepOpeningPlan100
  3
AecArchDACHBase50|Product Desc: Autodesk Architectural Desktop 2007 |Company: Autodesk,Inc. |WEB Address: www.autodesk.com
 90
      129
 91
        0
280
     0
281
     0
  0
CLASS
  1
AEC_AECDBDISPREPCURTAINWALLUNITPLAN100
  2
AecDbDispRepCurtainWallUnitPlan100
  3
AecArchDACHBase50|Product Desc: Autodesk Architectural Desktop 2007 |Company: Autodesk,Inc. |WEB Address: www.autodesk.com
 90
      129
 91
        0
280
     0
281
     0
  0
CLASS
  1
AEC_AECDBDISPREPSPACEPLAN100
  2
AecDbDispRepSpacePlan100
  3
AecArchDACHBase50|Product Desc: Autodesk Architectural Desktop 2007 |Company: Autodesk,Inc. |WEB Address: www.autodesk.com
 90
      129
 91
        0
280
     0
281
     0
  0
CLASS
  1
AEC_DISP_REP_COLUMN_GRID_RCP
  2
AecDbDispRepColumnGridRcp
  3
AecStructureBase50|Product Desc: Autodesk Architectural Desktop 2007 |Company: Autodesk,Inc. |WEB Address: www.autodesk.com
 90
      129
 91
        0
280
     0
281
     0
  0
CLASS
  1
AEC_AECDBDISPREPBDGELEVLINEPLAN100
  2
AecDbDispRepBdgElevLinePlan100
  3
AecArchDACHBase50|Product Desc: Autodesk Architectural Desktop 2007 |Company: Autodesk,Inc. |WEB Address: www.autodesk.com
 90
      129
 91
        0
280
     0
281
     0
  0
CLASS
  1
AEC_AECDBDISPREPROOFPLAN100
  2
AecDbDispRepRoofPlan100
  3
AecArchDACHBase50|Product Desc: Autodesk Architectural Desktop 2007 |Company: Autodesk,Inc. |WEB Address: www.autodesk.com
 90
      129
 91
        0
280
     0
281
     0
  0
CLASS
  1
AEC_AECDBDISPREPROOFSLABPLAN50
  2
AecDbDispRepRoofSlabPlan50
  3
AecArchDACHBase50|Product Desc: Autodesk Architectural Desktop 2007 |Company: Autodesk,Inc. |WEB Address: www.autodesk.com
 90
      129
 91
        0
280
     0
281
     0
  0
CLASS
  1
AEC_AECDBDISPREPCOLUMNGRIDPLAN50
  2
AecDbDispRepColumnGridPlan50
  3
AecArchDACHBase50|Product Desc: Autodesk Architectural Desktop 2007 |Company: Autodesk,Inc. |WEB Address: www.autodesk.com
 90
      129
 91
        0
280
     0
281
     0
  0
CLASS
  1
AEC_AECDBDISPREPZONE50
  2
AecDbDispRepZonePlan50
  3
AecArchDACHBase50|Product Desc: Autodesk Architectural Desktop 2007 |Company: Autodesk,Inc. |WEB Address: www.autodesk.com
 90
      129
 91
        0
280
     0
281
     0
  0
CLASS
  1
AEC_AECDBDISPREPCURTAINWALLLAYOUTPLAN50
  2
AecDbDispRepCurtainWallLayoutPlan50
  3
AecArchDACHBase50|Product Desc: Autodesk Architectural Desktop 2007 |Company: Autodesk,Inc. |WEB Address: www.autodesk.com
 90
      129
 91
        0
280
     0
281
     0
  0
CLASS
  1
AEC_AECDBDISPREPZONE100
  2
AecDbDispRepZonePlan100
  3
AecArchDACHBase50|Product Desc: Autodesk Architectural Desktop 2007 |Company: Autodesk,Inc. |WEB Address: www.autodesk.com
 90
      129
 91
        0
280
     0
281
     0
  0
CLASS
  1
AEC_AECDBDISPREPMVBLOCKREFPLAN100
  2
AecDbDispRepMvBlockRefPlan100
  3
AecArchDACHBase50|Product Desc: Autodesk Architectural Desktop 2007 |Company: Autodesk,Inc. |WEB Address: www.autodesk.com
 90
      129
 91
        0
280
     0
281
     0
  0
CLASS
  1
AECS_DISP_REP_MEMBER_PLAN_SKETCH
  2
AecsDbDispRepMemberPlanSketch
  3
AecStructureBase50|Product Desc: Autodesk Architectural Desktop 2007 |Company: Autodesk,Inc. |WEB Address: www.autodesk.com
 90
      129
 91
        0
280
     0
281
     0
  0
CLASS
  1
AECS_DISP_PROPS_MEMBER_PLAN_SKETCH
  2
AecsDbDispPropsMemberPlanSketch
  3
AecStructureBase50|Product Desc: Autodesk Architectural Desktop 2007 |Company: Autodesk,Inc. |WEB Address: www.autodesk.com
 90
      129
 91
        0
280
     0
281
     0
  0
CLASS
  1
AECS_DISP_REP_MEMBER_PLAN_DETAIL
  2
AecsDbDispRepMemberPlanDetail
  3
AecStructureBase50|Product Desc: Autodesk Architectural Desktop 2007 |Company: Autodesk,Inc. |WEB Address: www.autodesk.com
 90
      129
 91
        0
280
     0
281
     0
  0
CLASS
  1
AEC_AECDBDISPREPBDGSECTIONLINEPLAN50
  2
AecDbDispRepBdgSectionLinePlan50
  3
AecArchDACHBase50|Product Desc: Autodesk Architectural Desktop 2007 |Company: Autodesk,Inc. |WEB Address: www.autodesk.com
 90
      129
 91
        0
280
     0
281
     0
  0
CLASS
  1
AEC_AECDBDISPREPCEILINGGRIDPLAN50
  2
AecDbDispRepCeilingGridPlan50
  3
AecArchDACHBase50|Product Desc: Autodesk Architectural Desktop 2007 |Company: Autodesk,Inc. |WEB Address: www.autodesk.com
 90
      129
 91
        0
280
     0
281
     0
  0
CLASS
  1
AECS_DISP_REP_MEMBER_ELEVATION_DESIGN
  2
AecsDbDispRepMemberElevationDesign
  3
AecStructureBase50|Product Desc: Autodesk Architectural Desktop 2007 |Company: Autodesk,Inc. |WEB Address: www.autodesk.com
 90
      129
 91
        0
280
     0
281
     0
  0
CLASS
  1
AECS_DISP_PROPS_MEMBER_PROJECTED
  2
AecsDbDispPropsMemberProjected
  3
AecStructureBase50|Product Desc: Autodesk Architectural Desktop 2007 |Company: Autodesk,Inc. |WEB Address: www.autodesk.com
 90
      129
 91
        0
280
     0
281
     0
  0
CLASS
  1
AEC_AECDBDISPREPWALLPLAN50
  2
AecDbDispRepWallPlan50
  3
AecArchDACHBase50|Product Desc: Autodesk Architectural Desktop 2007 |Company: Autodesk,Inc. |WEB Address: www.autodesk.com
 90
      129
 91
        0
280
     0
281
     0
  0
CLASS
  1
AEC_AECDBDISPREPSPACEPLAN50
  2
AecDbDispRepSpacePlan50
  3
AecArchDACHBase50|Product Desc: Autodesk Architectural Desktop 2007 |Company: Autodesk,Inc. |WEB Address: www.autodesk.com
 90
      129
 91
        0
280
     0
281
     0
  0
CLASS
  1
AEC_AECDBDISPREPWALLPLAN100
  2
AecDbDispRepWallPlan100
  3
AecArchDACHBase50|Product Desc: Autodesk Architectural Desktop 2007 |Company: Autodesk,Inc. |WEB Address: www.autodesk.com
 90
      129
 91
        0
280
     0
281
     0
  0
CLASS
  1
AEC_AECDBDISPREPCURTAINWALLUNITPLAN50
  2
AecDbDispRepCurtainWallUnitPlan50
  3
AecArchDACHBase50|Product Desc: Autodesk Architectural Desktop 2007 |Company: Autodesk,Inc. |WEB Address: www.autodesk.com
 90
      129
 91
        0
280
     0
281
     0
  0
CLASS
  1
AECS_DISP_REP_MEMBER_ELEVATION_DETAIL
  2
AecsDbDispRepMemberElevationDetail
  3
AecStructureBase50|Product Desc: Autodesk Architectural Desktop 2007 |Company: Autodesk,Inc. |WEB Address: www.autodesk.com
 90
      129
 91
        0
280
     0
281
     0
  0
CLASS
  1
AECS_DISP_REP_MEMBER_MODEL_DETAIL
  2
AecsDbDispRepMemberModelDetail
  3
AecStructureBase50|Product Desc: Autodesk Architectural Desktop 2007 |Company: Autodesk,Inc. |WEB Address: www.autodesk.com
 90
      129
 91
        0
280
     0
281
     0
  0
CLASS
  1
AEC_AECDBDISPREPCEILINGGRIDPLAN100
  2
AecDbDispRepCeilingGridPlan100
  3
AecArchDACHBase50|Product Desc: Autodesk Architectural Desktop 2007 |Company: Autodesk,Inc. |WEB Address: www.autodesk.com
 90
      129
 91
        0
280
     0
281
     0
  0
CLASS
  1
AEC_AECDBDISPREPBDGSECTIONLINEPLAN100
  2
AecDbDispRepBdgSectionLinePlan100
  3
AecArchDACHBase50|Product Desc: Autodesk Architectural Desktop 2007 |Company: Autodesk,Inc. |WEB Address: www.autodesk.com
 90
      129
 91
        0
280
     0
281
     0
  0
CLASS
  1
AEC_DISP_REP_ANCHOR_BUB_TO_GRID_RCP
  2
AecDbDispRepAnchorBubToGridRcp
  3
AecStructureBase50|Product Desc: Autodesk Architectural Desktop 2007 |Company: Autodesk,Inc. |WEB Address: www.autodesk.com
 90
      129
 91
        0
280
     0
281
     0
  0
CLASS
  1
AEC_AECDBDISPREPBDGELEVLINEPLAN50
  2
AecDbDispRepBdgElevLinePlan50
  3
AecArchDACHBase50|Product Desc: Autodesk Architectural Desktop 2007 |Company: Autodesk,Inc. |WEB Address: www.autodesk.com
 90
      129
 91
        0
280
     0
281
     0
  0
CLASS
  1
AEC_AECDBDISPREPWINDOWASSEMBLYPLAN50
  2
AecDbDispRepWindowAssemblyPlan50
  3
AecArchDACHBase50|Product Desc: Autodesk Architectural Desktop 2007 |Company: Autodesk,Inc. |WEB Address: www.autodesk.com
 90
      129
 91
        0
280
     0
281
     0
  0
CLASS
  1
AEC_AECDBDISPREPROOFSLABPLAN100
  2
AecDbDispRepRoofSlabPlan100
  3
AecArchDACHBase50|Product Desc: Autodesk Architectural Desktop 2007 |Company: Autodesk,Inc. |WEB Address: www.autodesk.com
 90
      129
 91
        0
280
     0
281
     0
  0
CLASS
  1
AEC_AECDBDISPREPROOFPLAN50
  2
AecDbDispRepRoofPlan50
  3
AecArchDACHBase50|Product Desc: Autodesk Architectural Desktop 2007 |Company: Autodesk,Inc. |WEB Address: www.autodesk.com
 90
      129
 91
        0
280
     0
281
     0
  0
CLASS
  1
AEC_AECDBDISPREPCOLUMNGRIDPLAN100
  2
AecDbDispRepColumnGridPlan100
  3
AecArchDACHBase50|Product Desc: Autodesk Architectural Desktop 2007 |Company: Autodesk,Inc. |WEB Address: www.autodesk.com
 90
      129
 91
        0
280
     0
281
     0
  0
CLASS
  1
AEC_AECDBDISPREPSLABPLAN50
  2
AecDbDispRepSlabPlan50
  3
AecArchDACHBase50|Product Desc: Autodesk Architectural Desktop 2007 |Company: Autodesk,Inc. |WEB Address: www.autodesk.com
 90
      129
 91
        0
280
     0
281
     0
  0
CLASS
  1
AEC_AECDBDISPREPSLABPLAN100
  2
AecDbDispRepSlabPlan100
  3
AecArchDACHBase50|Product Desc: Autodesk Architectural Desktop 2007 |Company: Autodesk,Inc. |WEB Address: www.autodesk.com
 90
      129
 91
        0
280
     0
281
     0
  0
CLASS
  1
AEC_AECDBDISPREPCURTAINWALLLAYOUTPLAN100
  2
AecDbDispRepCurtainWallLayoutPlan100
  3
AecArchDACHBase50|Product Desc: Autodesk Architectural Desktop 2007 |Company: Autodesk,Inc. |WEB Address: www.autodesk.com
 90
      129
 91
        0
280
     0
281
     0
  0
CLASS
  1
AEC_AECDBDISPREPMVBLOCKREFPLAN50
  2
AecDbDispRepMvBlockRefPlan50
  3
AecArchDACHBase50|Product Desc: Autodesk Architectural Desktop 2007 |Company: Autodesk,Inc. |WEB Address: www.autodesk.com
 90
      129
 91
        0
280
     0
281
     0
  0
CLASS
  1
AEC_DISP_REP_WINDOW_ELEV
  2
AecDbDispRepWindowElev
  3
AecArchBase50|Product Desc: Autodesk Architectural Desktop 2007 |Company: Autodesk,Inc. |WEB Address: www.autodesk.com
 90
      129
 91
        0
280
     0
281
     0
  0
CLASS
  1
AEC_DISP_REP_WINDOW_SILL_PLAN
  2
AecDbDispRepWindowSillPlan
  3
AecArchBase50|Product Desc: Autodesk Architectural Desktop 2007 |Company: Autodesk,Inc. |WEB Address: www.autodesk.com
 90
      129
 91
        0
280
     0
281
     0
  0
CLASS
  1
AEC_DISP_PROPS_WINDOW_SILL_PLAN
  2
AecDbDispPropsWindowSillPlan
  3
AecArchBase50|Product Desc: Autodesk Architectural Desktop 2007 |Company: Autodesk,Inc. |WEB Address: www.autodesk.com
 90
      129
 91
        0
280
     0
281
     0
  0
CLASS
  1
AEC_DISP_REP_WINDOW_RCP
  2
AecDbDispRepWindowRcp
  3
AecArchBase50|Product Desc: Autodesk Architectural Desktop 2007 |Company: Autodesk,Inc. |WEB Address: www.autodesk.com
 90
      129
 91
        0
280
     0
281
     0
  0
CLASS
  1
AEC_DISP_REP_WINDOWASSEMBLY_SILL_PLAN
  2
AecDbDispRepWindowAssemblySillPlan
  3
AecArchBase50|Product Desc: Autodesk Architectural Desktop 2007 |Company: Autodesk,Inc. |WEB Address: www.autodesk.com
 90
      129
 91
        0
280
     0
281
     0
  0
CLASS
  1
AEC_DISP_PROPS_WINDOW_ASSEMBLY_SILL_PLAN
  2
AecDbDispPropsWindowAssemblySillPlan
  3
AecArchBase50|Product Desc: Autodesk Architectural Desktop 2007 |Company: Autodesk,Inc. |WEB Address: www.autodesk.com
 90
      129
 91
        0
280
     0
281
     0
  0
CLASS
  1
AEC_DISP_REP_MASS_ELEM_RCP
  2
AecDbDispRepMassElemRcp
  3
AecArchBase50|Product Desc: Autodesk Architectural Desktop 2007 |Company: Autodesk,Inc. |WEB Address: www.autodesk.com
 90
      129
 91
        0
280
     0
281
     0
  0
CLASS
  1
AEC_DISP_REP_MVBLOCK_REF_RCP
  2
AecDbDispRepMvBlockRefRcp
  3
AecArchBase50|Product Desc: Autodesk Architectural Desktop 2007 |Company: Autodesk,Inc. |WEB Address: www.autodesk.com
 90
      129
 91
        0
280
     0
281
     0
  0
CLASS
  1
AEC_DISP_REP_DOOR_THRESHOLD_PLAN
  2
AecDbDispRepDoorThresholdPlan
  3
AecArchBase50|Product Desc: Autodesk Architectural Desktop 2007 |Company: Autodesk,Inc. |WEB Address: www.autodesk.com
 90
      129
 91
        0
280
     0
281
     0
  0
CLASS
  1
AEC_DISP_PROPS_DOOR_THRESHOLD_PLAN
  2
AecDbDispPropsDoorThresholdPlan
  3
AecArchBase50|Product Desc: Autodesk Architectural Desktop 2007 |Company: Autodesk,Inc. |WEB Address: www.autodesk.com
 90
      129
 91
        0
280
     0
281
     0
  0
CLASS
  1
AEC_DISP_REP_BDG_SECTIONLINE_RCP
  2
AecDbDispRepBdgSectionLineRcp
  3
AecArchBase50|Product Desc: Autodesk Architectural Desktop 2007 |Company: Autodesk,Inc. |WEB Address: www.autodesk.com
 90
      129
 91
        0
280
     0
281
     0
  0
CLASS
  1
AEC_DISP_REP_BDG_SECTION_MODEL
  2
AecDbDispRepBdgSectionModel
  3
AecArchBase50|Product Desc: Autodesk Architectural Desktop 2007 |Company: Autodesk,Inc. |WEB Address: www.autodesk.com
 90
      129
 91
        0
280
     0
281
     0
  0
CLASS
  1
AEC_DISP_REP_MASS_GROUP_RCP
  2
AecDbDispRepMassGroupRcp
  3
AecArchBase50|Product Desc: Autodesk Architectural Desktop 2007 |Company: Autodesk,Inc. |WEB Address: www.autodesk.com
 90
      129
 91
        0
280
     0
281
     0
  0
CLASS
  1
AEC_DISP_REP_DOOR_RCP
  2
AecDbDispRepDoorRcp
  3
AecArchBase50|Product Desc: Autodesk Architectural Desktop 2007 |Company: Autodesk,Inc. |WEB Address: www.autodesk.com
 90
      129
 91
        0
280
     0
281
     0
  0
CLASS
  1
AEC_DISP_REP_ROOF_RCP
  2
AecDbDispRepRoofRcp
  3
AecArchBase50|Product Desc: Autodesk Architectural Desktop 2007 |Company: Autodesk,Inc. |WEB Address: www.autodesk.com
 90
      129
 91
        0
280
     0
281
     0
  0
CLASS
  1
AEC_DISP_REP_BDG_ELEVLINE_RCP
  2
AecDbDispRepBdgElevLineRcp
  3
AecArchBase50|Product Desc: Autodesk Architectural Desktop 2007 |Company: Autodesk,Inc. |WEB Address: www.autodesk.com
 90
      129
 91
        0
280
     0
281
     0
  0
CLASS
  1
AEC_DISP_REP_WALL_RCP
  2
AecDbDispRepWallRcp
  3
AecArchBase50|Product Desc: Autodesk Architectural Desktop 2007 |Company: Autodesk,Inc. |WEB Address: www.autodesk.com
 90
      129
 91
        0
280
     0
281
     0
  0
CLASS
  1
AEC_DISP_REP_STAIR_RCP
  2
AecDbDispRepStairRcp
  3
AecArchBase50|Product Desc: Autodesk Architectural Desktop 2007 |Company: Autodesk,Inc. |WEB Address: www.autodesk.com
 90
      129
 91
        0
280
     0
281
     0
  0
CLASS
  1
AEC_DISP_REP_STAIR_PLAN_OVERLAPPING
  2
AecDbDispRepStairPlanOverlapping
  3
AecArchBase50|Product Desc: Autodesk Architectural Desktop 2007 |Company: Autodesk,Inc. |WEB Address: www.autodesk.com
 90
      129
 91
        0
280
     0
281
     0
  0
CLASS
  1
AEC_DISP_PROPS_STAIR_PLAN_OVERLAPPING
  2
AecDbDispPropsStairPlanOverlapping
  3
AecArchBase50|Product Desc: Autodesk Architectural Desktop 2007 |Company: Autodesk,Inc. |WEB Address: www.autodesk.com
 90
      129
 91
        0
280
     0
281
     0
  0
CLASS
  1
AEC_DISP_REP_SPACE_RCP
  2
AecDbDispRepSpaceRcp
  3
AecArchBase50|Product Desc: Autodesk Architectural Desktop 2007 |Company: Autodesk,Inc. |WEB Address: www.autodesk.com
 90
      129
 91
        0
280
     0
281
     0
  0
CLASS
  1
AEC_DISP_REP_SPACE_VOLUME
  2
AecDbDispRepSpaceVolume
  3
AecArchBase50|Product Desc: Autodesk Architectural Desktop 2007 |Company: Autodesk,Inc. |WEB Address: www.autodesk.com
 90
      129
 91
        0
280
     0
281
     0
  0
CLASS
  1
AEC_DISP_REP_DOOR_ELEV
  2
AecDbDispRepDoorElev
  3
AecArchBase50|Product Desc: Autodesk Architectural Desktop 2007 |Company: Autodesk,Inc. |WEB Address: www.autodesk.com
 90
      129
 91
        0
280
     0
281
     0
  0
CLASS
  1
AEC_DISP_REP_ANCHOR_EXT_TAG_TO_ENT
  2
AecDbDispRepAnchorExtendedTagToEnt
  3
AecScheduleData50|Product Desc: Autodesk Architectural Desktop 2007 |Company: Autodesk,Inc. |WEB Address: www.autodesk.com
 90
      129
 91
        0
280
     0
281
     0
  0
CLASS
  1
AEC_DISP_REP_ANCHOR
  2
AecDbDispRepAnchor
  3
AecBase50|Product Desc: Autodesk Architectural Desktop 2007 |Company: Autodesk,Inc. |WEB Address: www.autodesk.com
 90
      129
 91
        0
280
     0
281
     0
  0
CLASS
  1
AEC_DISP_REP_POLYGON_TRUECOLOUR
  2
AecDbDispRepPolygonTrueColour
  3
AecBaseEx50|Product Desc: Autodesk Architectural Desktop 2007 |Company: Autodesk,Inc. |WEB Address: www.autodesk.com
 90
      129
 91
        0
280
     0
281
     0
  0
CLASS
  1
AEC_DISP_PROPS_POLYGON_TRUECOLOUR
  2
AecDbDispPropsPolygonTrueColour
  3
AecBaseEx50|Product Desc: Autodesk Architectural Desktop 2007 |Company: Autodesk,Inc. |WEB Address: www.autodesk.com
 90
      129
 91
        0
280
     0
281
     0
  0
CLASS
  1
BINRECORD
  2
AcAecBinRecord
  3
AecBase50|Product Desc: Autodesk Architectural Desktop 2007 |Company: Autodesk,Inc. |WEB Address: www.autodesk.com
 90
      129
 91
        1
280
     0
281
     0
  0
CLASS
  1
ACSH_SPHERE_CLASS
  2
AcDbShSphere
  3
ObjectDBX Classes
 90
     1153
 91
        0
280
     0
281
     0
  0
CLASS
  1
ACSH_HISTORY_CLASS
  2
AcDbShHistory
  3
ObjectDBX Classes
 90
     1153
 91
        0
280
     0
281
     0
  0
CLASS
  1
SOLID_BACKGROUND
  2
AcDbSolidBackground
  3
SCENEOE
 90
     4095
 91
        0
280
     0
281
     0
  0
CLASS
  1
ACSH_BOX_CLASS
  2
AcDbShBox
  3
ObjectDBX Classes
 90
     1153
 91
        0
280
     0
281
     0
  0
CLASS
  1
ACSH_CONE_CLASS
  2
AcDbShCone
  3
ObjectDBX Classes
 90
     1153
 91
        0
280
     0
281
     0
  0
CLASS
  1
ACSH_TORUS_CLASS
  2
AcDbShTorus
  3
ObjectDBX Classes
 90
     1153
 91
        0
280
     0
281
     0
  0
CLASS
  1
HELIX
  2
AcDbHelix
  3
ObjectDBX Classes
 90
     4095
 91
        0
280
     0
281
     1
  0
CLASS
  1
ACSH_SWEEP_CLASS
  2
AcDbShSweep
  3
ObjectDBX Classes
 90
     1153
 91
        0
280
     0
281
     0
  0
CLASS
  1
EXACXREFPANELOBJECT
  2
ExAcXREFPanelObject
  3
EXAC_ESW
 90
     1025
 91
        1
280
     0
281
     0
  0
CLASS
  1
FIELD
  2
AcDbField
  3
ObjectDBX Classes
 90
     1152
 91
        0
280
     0
281
     0
  0
CLASS
  1
IMAGE
  2
AcDbRasterImage
  3
ISM
 90
     2175
 91
        0
280
     0
281
     1
  0
CLASS
  1
IMAGEDEF_REACTOR
  2
AcDbRasterImageDefReactor
  3
ISM
 90
        1
 91
        0
280
     0
281
     0
  0
CLASS
  1
IMAGEDEF
  2
AcDbRasterImageDef
  3
ISM
 90
        0
 91
        0
280
     0
281
     0
  0
CLASS
  1
FIELDLIST
  2
AcDbFieldList
  3
ObjectDBX Classes
 90
     1152
 91
        1
280
     0
281
     0
  0
CLASS
  1
RASTERVARIABLES
  2
AcDbRasterVariables
  3
ISM
 90
        0
 91
        1
280
     0
281
     0
  0
CLASS
  1
EXACTERMXREFMAP
  2
ExAcTermXrefMap
  3
EXAC_SERVICE
 90
     1025
 91
        0
280
     0
281
     0
  0
CLASS
  1
DWFDEFINITION
  2
AcDbDwfDefinition
  3
ObjectDBX Classes
 90
     1153
 91
        0
280
     0
281
     0
  0
CLASS
  1
DWFUNDERLAY
  2
AcDbDwfReference
  3
ObjectDBX Classes
 90
     1153
 91
        0
280
     0
281
     1
  0
CLASS
  1
ACAECUSTOBJ
  2
AcAeEditorObj
  3
AcAeEditorObj
 90
     1024
 91
        0
280
     0
281
     0
  0
CLASS
  1
ACDB_MTEXTOBJECTCONTEXTDATA_CLASS
  2
AcDbMTextObjectContextData
  3
ObjectDBX Classes
 90
     1153
 91
        0
280
     0
281
     0
  0
CLASS
  1
ACDB_ANGDIMOBJECTCONTEXTDATA_CLASS
  2
AcDbAngularDimensionObjectContextData
  3
ObjectDBX Classes
 90
     1153
 91
        0
280
     0
281
     0
  0
CLASS
  1
WIPEOUTVARIABLES
  2
AcDbWipeoutVariables
  3
"WipeOut|Product Desc:     WipeOut Dbx Application|Company:          Autodesk, Inc.|WEB Address:      www.autodesk.com"
 90
        0
 91
        1
280
     0
281
     0
  0
CLASS
  1
WIPEOUT
  2
AcDbWipeout
  3
"WipeOut|Product Desc: Object Enabler for WipeOut entity                        |Company: Autodesk, Inc.                        |WEB Address: www.autodesk.com"
 90
     2175
 91
        1
280
     0
281
     1
  0
ENDSEC
  0
SECTION
  2
TABLES
  0
TABLE
  2
VPORT
  5
8
330
0
100
AcDbSymbolTable
 70
     1
  0
VPORT
  5
215
330
8
100
AcDbSymbolTableRecord
100
AcDbViewportTableRecord
  2
*Active
 70
     0
 10
0.0
 20
0.0
 11
1.0
 21
1.0
 12
122.1708494135473
 22
-1879.759140838629
 13
0.0
 23
0.0
 14
0.5
 24
0.5
 15
0.5
 25
0.5
 16
0.0
 26
0.0
 36
1736.523449255554
 17
575.4799205165253
 27
202.4030064071585
 37
-142.8182665861146
 40
14011.88084416274
 41
2.116022099447513
 42
50.0
 43
0.0
 44
0.0
 50
0.0
 51
0.0
 71
     0
 72
  1000
 73
     1
 74
     3
 75
     0
 76
     0
 77
     0
 78
     0
281
     0
 65
     0
110
0.0
120
0.0
130
0.0
111
1.0
121
0.0
131
0.0
112
0.0
122
1.0
132
0.0
 79
     0
146
0.0
348
220
 60
     3
 61
     5
292
     1
282
     1
141
0.0
142
0.0
 63
   250
421
  3355443
  0
ENDTAB
  0
TABLE
  2
LTYPE
  5
5
330
0
100
AcDbSymbolTable
 70
    14
  0
LTYPE
  5
14
330
5
100
AcDbSymbolTableRecord
100
AcDbLinetypeTableRecord
  2
ByBlock
 70
     0
  3

 72
    65
 73
     0
 40
0.0
  0
LTYPE
  5
15
330
5
100
AcDbSymbolTableRecord
100
AcDbLinetypeTableRecord
  2
ByLayer
 70
     0
  3

 72
    65
 73
     0
 40
0.0
  0
LTYPE
  5
16
330
5
100
AcDbSymbolTableRecord
100
AcDbLinetypeTableRecord
  2
Continuous
 70
     0
  3
Solid line
 72
    65
 73
     0
 40
0.0
  0
LTYPE
  5
8904
330
5
100
AcDbSymbolTableRecord
100
AcDbLinetypeTableRecord
  2
00040007$0$DOT
 70
     0
  3
Dot . . . . . . . . . . . . . . . . . . . . . . . .
 72
    65
 73
     2
 40
0.25
 49
0.0
 74
     0
 49
-0.25
 74
     0
  0
LTYPE
  5
B2D3
330
5
100
AcDbSymbolTableRecord
100
AcDbLinetypeTableRecord
  2
HIDDEN
 70
     0
  3
Hidden __ __ __ __ __ __ __ __ __ __ __ __ __ _
 72
    65
 73
     2
 40
0.375
 49
0.25
 74
     0
 49
-0.125
 74
     0
  0
LTYPE
  5
B30D
330
5
100
AcDbSymbolTableRecord
100
AcDbLinetypeTableRecord
  2
DASHED
 70
     0
  3
Dashed __ __ __ __ __ __ __ __ __ __ __ __ __ _
 72
    65
 73
     2
 40
0.75
 49
0.5
 74
     0
 49
-0.25
 74
     0
  0
LTYPE
  5
B30E
330
5
100
AcDbSymbolTableRecord
100
AcDbLinetypeTableRecord
  2
CENTER
 70
     0
  3
Center ____ _ ____ _ ____ _ ____ _ ____ _ ____
 72
    65
 73
     4
 40
2.0
 49
1.25
 74
     0
 49
-0.25
 74
     0
 49
0.25
 74
     0
 49
-0.25
 74
     0
  0
LTYPE
  5
B30F
330
5
100
AcDbSymbolTableRecord
100
AcDbLinetypeTableRecord
  2
DIVIDE2
 70
     0
  3
Divide (.5x) __..__..__..__..__..__..__..__.._
 72
    65
 73
     6
 40
0.625
 49
0.25
 74
     0
 49
-0.125
 74
     0
 49
0.0
 74
     0
 49
-0.125
 74
     0
 49
0.0
 74
     0
 49
-0.125
 74
     0
  0
LTYPE
  5
B762
330
5
100
AcDbSymbolTableRecord
100
AcDbLinetypeTableRecord
  2
mp000096$0$DASHED
 70
     0
  3
Dashed __ __ __ __ __ __ __ __ __ __ __ __ __ _
 72
    65
 73
     2
 40
0.75
 49
0.5
 74
     0
 49
-0.25
 74
     0
  0
LTYPE
  5
B763
330
5
100
AcDbSymbolTableRecord
100
AcDbLinetypeTableRecord
  2
mp000096$0$CENTER
 70
     0
  3
Center ____ _ ____ _ ____ _ ____ _ ____ _ ____
 72
    65
 73
     4
 40
2.0
 49
1.25
 74
     0
 49
-0.25
 74
     0
 49
0.25
 74
     0
 49
-0.25
 74
     0
  0
LTYPE
  5
B764
330
5
100
AcDbSymbolTableRecord
100
AcDbLinetypeTableRecord
  2
mp000096$0$HIDDEN
 70
     0
  3
Hidden __ __ __ __ __ __ __ __ __ __ __ __ __ _
 72
    65
 73
     2
 40
0.375
 49
0.25
 74
     0
 49
-0.125
 74
     0
  0
LTYPE
  5
B765
330
5
100
AcDbSymbolTableRecord
100
AcDbLinetypeTableRecord
  2
mp000096$0$DIVIDE2
 70
     0
  3
Divide (.5x) __..__..__..__..__..__..__..__.._
 72
    65
 73
     6
 40
0.625
 49
0.25
 74
     0
 49
-0.125
 74
     0
 49
0.0
 74
     0
 49
-0.125
 74
     0
 49
0.0
 74
     0
 49
-0.125
 74
     0
  0
LTYPE
  5
B7EF
330
5
100
AcDbSymbolTableRecord
100
AcDbLinetypeTableRecord
  2
mp001241$0$HIDDEN
 70
     0
  3
Hidden __ __ __ __ __ __ __ __ __ __ __ __ __ _
 72
    65
 73
     2
 40
0.375
 49
0.25
 74
     0
 49
-0.125
 74
     0
  0
LTYPE
  5
B7F0
330
5
100
AcDbSymbolTableRecord
100
AcDbLinetypeTableRecord
  2
mp001241$0$DASHED
 70
     0
  3
Dashed __ __ __ __ __ __ __ __ __ __ __ __ __ _
 72
    65
 73
     2
 40
0.75
 49
0.5
 74
     0
 49
-0.25
 74
     0
  0
LTYPE
  5
B7F1
330
5
100
AcDbSymbolTableRecord
100
AcDbLinetypeTableRecord
  2
mp001241$0$CENTER
 70
     0
  3
Center ____ _ ____ _ ____ _ ____ _ ____ _ ____
 72
    65
 73
     4
 40
2.0
 49
1.25
 74
     0
 49
-0.25
 74
     0
 49
0.25
 74
     0
 49
-0.25
 74
     0
  0
LTYPE
  5
B7F2
330
5
100
AcDbSymbolTableRecord
100
AcDbLinetypeTableRecord
  2
mp001241$0$DIVIDE2
 70
     0
  3
Divide (.5x) __..__..__..__..__..__..__..__.._
 72
    65
 73
     6
 40
0.625
 49
0.25
 74
     0
 49
-0.125
 74
     0
 49
0.0
 74
     0
 49
-0.125
 74
     0
 49
0.0
 74
     0
 49
-0.125
 74
     0
  0
ENDTAB
  0
TABLE
  2
LAYER
  5
2
102
{ACAD_XDICTIONARY
360
28F
102
}
330
0
100
AcDbSymbolTable
 70
    17
  0
LAYER
  5
10
102
{ACAD_XDICTIONARY
360
308
102
}
330
2
100
AcDbSymbolTableRecord
100
AcDbLayerTableRecord
  2
0
 70
     0
 62
     7
  6
Continuous
370
    -3
390
F
347
219
  0
LAYER
  5
37D
102
{ACAD_XDICTIONARY
360
37E
102
}
330
2
100
AcDbSymbolTableRecord
100
AcDbLayerTableRecord
  2
defpoints
 70
     0
 62
     4
  6
Continuous
290
     0
370
    -3
390
F
347
219
  0
LAYER
  5
ABEE
330
2
100
AcDbSymbolTableRecord
100
AcDbLayerTableRecord
  2
MP Annotation (00134142)
 70
     0
 62
     7
  6
Continuous
370
    -3
390
F
347
219
  0
LAYER
  5
ABF4
330
2
100
AcDbSymbolTableRecord
100
AcDbLayerTableRecord
  2
MP Panel Perimeter (00134148)
 70
     0
 62
   162
420
   279240
  6
Continuous
370
    -3
390
F
347
219
  0
LAYER
  5
ABF7
330
2
100
AcDbSymbolTableRecord
100
AcDbLayerTableRecord
  2
MP Panel Hatch (00134149)
 70
     0
 62
   161
420
  6263292
  6
Continuous
370
    -3
390
F
347
219
  0
LAYER
  5
AD99
330
2
100
AcDbSymbolTableRecord
100
AcDbLayerTableRecord
  2
MP Line Breaks (00134164)
 70
     0
 62
   252
420
  7968395
  6
Continuous
370
    -3
390
F
347
219
  0
LAYER
  5
B154
102
{ACAD_XDICTIONARY
360
B155
102
}
330
2
100
AcDbSymbolTableRecord
100
AcDbLayerTableRecord
  2
mp001241$0$CAD_DEFAULT_LAYER
 70
     0
 62
     7
  6
Continuous
370
     5
390
F
347
219
  0
LAYER
  5
B156
102
{ACAD_XDICTIONARY
360
B157
102
}
330
2
100
AcDbSymbolTableRecord
100
AcDbLayerTableRecord
  2
mp001241$0$L-100
 70
     0
 62
     7
  6
Continuous
370
     5
390
F
347
219
  0
LAYER
  5
B15A
102
{ACAD_XDICTIONARY
360
B15B
102
}
330
2
100
AcDbSymbolTableRecord
100
AcDbLayerTableRecord
  2
mp001241$0$MASONS Hidden (00134167)
 70
     0
 62
     8
420
  8224125
  6
HIDDEN
370
    -3
390
F
347
219
  0
LAYER
  5
B15C
102
{ACAD_XDICTIONARY
360
B15D
102
}
330
2
100
AcDbSymbolTableRecord
100
AcDbLayerTableRecord
  2
mp001241$0$MASONS Panel Perimeter (00134148)
 70
     0
 62
   162
420
   279240
  6
Continuous
370
    -3
390
F
347
219
  0
LAYER
  5
B1AC
330
2
100
AcDbSymbolTableRecord
100
AcDbLayerTableRecord
  2
mp001241$0$Detail Flashings Perimeter (00134165)
 70
     0
 62
   143
420
  7847616
  6
Continuous
370
    -3
390
F
347
219
  0
LAYER
  5
B1AD
330
2
100
AcDbSymbolTableRecord
100
AcDbLayerTableRecord
  2
mp001241$0$MASONS Hidden Lines (00134167)
 70
     0
 62
     8
420
  8224125
  6
HIDDEN
370
    -3
390
F
347
219
  0
LAYER
  5
B1AE
330
2
100
AcDbSymbolTableRecord
100
AcDbLayerTableRecord
  2
mp001241$0$Detail Soffit Lining Perimeter (00134203)
 70
     0
 62
    55
420
 12228667
  6
Continuous
370
    -3
390
F
347
219
  0
LAYER
  5
B1AF
330
2
100
AcDbSymbolTableRecord
100
AcDbLayerTableRecord
  2
mp001241$0$Detail Fascia Boards Perimeter (00134250)
 70
     0
 62
    33
420
 11965012
  6
Continuous
370
    -3
390
F
347
219
  0
LAYER
  5
B510
330
2
100
AcDbSymbolTableRecord
100
AcDbLayerTableRecord
  2
MP Render & Coating System Inner lines (00134157)
 70
     0
 62
     8
420
  8224125
  6
Continuous
370
    -3
390
F
347
219
  0
LAYER
  5
B989
102
{ACAD_XDICTIONARY
360
B98A
102
}
330
2
100
AcDbSymbolTableRecord
100
AcDbLayerTableRecord
  2
MP Annotation (00134142) @ 50
 70
     0
 62
     7
  6
Continuous
370
    -3
390
F
347
219
1001
AcadAnnotativeDecomposition
1000
AnnotativeData
1002
{
1070
     1
1070
     1
1002
}
  0
ENDTAB
  0
TABLE
  2
STYLE
  5
3
330
0
100
AcDbSymbolTable
 70
    10
  0
STYLE
  5
11
330
3
100
AcDbSymbolTableRecord
100
AcDbTextStyleTableRecord
  2
Standard
 70
     0
 40
0.0
 41
1.0
 50
0.0
 71
     0
 42
19.36617472281852
  3
ARIAL.TTF
  4

1001
ACAD
1000
Arial
1071
       34
  0
STYLE
  5
37F
330
3
100
AcDbSymbolTableRecord
100
AcDbTextStyleTableRecord
  2
x01
 70
     0
 40
2.0
 41
1.0
 50
0.0
 71
     0
 42
2.0
  3
txt.shx
  4

1001
AcadAnnotative
1000
AnnotativeData
1002
{
1070
     1
1070
     1
1002
}
  0
STYLE
  5
380
330
3
100
AcDbSymbolTableRecord
100
AcDbTextStyleTableRecord
  2
2mm
 70
     0
 40
2.0
 41
1.0
 50
0.0
 71
     0
 42
2.0
  3
ARIAL.TTF
  4

1001
AcadAnnotative
1000
AnnotativeData
1002
{
1070
     1
1070
     1
1002
}
1001
ACAD
1000
Arial
1071
       34
  0
STYLE
  5
81FC
330
3
100
AcDbSymbolTableRecord
100
AcDbTextStyleTableRecord
  2
2.5mm
 70
     0
 40
2.5
 41
1.0
 50
0.0
 71
     0
 42
2.5
  3
ARIAL.TTF
  4

1001
AcadAnnotative
1000
AnnotativeData
1002
{
1070
     1
1070
     1
1002
}
1001
ACAD
1000
Arial
1071
       34
  0
STYLE
  5
B755
330
3
100
AcDbSymbolTableRecord
100
AcDbTextStyleTableRecord
  2
mp000096$0$Standard
 70
     0
 40
0.0
 41
1.0
 50
0.0
 71
     0
 42
19.36617472281852
  3
txt
  4

  0
STYLE
  5
B75F
330
3
100
AcDbSymbolTableRecord
100
AcDbTextStyleTableRecord
  2
mp000096$0$x01
 70
     0
 40
2.0
 41
1.0
 50
0.0
 71
     0
 42
2.0
  3
txt.shx
  4

1001
AcadAnnotative
1000
AnnotativeData
1002
{
1070
     1
1070
     1
1002
}
  0
STYLE
  5
B74C
330
3
100
AcDbSymbolTableRecord
100
AcDbTextStyleTableRecord
  2
mp000096$0$2mm
 70
     0
 40
2.0
 41
1.0
 50
0.0
 71
     0
 42
2.0
  3
ARIAL.TTF
  4

1001
AcadAnnotative
1000
AnnotativeData
1002
{
1070
     1
1070
     1
1002
}
1001
ACAD
1000
Arial
1071
       34
  0
STYLE
  5
B7E2
330
3
100
AcDbSymbolTableRecord
100
AcDbTextStyleTableRecord
  2
mp001241$0$Standard
 70
     0
 40
0.0
 41
1.0
 50
0.0
 71
     0
 42
19.36617472281852
  3
txt
  4

  0
STYLE
  5
B7EC
330
3
100
AcDbSymbolTableRecord
100
AcDbTextStyleTableRecord
  2
mp001241$0$x01
 70
     0
 40
2.0
 41
1.0
 50
0.0
 71
     0
 42
2.0
  3
txt.shx
  4

1001
AcadAnnotative
1000
AnnotativeData
1002
{
1070
     1
1070
     1
1002
}
  0
STYLE
  5
B7F3
330
3
100
AcDbSymbolTableRecord
100
AcDbTextStyleTableRecord
  2
mp001241$0$2mm
 70
     0
 40
2.0
 41
1.0
 50
0.0
 71
     0
 42
2.0
  3
txt.shx
  4

1001
AcadAnnotative
1000
AnnotativeData
1002
{
1070
     1
1070
     1
1002
}
  0
ENDTAB
  0
TABLE
  2
VIEW
  5
6
330
0
100
AcDbSymbolTable
 70
     0
  0
ENDTAB
  0
TABLE
  2
UCS
  5
7
330
0
100
AcDbSymbolTable
 70
     0
  0
ENDTAB
  0
TABLE
  2
APPID
  5
9
330
0
100
AcDbSymbolTable
 70
    28
  0
APPID
  5
12
330
9
100
AcDbSymbolTableRecord
100
AcDbRegAppTableRecord
  2
ACAD
 70
     0
  0
APPID
  5
2C5
330
9
100
AcDbSymbolTableRecord
100
AcDbRegAppTableRecord
  2
ACAD_MLEADERVER
 70
     0
  0
APPID
  5
30C
330
9
100
AcDbSymbolTableRecord
100
AcDbRegAppTableRecord
  2
DCO15
 70
     0
  0
APPID
  5
347
330
9
100
AcDbSymbolTableRecord
100
AcDbRegAppTableRecord
  2
ACAD_EXEMPT_FROM_CAD_STANDARDS
 70
     0
  0
APPID
  5
384
330
9
100
AcDbSymbolTableRecord
100
AcDbRegAppTableRecord
  2
ACAD_PSEXT
 70
     0
  0
APPID
  5
385
330
9
100
AcDbSymbolTableRecord
100
AcDbRegAppTableRecord
  2
AcadAnnotative
 70
     0
  0
APPID
  5
386
330
9
100
AcDbSymbolTableRecord
100
AcDbRegAppTableRecord
  2
ACAD_DSTYLE_DIMJAG
 70
     0
  0
APPID
  5
387
330
9
100
AcDbSymbolTableRecord
100
AcDbRegAppTableRecord
  2
ACAD_DSTYLE_DIMTALN
 70
     0
  0
APPID
  5
388
330
9
100
AcDbSymbolTableRecord
100
AcDbRegAppTableRecord
  2
ACAD_DSTYLE_DIMBREAK
 70
     0
  0
APPID
  5
4EF
330
9
100
AcDbSymbolTableRecord
100
AcDbRegAppTableRecord
  2
AcDbBlockRepETag
 70
     0
  0
APPID
  5
4F0
330
9
100
AcDbSymbolTableRecord
100
AcDbRegAppTableRecord
  2
AcAecLayerStandard
 70
     0
  0
APPID
  5
4F1
330
9
100
AcDbSymbolTableRecord
100
AcDbRegAppTableRecord
  2
AcDbDynamicBlockGUID
 70
     0
  0
APPID
  5
4F2
330
9
100
AcDbSymbolTableRecord
100
AcDbRegAppTableRecord
  2
AcDbDynamicBlockTrueName
 70
     0
  0
APPID
  5
4F3
330
9
100
AcDbSymbolTableRecord
100
AcDbRegAppTableRecord
  2
AcDbBlockRepBTag
 70
     0
  0
APPID
  5
4F4
330
9
100
AcDbSymbolTableRecord
100
AcDbRegAppTableRecord
  2
AEC_XDATA_BOUND_SPACE
 70
     0
  0
APPID
  5
A0D
330
9
100
AcDbSymbolTableRecord
100
AcDbRegAppTableRecord
  2
AECBASE
 70
     0
  0
APPID
  5
A0E
330
9
100
AcDbSymbolTableRecord
100
AcDbRegAppTableRecord
  2
AEC_OBJVER_INFO
 70
     0
  0
APPID
  5
A0F
330
9
100
AcDbSymbolTableRecord
100
AcDbRegAppTableRecord
  2
AcadAnnoAV
 70
     0
  0
APPID
  5
A6C
330
9
100
AcDbSymbolTableRecord
100
AcDbRegAppTableRecord
  2
AcLayerTools
 70
     0
  0
APPID
  5
A6D
330
9
100
AcDbSymbolTableRecord
100
AcDbRegAppTableRecord
  2
AcadAnnotativeDecomposition
 70
     0
  0
APPID
  5
13E1
330
9
100
AcDbSymbolTableRecord
100
AcDbRegAppTableRecord
  2
ACAUTHENVIRON
 70
     0
  0
APPID
  5
13E2
330
9
100
AcDbSymbolTableRecord
100
AcDbRegAppTableRecord
  2
AcadAnnoPO
 70
     0
  0
APPID
  5
2C78
330
9
100
AcDbSymbolTableRecord
100
AcDbRegAppTableRecord
  2
PE_URL
 70
     0
  0
APPID
  5
5B7D
330
9
100
AcDbSymbolTableRecord
100
AcDbRegAppTableRecord
  2
ACAD_MATERIAL_MAPPER
 70
     0
  0
APPID
  5
5B7E
330
9
100
AcDbSymbolTableRecord
100
AcDbRegAppTableRecord
  2
ACAD_MATERIAL_MAPPER_2
 70
     0
  0
APPID
  5
5B7F
330
9
100
AcDbSymbolTableRecord
100
AcDbRegAppTableRecord
  2
ACAD_DSTYLE_DIMRADIAL_EXTENSION
 70
     0
  0
APPID
  5
6B9D
330
9
100
AcDbSymbolTableRecord
100
AcDbRegAppTableRecord
  2
ACAD_DSTYLE_DIMJAG_POSITION
 70
     0
  0
APPID
  5
8451
330
9
100
AcDbSymbolTableRecord
100
AcDbRegAppTableRecord
  2
AcDbBlockArrayActionTag
 70
     0
  0
ENDTAB
  0
TABLE
  2
DIMSTYLE
  5
A
330
0
100
AcDbSymbolTable
 70
     7
100
AcDbDimStyleTable
 71
     2
340
712B
340
27
  0
DIMSTYLE
105
27
330
A
100
AcDbSymbolTableRecord
100
AcDbDimStyleTableRecord
  2
Standard
 70
     0
340
11
  0
DIMSTYLE
105
712B
330
A
100
AcDbSymbolTableRecord
100
AcDbDimStyleTableRecord
  2
3D 2.0mm
 70
     0
 41
2.0
 42
0.0
 43
50.0
 44
0.0
 73
     0
 74
     0
 77
     1
140
2.0
147
1.0
179
     1
271
     0
272
     0
290
     1
340
380
342
6B7A
1001
ACAD_DSTYLE_DIMBREAK
1070
   391
1040
0.125
1001
AcadAnnotative
1000
AnnotativeData
1002
{
1070
     1
1070
     1
1002
}
1001
ACAD_DSTYLE_DIMJAG
1070
   388
1040
1.5
1001
ACAD_DSTYLE_DIMTALN
1070
   392
1070
     0
  0
DIMSTYLE
105
8201
330
A
100
AcDbSymbolTableRecord
100
AcDbDimStyleTableRecord
  2
3D 2.5mm
 70
     0
 41
2.5
 42
0.0
 43
50.0
 44
0.0
 73
     0
 74
     0
 77
     1
140
2.5
147
1.0
179
     3
271
     1
272
     1
290
     1
340
81FC
342
6B7A
1001
ACAD_DSTYLE_DIMBREAK
1070
   391
1040
0.125
1001
AcadAnnotative
1000
AnnotativeData
1002
{
1070
     1
1070
     1
1002
}
1001
ACAD_DSTYLE_DIMJAG
1070
   388
1040
1.5
1001
ACAD_DSTYLE_DIMTALN
1070
   392
1070
     0
  0
DIMSTYLE
105
B766
330
A
100
AcDbSymbolTableRecord
100
AcDbDimStyleTableRecord
  2
mp000096$0$Standard
 70
     0
340
B755
  0
DIMSTYLE
105
B767
330
A
100
AcDbSymbolTableRecord
100
AcDbDimStyleTableRecord
  2
mp000096$0$2mm
 70
     0
  4
M
 41
3.0
 42
3.0
 43
400.0
 44
1.0
 73
     0
 74
     0
140
2.0
141
2.0
143
0.001
147
0.0
176
   256
177
   256
178
   256
179
     2
271
     0
272
     0
279
     2
285
     8
340
B74C
341
B756
342
B756
345
15
346
15
347
15
371
     9
372
     9
1001
ACAD_DSTYLE_DIMBREAK
1070
   391
1040
0.0
1001
AcadAnnotative
1000
AnnotativeData
1002
{
1070
     1
1070
     1
1002
}
1001
ACAD_DSTYLE_DIMJAG
1070
   388
1040
4.0
1001
ACAD_DSTYLE_DIMTALN
1070
   392
1070
     0
  0
DIMSTYLE
105
B7F4
330
A
100
AcDbSymbolTableRecord
100
AcDbDimStyleTableRecord
  2
mp001241$0$Standard
 70
     0
340
B7E2
  0
DIMSTYLE
105
B7F5
330
A
100
AcDbSymbolTableRecord
100
AcDbDimStyleTableRecord
  2
mp001241$0$2mm
 70
     0
  4
M
 41
3.0
 42
3.0
 43
400.0
 44
1.0
 73
     0
 74
     0
140
2.0
141
2.0
143
0.001
147
0.0
176
   256
177
   256
178
   256
179
     2
271
     0
272
     0
279
     2
285
     8
340
B7F3
341
B7E3
342
B7E3
345
15
346
15
347
15
371
     9
372
     9
1001
ACAD_DSTYLE_DIMBREAK
1070
   391
1040
0.0
1001
AcadAnnotative
1000
AnnotativeData
1002
{
1070
     1
1070
     1
1002
}
1001
ACAD_DSTYLE_DIMJAG
1070
   388
1040
4.0
1001
ACAD_DSTYLE_DIMTALN
1070
   392
1070
     0
  0
ENDTAB
  0
TABLE
  2
BLOCK_RECORD
  5
1
330
0
100
AcDbSymbolTable
 70
    13
  0
BLOCK_RECORD
  5
1F
102
{ACAD_XDICTIONARY
360
102E
102
}
330
1
100
AcDbSymbolTableRecord
100
AcDbBlockTableRecord
  2
*Model_Space
340
22
 70
     0
280
     1
281
     0
  0
BLOCK_RECORD
  5
16B9
330
1
100
AcDbSymbolTableRecord
100
AcDbBlockTableRecord
  2
*Paper_Space
340
16BA
 70
     0
280
     1
281
     0
  0
BLOCK_RECORD
  5
356
330
1
100
AcDbSymbolTableRecord
100
AcDbBlockTableRecord
  2
_DetailCallout
340
0
310
2800000020000000200000000100080000000000000400000000000000000000000000000000000000000000000080000080000000808000800000008000800080800000C0C0C000C0DCC000F0CAA6000020400000206000002080000020A0000020C0000020E00000400000004020000040400000406000004080000040A0
310
000040C0000040E00000600000006020000060400000606000006080000060A0000060C0000060E00000800000008020000080400000806000008080000080A0000080C0000080E00000A0000000A0200000A0400000A0600000A0800000A0A00000A0C00000A0E00000C0000000C0200000C0400000C0600000C0800000C0
310
A00000C0C00000C0E00000E0000000E0200000E0400000E0600000E0800000E0A00000E0C00000E0E00040000000400020004000400040006000400080004000A0004000C0004000E00040200000402020004020400040206000402080004020A0004020C0004020E000404000004040200040404000404060004040800040
310
40A0004040C0004040E00040600000406020004060400040606000406080004060A0004060C0004060E00040800000408020004080400040806000408080004080A0004080C0004080E00040A0000040A0200040A0400040A0600040A0800040A0A00040A0C00040A0E00040C0000040C0200040C0400040C0600040C08000
310
40C0A00040C0C00040C0E00040E0000040E0200040E0400040E0600040E0800040E0A00040E0C00040E0E00080000000800020008000400080006000800080008000A0008000C0008000E00080200000802020008020400080206000802080008020A0008020C0008020E00080400000804020008040400080406000804080
310
008040A0008040C0008040E00080600000806020008060400080606000806080008060A0008060C0008060E00080800000808020008080400080806000808080008080A0008080C0008080E00080A0000080A0200080A0400080A0600080A0800080A0A00080A0C00080A0E00080C0000080C0200080C0400080C0600080C0
310
800080C0A00080C0C00080C0E00080E0000080E0200080E0400080E0600080E0800080E0A00080E0C00080E0E000C0000000C0002000C0004000C0006000C0008000C000A000C000C000C000E000C0200000C0202000C0204000C0206000C0208000C020A000C020C000C020E000C0400000C0402000C0404000C0406000C0
310
408000C040A000C040C000C040E000C0600000C0602000C0604000C0606000C0608000C060A000C060C000C060E000C0800000C0802000C0804000C0806000C0808000C080A000C080C000C080E000C0A00000C0A02000C0A04000C0A06000C0A08000C0A0A000C0A0C000C0A0E000C0C00000C0C02000C0C04000C0C06000
310
C0C08000C0C0A000F0FBFF00A4A0A000808080000000FF0000FF000000FFFF00FF000000FF00FF00FFFF0000FFFFFF00000000000000000000000000000000000000000000000000000000000000000000000000000000000000000000FFFFFFFFFFFF0000000000000000000000000000000000000000000000FFFFFF0000
310
00000000FFFFFF000000000000000000000000000000000000FFFF000000000000000000000000FFFF000000000000000000000000000000FF00000000000000000000000000000000FF00000000000000FFFF00FFFFFFFFFF0000FF000000FF0000FF0000FFFFFF00FFFF0000FF00FFFF000000FF00FF00000000FF000000
310
FF00FFFF00FF000000FFFF00FF00FF00FF00000000FFFF0000000000FF000000FF00FFFF00FF000000FFFF00FFFFFF00FF00FF0000FFFFFF00000000FF000000FFFF00FF00FF000000FFFFFF00FFFF00FFFF000000FF000000000000FF000000FFFF00FF00FF000000FFFFFF00FFFF00FF00FFFF00FFFFFFFFFFFFFFFFFFFF
310
00FF0000FF00FF000000FFFF000000FF00FFFF000000FF000000000000000000000000000000000000000000000000FF0000000000FF0000000000000000000000000000000000000000000000000000FF00000000FF0000000000000000000000000000000000000000000000000000FF00000000FF000000000000000000
310
0000000000000000000000000000000000FF000000FF00000000000000000000000000000000000000000000000000000000FF0000FFFFFFFFFFFFFFFFFFFFFFFFFFFFFFFFFFFFFFFFFFFFFFFFFFFFFFFFFFFF00FFFFFFFF000000FFFF000000FF000000FF00FFFFFF0000FF0000FF00FFFFFF00FF00FF00000000FFFF0000
310
00FF0000FFFFFF000000FF00FF0000FF0000FF00FFFF00FF000000FF00FFFF0000FF0000FFFFFF000000FF00FFFF00FF0000FF00FFFFFF00FF0000FF00FFFF0000FF00FF00FFFF000000FF00FFFFFFFF00FFFFFF00FF0000FF0000FF0000FF0000FFFF0000FFFF000000FF00FFFFFFFF00FFFF00FFFF0000FF00FF00000000
310
FF00FFFF0000FFFF000000FF00FF0000FF00FFFF00FFFFFFFFFFFFFF00000000FF00FF000000FFFF000000FF00FF0000FFFFFFFFFF0000000000FF00000000000000000000000000000000000000000000FF000000000000000000FF0000000000000000000000000000000000000000FF0000000000000000000000FF0000
310
00000000000000000000000000000000FF00000000000000000000000000FF00000000000000000000000000000000FF000000000000000000000000000000FFFF000000000000000000000000FFFF000000000000000000000000000000000000FFFFFF000000000000FFFFFF000000000000000000000000000000000000
310
0000000000FFFFFFFFFFFF000000000000000000000000000000000000000000000000000000000000000000000000000000000000000000
 70
     4
280
     1
281
     0
  0
BLOCK_RECORD
  5
6B77
102
{ACAD_XDICTIONARY
360
88F6
102
}
330
1
100
AcDbSymbolTableRecord
100
AcDbBlockTableRecord
  2
00002778
340
0
102
{BLKREFS
331
6B7D
102
}
 70
     0
280
     1
281
     0
  0
BLOCK_RECORD
  5
6B7A
102
{ACAD_XDICTIONARY
360
6B7B
102
}
330
1
100
AcDbSymbolTableRecord
100
AcDbBlockTableRecord
  2
tick1
340
0
102
{BLKREFS
331
B68C
331
B68D
331
B692
331
B693
331
B699
331
B69A
331
B6A6
331
B6A7
331
B6AC
331
B6AD
331
B6B3
331
B6B4
331
B6BE
331
B6BF
331
B6C7
331
B6C8
331
B6DD
331
B6DE
331
B6E4
331
B6E5
331
B6EB
331
B6EC
331
B6F2
331
B6F3
331
B6F9
331
B6FA
331
B700
331
B701
331
B707
331
B708
331
B70E
331
B70F
331
B715
331
B716
331
B71C
331
B71D
331
B723
331
B724
331
B729
331
B72A
102
}
 70
     4
280
     1
281
     1
1001
AcDbDynamicBlockGUID
1000
{16CA1FB7-EA64-49F7-ADDE-79C8733B3100}
1001
AcDbBlockRepETag
1070
     1
1071
        1
  0
BLOCK_RECORD
  5
72AE
102
{ACAD_XDICTIONARY
360
72AF
102
}
330
1
100
AcDbSymbolTableRecord
100
AcDbBlockTableRecord
  2
*U3
340
0
 70
     4
280
     1
281
     1
1001
AcadAnnotative
1000
AnnotativeData
1002
{
1070
     1
1070
     1
1002
}
1001
AcDbDynamicBlockTrueName
1000
Extension Line
1001
AcDbDynamicBlockGUID
1000
{36D637E2-77C6-4441-BFB0-E5BE8ED08342}
1001
AcDbBlockRepETag
1070
     1
1071
        1
  0
BLOCK_RECORD
  5
82A7
102
{ACAD_XDICTIONARY
360
8909
102
}
330
1
100
AcDbSymbolTableRecord
100
AcDbBlockTableRecord
  2
00040007
340
0
102
{BLKREFS
331
82A6
102
}
 70
     0
280
     1
281
     0
  0
BLOCK_RECORD
  5
82A3
102
{ACAD_XDICTIONARY
360
82A4
102
}
330
1
100
AcDbSymbolTableRecord
100
AcDbBlockTableRecord
  2
Wipe Out
340
0
 70
     4
280
     1
281
     1
1001
AcadAnnotative
1000
AnnotativeData
1002
{
1070
     1
1070
     1
1002
}
1001
AcDbDynamicBlockGUID
1000
{61568EBE-DA10-4FDA-8833-AB6AF5C115D5}
1001
AcDbBlockRepETag
1070
     1
1071
       29
  0
BLOCK_RECORD
  5
901E
102
{ACAD_XDICTIONARY
360
B750
102
}
330
1
100
AcDbSymbolTableRecord
100
AcDbBlockTableRecord
  2
mp000096
340
0
102
{BLKREFS
331
9027
102
}
 70
     0
280
     1
281
     0
  0
BLOCK_RECORD
  5
B151
102
{ACAD_XDICTIONARY
360
B7DD
102
}
330
1
100
AcDbSymbolTableRecord
100
AcDbBlockTableRecord
  2
mp001241
340
0
102
{BLKREFS
331
B166
102
}
 70
     0
280
     1
281
     0
  0
BLOCK_RECORD
  5
B756
330
1
100
AcDbSymbolTableRecord
100
AcDbBlockTableRecord
  2
mp000096$0$_OBLIQUE
340
0
310
2800000020000000200000000100080000000000000400000000000000000000000000000000000000000000000080000080000000808000800000008000800080800000C0C0C000C0DCC000F0CAA6000020400000206000002080000020A0000020C0000020E00000400000004020000040400000406000004080000040A0
310
000040C0000040E00000600000006020000060400000606000006080000060A0000060C0000060E00000800000008020000080400000806000008080000080A0000080C0000080E00000A0000000A0200000A0400000A0600000A0800000A0A00000A0C00000A0E00000C0000000C0200000C0400000C0600000C0800000C0
310
A00000C0C00000C0E00000E0000000E0200000E0400000E0600000E0800000E0A00000E0C00000E0E00040000000400020004000400040006000400080004000A0004000C0004000E00040200000402020004020400040206000402080004020A0004020C0004020E000404000004040200040404000404060004040800040
310
40A0004040C0004040E00040600000406020004060400040606000406080004060A0004060C0004060E00040800000408020004080400040806000408080004080A0004080C0004080E00040A0000040A0200040A0400040A0600040A0800040A0A00040A0C00040A0E00040C0000040C0200040C0400040C0600040C08000
310
40C0A00040C0C00040C0E00040E0000040E0200040E0400040E0600040E0800040E0A00040E0C00040E0E00080000000800020008000400080006000800080008000A0008000C0008000E00080200000802020008020400080206000802080008020A0008020C0008020E00080400000804020008040400080406000804080
310
008040A0008040C0008040E00080600000806020008060400080606000806080008060A0008060C0008060E00080800000808020008080400080806000808080008080A0008080C0008080E00080A0000080A0200080A0400080A0600080A0800080A0A00080A0C00080A0E00080C0000080C0200080C0400080C0600080C0
310
800080C0A00080C0C00080C0E00080E0000080E0200080E0400080E0600080E0800080E0A00080E0C00080E0E000C0000000C0002000C0004000C0006000C0008000C000A000C000C000C000E000C0200000C0202000C0204000C0206000C0208000C020A000C020C000C020E000C0400000C0402000C0404000C0406000C0
310
408000C040A000C040C000C040E000C0600000C0602000C0604000C0606000C0608000C060A000C060C000C060E000C0800000C0802000C0804000C0806000C0808000C080A000C080C000C080E000C0A00000C0A02000C0A04000C0A06000C0A08000C0A0A000C0A0C000C0A0E000C0C00000C0C02000C0C04000C0C06000
310
C0C08000C0C0A000F0FBFF00A4A0A000808080000000FF0000FF000000FFFF00FF000000FF00FF00FFFF0000FFFFFF00000000000000000000000000000000000000000000000000000000000000000000FF0000000000000000000000000000000000000000000000000000000000000000FF000000000000000000000000
310
0000000000000000000000000000000000000000FF0000000000000000000000000000000000000000000000000000000000000000FF0000000000000000000000000000000000000000000000000000000000000000FF0000000000000000000000000000000000000000000000000000000000000000FF00000000000000
310
00000000000000000000000000000000000000000000000000FF0000000000000000000000000000000000000000000000000000000000000000FF0000000000000000000000000000000000000000000000000000000000000000FF0000000000000000000000000000000000000000000000000000000000000000FF0000
310
000000000000000000000000000000000000000000000000000000000000FF0000000000000000000000000000000000000000000000000000000000000000FF0000000000000000000000000000000000000000000000000000000000000000FF000000000000000000000000000000000000000000000000000000000000
310
0000FF0000000000000000000000000000000000000000000000000000000000000000FF0000000000000000000000000000000000000000000000000000000000000000FF0000000000000000000000000000000000000000000000000000000000000000FF00000000000000000000000000000000000000000000000000
310
00000000000000FF0000000000000000000000000000000000000000000000000000000000000000FF0000000000000000000000000000000000000000000000000000000000000000FF0000000000000000000000000000000000000000000000000000000000000000FF0000000000000000000000000000000000000000
310
000000000000000000000000FF0000000000000000000000000000000000000000000000000000000000000000FF0000000000000000000000000000000000000000000000000000000000000000FF0000000000000000000000000000000000000000000000000000000000000000FF000000000000000000000000000000
310
0000000000000000000000000000000000FF0000000000000000000000000000000000000000000000000000000000000000FF0000000000000000000000000000000000000000000000000000000000000000FF0000000000000000000000000000000000000000000000000000000000000000FF00000000000000000000
310
00000000000000000000000000000000000000000000FF000000000000000000000000000000000000000000000000000000000000000000
 70
     0
280
     1
281
     0
  0
BLOCK_RECORD
  5
B75A
330
1
100
AcDbSymbolTableRecord
100
AcDbBlockTableRecord
  2
mp000096$0$_DetailCallout
340
0
310
2800000020000000200000000100080000000000000400000000000000000000000000000000000000000000000080000080000000808000800000008000800080800000C0C0C000C0DCC000F0CAA6000020400000206000002080000020A0000020C0000020E00000400000004020000040400000406000004080000040A0
310
000040C0000040E00000600000006020000060400000606000006080000060A0000060C0000060E00000800000008020000080400000806000008080000080A0000080C0000080E00000A0000000A0200000A0400000A0600000A0800000A0A00000A0C00000A0E00000C0000000C0200000C0400000C0600000C0800000C0
310
A00000C0C00000C0E00000E0000000E0200000E0400000E0600000E0800000E0A00000E0C00000E0E00040000000400020004000400040006000400080004000A0004000C0004000E00040200000402020004020400040206000402080004020A0004020C0004020E000404000004040200040404000404060004040800040
310
40A0004040C0004040E00040600000406020004060400040606000406080004060A0004060C0004060E00040800000408020004080400040806000408080004080A0004080C0004080E00040A0000040A0200040A0400040A0600040A0800040A0A00040A0C00040A0E00040C0000040C0200040C0400040C0600040C08000
310
40C0A00040C0C00040C0E00040E0000040E0200040E0400040E0600040E0800040E0A00040E0C00040E0E00080000000800020008000400080006000800080008000A0008000C0008000E00080200000802020008020400080206000802080008020A0008020C0008020E00080400000804020008040400080406000804080
310
008040A0008040C0008040E00080600000806020008060400080606000806080008060A0008060C0008060E00080800000808020008080400080806000808080008080A0008080C0008080E00080A0000080A0200080A0400080A0600080A0800080A0A00080A0C00080A0E00080C0000080C0200080C0400080C0600080C0
310
800080C0A00080C0C00080C0E00080E0000080E0200080E0400080E0600080E0800080E0A00080E0C00080E0E000C0000000C0002000C0004000C0006000C0008000C000A000C000C000C000E000C0200000C0202000C0204000C0206000C0208000C020A000C020C000C020E000C0400000C0402000C0404000C0406000C0
310
408000C040A000C040C000C040E000C0600000C0602000C0604000C0606000C0608000C060A000C060C000C060E000C0800000C0802000C0804000C0806000C0808000C080A000C080C000C080E000C0A00000C0A02000C0A04000C0A06000C0A08000C0A0A000C0A0C000C0A0E000C0C00000C0C02000C0C04000C0C06000
310
C0C08000C0C0A000F0FBFF00A4A0A000808080000000FF0000FF000000FFFF00FF000000FF00FF00FFFF0000FFFFFF00000000000000000000000000000000000000000000000000000000000000000000000000000000000000000000FFFFFFFFFFFF0000000000000000000000000000000000000000000000FFFFFF0000
310
00000000FFFFFF000000000000000000000000000000000000FFFF000000000000000000000000FFFF000000000000000000000000000000FF00000000000000000000000000000000FF00000000000000FFFF00FFFFFFFFFF0000FF000000FF0000FF0000FFFFFF00FFFF0000FF00FFFF000000FF00FF00000000FF000000
310
FF00FFFF00FF000000FFFF00FF00FF00FF00000000FFFF0000000000FF000000FF00FFFF00FF000000FFFF00FFFFFF00FF00FF0000FFFFFF00000000FF000000FFFF00FF00FF000000FFFFFF00FFFF00FFFF000000FF000000000000FF000000FFFF00FF00FF000000FFFFFF00FFFF00FF00FFFF00FFFFFFFFFFFFFFFFFFFF
310
00FF0000FF00FF000000FFFF000000FF00FFFF000000FF000000000000000000000000000000000000000000000000FF0000000000FF0000000000000000000000000000000000000000000000000000FF00000000FF0000000000000000000000000000000000000000000000000000FF00000000FF000000000000000000
310
0000000000000000000000000000000000FF000000FF00000000000000000000000000000000000000000000000000000000FF0000FFFFFFFFFFFFFFFFFFFFFFFFFFFFFFFFFFFFFFFFFFFFFFFFFFFFFFFFFFFF00FFFFFFFF000000FFFF000000FF000000FF00FFFFFF0000FF0000FF00FFFFFF00FF00FF00000000FFFF0000
310
00FF0000FFFFFF000000FF00FF0000FF0000FF00FFFF00FF000000FF00FFFF0000FF0000FFFFFF000000FF00FFFF00FF0000FF00FFFFFF00FF0000FF00FFFF0000FF00FF00FFFF000000FF00FFFFFFFF00FFFFFF00FF0000FF0000FF0000FF0000FFFF0000FFFF000000FF00FFFFFFFF00FFFF00FFFF0000FF00FF00000000
310
FF00FFFF0000FFFF000000FF00FF0000FF00FFFF00FFFFFFFFFFFFFF00000000FF00FF000000FFFF000000FF00FF0000FFFFFFFFFF0000000000FF00000000000000000000000000000000000000000000FF000000000000000000FF0000000000000000000000000000000000000000FF0000000000000000000000FF0000
310
00000000000000000000000000000000FF00000000000000000000000000FF00000000000000000000000000000000FF000000000000000000000000000000FFFF000000000000000000000000FFFF000000000000000000000000000000000000FFFFFF000000000000FFFFFF000000000000000000000000000000000000
310
0000000000FFFFFFFFFFFF000000000000000000000000000000000000000000000000000000000000000000000000000000000000000000
 70
     4
280
     1
281
     0
  0
BLOCK_RECORD
  5
B7E3
330
1
100
AcDbSymbolTableRecord
100
AcDbBlockTableRecord
  2
mp001241$0$_OBLIQUE
340
0
310
2800000020000000200000000100080000000000000400000000000000000000000000000000000000000000000080000080000000808000800000008000800080800000C0C0C000C0DCC000F0CAA6000020400000206000002080000020A0000020C0000020E00000400000004020000040400000406000004080000040A0
310
000040C0000040E00000600000006020000060400000606000006080000060A0000060C0000060E00000800000008020000080400000806000008080000080A0000080C0000080E00000A0000000A0200000A0400000A0600000A0800000A0A00000A0C00000A0E00000C0000000C0200000C0400000C0600000C0800000C0
310
A00000C0C00000C0E00000E0000000E0200000E0400000E0600000E0800000E0A00000E0C00000E0E00040000000400020004000400040006000400080004000A0004000C0004000E00040200000402020004020400040206000402080004020A0004020C0004020E000404000004040200040404000404060004040800040
310
40A0004040C0004040E00040600000406020004060400040606000406080004060A0004060C0004060E00040800000408020004080400040806000408080004080A0004080C0004080E00040A0000040A0200040A0400040A0600040A0800040A0A00040A0C00040A0E00040C0000040C0200040C0400040C0600040C08000
310
40C0A00040C0C00040C0E00040E0000040E0200040E0400040E0600040E0800040E0A00040E0C00040E0E00080000000800020008000400080006000800080008000A0008000C0008000E00080200000802020008020400080206000802080008020A0008020C0008020E00080400000804020008040400080406000804080
310
008040A0008040C0008040E00080600000806020008060400080606000806080008060A0008060C0008060E00080800000808020008080400080806000808080008080A0008080C0008080E00080A0000080A0200080A0400080A0600080A0800080A0A00080A0C00080A0E00080C0000080C0200080C0400080C0600080C0
310
800080C0A00080C0C00080C0E00080E0000080E0200080E0400080E0600080E0800080E0A00080E0C00080E0E000C0000000C0002000C0004000C0006000C0008000C000A000C000C000C000E000C0200000C0202000C0204000C0206000C0208000C020A000C020C000C020E000C0400000C0402000C0404000C0406000C0
310
408000C040A000C040C000C040E000C0600000C0602000C0604000C0606000C0608000C060A000C060C000C060E000C0800000C0802000C0804000C0806000C0808000C080A000C080C000C080E000C0A00000C0A02000C0A04000C0A06000C0A08000C0A0A000C0A0C000C0A0E000C0C00000C0C02000C0C04000C0C06000
310
C0C08000C0C0A000F0FBFF00A4A0A000808080000000FF0000FF000000FFFF00FF000000FF00FF00FFFF0000FFFFFF00000000000000000000000000000000000000000000000000000000000000000000FF0000000000000000000000000000000000000000000000000000000000000000FF000000000000000000000000
310
0000000000000000000000000000000000000000FF0000000000000000000000000000000000000000000000000000000000000000FF0000000000000000000000000000000000000000000000000000000000000000FF0000000000000000000000000000000000000000000000000000000000000000FF00000000000000
310
00000000000000000000000000000000000000000000000000FF0000000000000000000000000000000000000000000000000000000000000000FF0000000000000000000000000000000000000000000000000000000000000000FF0000000000000000000000000000000000000000000000000000000000000000FF0000
310
000000000000000000000000000000000000000000000000000000000000FF0000000000000000000000000000000000000000000000000000000000000000FF0000000000000000000000000000000000000000000000000000000000000000FF000000000000000000000000000000000000000000000000000000000000
310
0000FF0000000000000000000000000000000000000000000000000000000000000000FF0000000000000000000000000000000000000000000000000000000000000000FF0000000000000000000000000000000000000000000000000000000000000000FF00000000000000000000000000000000000000000000000000
310
00000000000000FF0000000000000000000000000000000000000000000000000000000000000000FF0000000000000000000000000000000000000000000000000000000000000000FF0000000000000000000000000000000000000000000000000000000000000000FF0000000000000000000000000000000000000000
310
000000000000000000000000FF0000000000000000000000000000000000000000000000000000000000000000FF0000000000000000000000000000000000000000000000000000000000000000FF0000000000000000000000000000000000000000000000000000000000000000FF000000000000000000000000000000
310
0000000000000000000000000000000000FF0000000000000000000000000000000000000000000000000000000000000000FF0000000000000000000000000000000000000000000000000000000000000000FF0000000000000000000000000000000000000000000000000000000000000000FF00000000000000000000
310
00000000000000000000000000000000000000000000FF000000000000000000000000000000000000000000000000000000000000000000
 70
     0
280
     1
281
     0
  0
BLOCK_RECORD
  5
B7E7
330
1
100
AcDbSymbolTableRecord
100
AcDbBlockTableRecord
  2
mp001241$0$_DetailCallout
340
0
310
2800000020000000200000000100080000000000000400000000000000000000000000000000000000000000000080000080000000808000800000008000800080800000C0C0C000C0DCC000F0CAA6000020400000206000002080000020A0000020C0000020E00000400000004020000040400000406000004080000040A0
310
000040C0000040E00000600000006020000060400000606000006080000060A0000060C0000060E00000800000008020000080400000806000008080000080A0000080C0000080E00000A0000000A0200000A0400000A0600000A0800000A0A00000A0C00000A0E00000C0000000C0200000C0400000C0600000C0800000C0
310
A00000C0C00000C0E00000E0000000E0200000E0400000E0600000E0800000E0A00000E0C00000E0E00040000000400020004000400040006000400080004000A0004000C0004000E00040200000402020004020400040206000402080004020A0004020C0004020E000404000004040200040404000404060004040800040
310
40A0004040C0004040E00040600000406020004060400040606000406080004060A0004060C0004060E00040800000408020004080400040806000408080004080A0004080C0004080E00040A0000040A0200040A0400040A0600040A0800040A0A00040A0C00040A0E00040C0000040C0200040C0400040C0600040C08000
310
40C0A00040C0C00040C0E00040E0000040E0200040E0400040E0600040E0800040E0A00040E0C00040E0E00080000000800020008000400080006000800080008000A0008000C0008000E00080200000802020008020400080206000802080008020A0008020C0008020E00080400000804020008040400080406000804080
310
008040A0008040C0008040E00080600000806020008060400080606000806080008060A0008060C0008060E00080800000808020008080400080806000808080008080A0008080C0008080E00080A0000080A0200080A0400080A0600080A0800080A0A00080A0C00080A0E00080C0000080C0200080C0400080C0600080C0
310
800080C0A00080C0C00080C0E00080E0000080E0200080E0400080E0600080E0800080E0A00080E0C00080E0E000C0000000C0002000C0004000C0006000C0008000C000A000C000C000C000E000C0200000C0202000C0204000C0206000C0208000C020A000C020C000C020E000C0400000C0402000C0404000C0406000C0
310
408000C040A000C040C000C040E000C0600000C0602000C0604000C0606000C0608000C060A000C060C000C060E000C0800000C0802000C0804000C0806000C0808000C080A000C080C000C080E000C0A00000C0A02000C0A04000C0A06000C0A08000C0A0A000C0A0C000C0A0E000C0C00000C0C02000C0C04000C0C06000
310
C0C08000C0C0A000F0FBFF00A4A0A000808080000000FF0000FF000000FFFF00FF000000FF00FF00FFFF0000FFFFFF00000000000000000000000000000000000000000000000000000000000000000000000000000000000000000000FFFFFFFFFFFF0000000000000000000000000000000000000000000000FFFFFF0000
310
00000000FFFFFF000000000000000000000000000000000000FFFF000000000000000000000000FFFF000000000000000000000000000000FF00000000000000000000000000000000FF00000000000000FFFF00FFFFFFFFFF0000FF000000FF0000FF0000FFFFFF00FFFF0000FF00FFFF000000FF00FF00000000FF000000
310
FF00FFFF00FF000000FFFF00FF00FF00FF00000000FFFF0000000000FF000000FF00FFFF00FF000000FFFF00FFFFFF00FF00FF0000FFFFFF00000000FF000000FFFF00FF00FF000000FFFFFF00FFFF00FFFF000000FF000000000000FF000000FFFF00FF00FF000000FFFFFF00FFFF00FF00FFFF00FFFFFFFFFFFFFFFFFFFF
310
00FF0000FF00FF000000FFFF000000FF00FFFF000000FF000000000000000000000000000000000000000000000000FF0000000000FF0000000000000000000000000000000000000000000000000000FF00000000FF0000000000000000000000000000000000000000000000000000FF00000000FF000000000000000000
310
0000000000000000000000000000000000FF000000FF00000000000000000000000000000000000000000000000000000000FF0000FFFFFFFFFFFFFFFFFFFFFFFFFFFFFFFFFFFFFFFFFFFFFFFFFFFFFFFFFFFF00FFFFFFFF000000FFFF000000FF000000FF00FFFFFF0000FF0000FF00FFFFFF00FF00FF00000000FFFF0000
310
00FF0000FFFFFF000000FF00FF0000FF0000FF00FFFF00FF000000FF00FFFF0000FF0000FFFFFF000000FF00FFFF00FF0000FF00FFFFFF00FF0000FF00FFFF0000FF00FF00FFFF000000FF00FFFFFFFF00FFFFFF00FF0000FF0000FF0000FF0000FFFF0000FFFF000000FF00FFFFFFFF00FFFF00FFFF0000FF00FF00000000
310
FF00FFFF0000FFFF000000FF00FF0000FF00FFFF00FFFFFFFFFFFFFF00000000FF00FF000000FFFF000000FF00FF0000FFFFFFFFFF0000000000FF00000000000000000000000000000000000000000000FF000000000000000000FF0000000000000000000000000000000000000000FF0000000000000000000000FF0000
310
00000000000000000000000000000000FF00000000000000000000000000FF00000000000000000000000000000000FF000000000000000000000000000000FFFF000000000000000000000000FFFF000000000000000000000000000000000000FFFFFF000000000000FFFFFF000000000000000000000000000000000000
310
0000000000FFFFFFFFFFFF000000000000000000000000000000000000000000000000000000000000000000000000000000000000000000
 70
     4
280
     1
281
     0
  0
BLOCK_RECORD
  5
B7B3
102
{ACAD_XDICTIONARY
360
B7B4
102
}
330
1
100
AcDbSymbolTableRecord
100
AcDbBlockTableRecord
  2
mp001241$0$block19_0_Copy
340
0
102
{BLKREFS
331
B7B2
102
}
 70
     0
280
     1
281
     0
1001
AcDbDynamicBlockGUID
1000
{8451B693-E740-4DDD-BD49-F6A0C2FE0242}
1001
AcDbBlockRepETag
1070
     1
1071
        3
  0
ENDTAB
  0
ENDSEC
  0
SECTION
  2
BLOCKS
  0
BLOCK
  5
20
330
1F
100
AcDbEntity
  8
0
100
AcDbBlockBegin
  2
*Model_Space
 70
     0
 10
0.0
 20
0.0
 30
0.0
  3
*Model_Space
  1

  0
ENDBLK
  5
21
330
1F
100
AcDbEntity
  8
0
100
AcDbBlockEnd
  0
BLOCK
  5
16BB
330
16B9
100
AcDbEntity
 67
     1
  8
0
100
AcDbBlockBegin
  2
*Paper_Space
 70
     0
 10
0.0
 20
0.0
 30
0.0
  3
*Paper_Space
  1

  0
ENDBLK
  5
16BC
330
16B9
100
AcDbEntity
 67
     1
  8
0
100
AcDbBlockEnd
  0
BLOCK
  5
357
330
356
100
AcDbEntity
  8
0
100
AcDbBlockBegin
  2
_DetailCallout
 70
     2
 10
0.0
 20
0.0
 30
0.0
  3
_DetailCallout
  1

  0
CIRCLE
  5
358
330
356
100
AcDbEntity
  8
0
  6
ByBlock
 62
     0
370
    -2
100
AcDbCircle
 10
0.0
 20
0.0
 30
0.0
 40
8.0
  0
LINE
  5
359
330
356
100
AcDbEntity
  8
0
  6
ByBlock
 62
     0
370
    -2
100
AcDbLine
 10
8.0
 20
0.0
 30
0.0
 11
-8.0
 21
0.0
 31
0.0
  0
ATTDEF
  5
35A
330
356
100
AcDbEntity
  8
0
 62
     0
100
AcDbText
 10
-15.0
 20
1.0
 30
0.0
 40
3.0
  1
VIEWNUMBER
  7
x01
 72
     1
 11
0.0
 21
1.0
 31
0.0
100
AcDbAttributeDefinition
  3
Enter view number
  2
VIEWNUMBER
 70
     0
280
     0
  0
ATTDEF
  5
35B
330
356
100
AcDbEntity
  8
0
 62
     0
100
AcDbText
 10
-16.0
 20
-6.0
 30
0.0
 40
3.0
  1
SHEETNUMBER
  7
x01
 72
     1
 11
0.0
 21
-6.0
 31
0.0
100
AcDbAttributeDefinition
  3
Enter sheet number
  2
SHEETNUMBER
 70
     0
280
     0
  0
ENDBLK
  5
35C
330
356
100
AcDbEntity
  8
0
100
AcDbBlockEnd
  0
BLOCK
  5
6B78
330
6B77
100
AcDbEntity
  8
0
100
AcDbBlockBegin
  2
00002778
 70
     0
 10
0.0
 20
0.0
 30
0.0
  3
00002778
  1
G:\#\00002000\00002778.dwg
  0
LINE
  5
88F1
330
6B77
100
AcDbEntity
  8
0
100
AcDbLine
 10
0.5303300858368818
 20
0.5303300858368748
 30
0.0
 11
-0.5303300858368535
 21
-0.5303300858368605
 31
0.0
1001
AcDbBlockRepETag
1070
     1
1071
        7
1005
88F1
  0
LWPOLYLINE
  5
88F2
330
6B77
100
AcDbEntity
  8
0
100
AcDbPolyline
 90
        2
 70
     0
 43
0.0
 10
0.0
 20
-1.015165042843447
 10
0.0
 20
1.015165042843433
1001
AcDbBlockRepETag
1070
     1
1071
        8
1005
88F2
  0
LINE
  5
88F3
330
6B77
100
AcDbEntity
  8
0
100
AcDbLine
 10
-0.9999999998999999
 20
0.0
 30
0.0
 11
0.0
 21
0.0
 31
0.0
1001
AcDbBlockRepETag
1070
     1
1071
        9
1005
88F3
  0
LINE
  5
88F4
330
6B77
100
AcDbEntity
  8
defpoints
 62
   190
100
AcDbLine
 10
0.033125
 20
2.530330085636895
 30
0.0
 11
-0.033125
 21
2.530330085636895
 31
0.0
1001
AcDbBlockRepETag
1070
     1
1071
       11
1005
88F4
  0
LINE
  5
88F5
330
6B77
100
AcDbEntity
  8
defpoints
 62
   190
100
AcDbLine
 10
0.033125
 20
-2.530330085636895
 30
0.0
 11
-0.033125
 21
-2.530330085636895
 31
0.0
1001
AcDbBlockRepETag
1070
     1
1071
       11
1005
88F4
  0
ENDBLK
  5
6B79
330
6B77
100
AcDbEntity
  8
0
100
AcDbBlockEnd
  0
BLOCK
  5
6B7C
330
6B7A
100
AcDbEntity
  8
0
100
AcDbBlockBegin
  2
tick1
 70
     0
 10
0.0
 20
0.0
 30
0.0
  3
tick1
  1

  0
INSERT
  5
6B7D
330
6B7A
100
AcDbEntity
  8
0
100
AcDbBlockReference
  2
00002778
 10
0.0
 20
0.0
 30
0.0
1001
AcDbBlockRepETag
1070
     1
1071
        0
1005
6B7D
1001
AEC_XDATA_BOUND_SPACE
1070
   100
1070
     1
  0
ENDBLK
  5
6B7E
330
6B7A
100
AcDbEntity
  8
0
100
AcDbBlockEnd
  0
BLOCK
  5
72B7
330
72AE
100
AcDbEntity
  8
0
100
AcDbBlockBegin
  2
*U3
 70
     1
 10
0.0
 20
0.0
 30
0.0
  3
*U3
  1

  0
LINE
  5
72B8
330
72AE
100
AcDbEntity
  8
0
  6
Continuous
 48
10.0
370
     0
100
AcDbLine
 10
0.0
 20
0.0
 30
0.0
 11
0.0
 21
27.85219326595689
 31
0.0
1001
AcDbBlockRepETag
1070
     1
1071
        0
1005
72B8
  0
ENDBLK
  5
72B9
330
72AE
100
AcDbEntity
  8
0
100
AcDbBlockEnd
  0
BLOCK
  5
82A8
330
82A7
100
AcDbEntity
  8
0
100
AcDbBlockBegin
  2
00040007
 70
     0
 10
0.0
 20
0.0
 30
0.0
  3
00040007
  1
G:\#\00040000\00040007.dwg
  0
LINE
  5
88FF
330
82A7
100
AcDbEntity
  8
defpoints
 62
     7
420
 16579836
100
AcDbLine
 10
-3003.768795146357
 20
-1453.451359430437
 30
0.0
 11
-3003.768795146357
 21
1412.821623602329
 31
0.0
1001
AcDbBlockRepETag
1070
     1
1071
        1
1005
88FF
  0
LINE
  5
8900
330
82A7
100
AcDbEntity
  8
defpoints
 62
     7
420
 16579836
100
AcDbLine
 10
-3003.768795146357
 20
1412.821623602329
 30
0.0
 11
-145.8645623490279
 21
1412.821623667819
 31
0.0
1001
AcDbBlockRepETag
1070
     1
1071
        2
1005
8900
  0
LINE
  5
8901
330
82A7
100
AcDbEntity
  8
defpoints
 62
     7
420
 16579836
100
AcDbLine
 10
152.9777740649183
 20
-1453.451359430528
 30
0.0
 11
-3003.768795146357
 21
-1453.451359430437
 31
0.0
1001
AcDbBlockRepETag
1070
     1
1071
        5
1005
8901
  0
SPLINE
  5
8902
330
82A7
100
AcDbEntity
  8
0
 62
     7
100
AcDbSpline
210
0.0
220
0.0
230
1.0
 70
     8
 71
     3
 72
    13
 73
     9
 74
     0
 42
0.0000000001
 43
0.0000000001
 40
0.0
 40
0.0
 40
0.0
 40
0.0
 40
48.79898777989121
 40
97.59797576472022
 40
170.2627541910372
 40
242.9275326173485
 40
766.6000885240379
 40
1563.293521579884
 40
1563.293521579884
 40
1563.293521579884
 40
1563.293521579884
 10
-164.013004197157
 20
1411.421761395926
 30
0.0
 10
-147.7466749371932
 20
1411.421761395926
 30
0.0
 10
-114.0047781860147
 20
1413.305326569141
 30
0.0
 10
-64.32132041649571
 20
1380.97801217813
 30
0.0
 10
-24.30776463119534
 20
1328.832845795619
 30
0.0
 10
50.35699452083864
 20
1117.013907972133
 30
0.0
 10
80.15921959018937
 20
644.5594179734066
 30
0.0
 10
13.94537726391408
 20
211.1134656666242
 30
0.0
 10
-18.92834477838354
 20
-53.07224393303457
 30
0.0
  0
WIPEOUT
  5
8903
330
82A7
100
AcDbEntity
  8
0
  6
00040007$0$DOT
 62
     7
420
 16579836
 48
50000.0
 92
      596
310
54020000010000004C020000060000001800000080B9D4DF411F634071A32A31CEB596C00000000000000000806D722F04C35B40D7F9ACD8149496C00000000000000000909C5A59E6DB5140E3A8B00C142296C000000000000000004001E843FEC83B4057E90EB7B5F694C00000000000000000000000000031303E789934
310
CA72AE93C0000000000000000020CC500E555347C0BF0775DA6A368FC0000000000000000040B4EE92A3C04EC0AB196DB6EBE189C0000000000000000050AB77B4CA4550C04CA644F78F2585C0000000000000000060D7F7BE22B24BC03B5C570F41467AC000000000000000000043C8B4505548C0522E45E350EC74C00000
310
000000000000008E5548077738C03FFD5F54472A5AC0000000000000000000887607B189EF3F4817047FB6285840000000000000000000172940F32E3B40B3FEE1DA5926734000000000000000008045AF6BC50C4F40C46D34CA72AE83400000000000000000A06489566BF14D404CB95D1759038B40000000000000000080
310
3C2FC10E914340907E3644E81C9140000000000000000000779588B78835C042329075DC9594400000000000000000C03A9F01120F4BC06579EC2AA0549540000000000000000010B64967D6FB5BC08AE1D24784FD95400000000000000000D8722F278D6764C0EB2838E2AF0D964000000000000000004781849F8977A7C0
310
8596B257491396400000000000000000D775849F8977A7C0D9A12A31CEB596C0000000000000000080B9D4DF411F634071A32A31CEB596C0000000000000000080B9D4DF411F634071A32A31CEB596C00000000000000000
100
AcDbWipeout
 90
        0
 10
-3003.768795147687
 20
-1743.923962846586
 30
0.0
 11
3156.745586448916
 21
0.0
 31
0.0
 12
0.0
 22
3156.745586448916
 32
0.0
 13
1.0
 23
1.0
340
0
 70
     7
280
     1
281
    50
282
    50
283
     0
360
0
 71
     2
 91
       24
 14
0.5
 24
0.4079835243413405
 14
0.4867174405728625
 24
0.4053127352652208
 14
0.4741693289248005
 24
0.3962842033918586
 14
0.4603415422330221
 24
0.3725755700905936
 14
0.4515397148398183
 24
0.3465787469703073
 14
0.4367615099047341
 24
0.2639588722136007
 14
0.4320560440147951
 24
0.2099278849922794
 14
0.430920220696374
 24
0.1619212293880831
 14
0.4339926291309215
 24
0.0807286197668303
 14
0.4361230383519004
 24
0.0536053900244835
 14
0.4437896589019027
 24
-0.0192890318025196
 14
0.4518519218315225
 24
-0.0830562049184567
 14
0.4601509248539949
 24
-0.1495046382282438
 14
0.4712118021511018
 24
-0.2519548052190006
 14
0.4705105462080928
 24
-0.3262757935394236
 14
0.4639364258512162
 24
-0.3993917019305458
 14
0.4447181164837012
 24
-0.4697928360798548
 14
0.4343961929653139
 24
-0.4849005222131555
 14
0.416080740371468
 24
-0.4982759322164525
 14
0.3998295037592704
 24
-0.4995565489305155
 14
-0.5
 24
-0.5
 14
-0.4999999999995782
 24
0.4079835243413111
 14
0.5
 24
0.4079835243413405
 14
0.5
 24
0.4079835243413405
  0
LINE
  5
8905
330
82A7
100
AcDbEntity
  8
0
100
AcDbLine
 10
48.06410358507953
 20
-111.7514186449365
 30
0.0
 11
-18.92834477839609
 21
-53.07224393303295
 31
0.0
  0
LINE
  5
8906
330
82A7
100
AcDbEntity
  8
0
100
AcDbLine
 10
-30.03116188049862
 20
-157.5842404271144
 30
0.0
 11
-98.54806052716496
 21
-97.56978858036692
 31
0.0
  0
LINE
  5
8907
330
82A7
100
AcDbEntity
  8
0
100
AcDbLine
 10
48.06410358507953
 20
-111.7514186449365
 30
0.0
 11
-98.54806052716496
 21
-97.56978858036692
 31
0.0
  0
SPLINE
  5
8908
330
82A7
100
AcDbEntity
  8
0
 62
     7
100
AcDbSpline
210
0.0
220
0.0
230
1.0
 70
     8
 71
     3
 72
    12
 73
     8
 74
     0
 42
0.0000000001
 43
0.0000000001
 40
1667.061627962185
 40
1667.061627962185
 40
1667.061627962185
 40
1667.061627962185
 40
1668.070810470324
 40
2424.63155733053
 40
2817.885458966713
 40
2947.261689699971
 40
3036.776312537723
 40
3036.776312537723
 40
3036.776312537723
 40
3036.776312537723
 10
-31.32169248144652
 20
-156.4538552500686
 30
0.0
 10
-31.36010703387786
 20
-156.7895464925374
 30
0.0
 10
-60.18198888395993
 20
-408.7896127612014
 30
0.0
 10
-86.75053072024756
 20
-796.6652335504372
 30
0.0
 10
-17.05261646204652
 20
-1213.64943552165
 30
0.0
 10
48.96691998776763
 20
-1415.216156132656
 30
0.0
 10
122.3615600831775
 20
-1453.451359430524
 30
0.0
 10
152.1997676957617
 20
-1453.451359430524
 30
0.0
  0
ENDBLK
  5
82A9
330
82A7
100
AcDbEntity
  8
0
100
AcDbBlockEnd
  0
BLOCK
  5
82A5
330
82A3
100
AcDbEntity
  8
0
100
AcDbBlockBegin
  2
Wipe Out
 70
     0
 10
0.0
 20
0.0
 30
0.0
  3
Wipe Out
  1

  0
INSERT
  5
82A6
330
82A3
100
AcDbEntity
  8
0
100
AcDbBlockReference
  2
00040007
 10
0.2130717849110993
 20
-0.0367776471752628
 30
0.0
 41
0.1
 42
0.1
 43
0.1
1001
AcDbBlockRepETag
1070
     1
1071
       28
1005
82A6
1001
AEC_XDATA_BOUND_SPACE
1070
   100
1070
     1
  0
ENDBLK
  5
82AA
330
82A3
100
AcDbEntity
  8
0
100
AcDbBlockEnd
  0
BLOCK
  5
901F
330
901E
100
AcDbEntity
  8
0
100
AcDbBlockBegin
  2
mp000096
 70
     0
 10
0.0
 20
0.0
 30
0.0
  3
mp000096
  1
V:\mpcaddb\mp000000\mp000096.dwg
  0
MTEXT
  5
B74B
102
{ACAD_XDICTIONARY
360
B98C
102
}
330
901E
100
AcDbEntity
  8
defpoints
 62
   253
370
     0
100
AcDbMText
 10
0.0
 20
-15.07001755932378
 30
0.0
 40
20.0
 41
1024.436706887209
 46
0.0
 71
     5
 72
     5
  3
The information provided is for guide only and must be used along side professional architectural/structural design. Professional architectural/structural design takes preference with any conflicting areas of the building design.\PAll documents or da
  3
ta downloaded from www.mpb.co.nz or emailed from MASONS Plastabrick Limited is the intellectual property of MASONS Plastabrick Limited. MASONS Plastabrick Limited takes no responsibility for any of the documents or data being used for any other purpo
  1
se than for professional architectural/structural design.
  7
mp000096$0$2mm
 73
     1
 44
1.0
1001
ACAD_MLEADERVER
1070
     2
  0
LWPOLYLINE
  5
B74D
330
901E
100
AcDbEntity
  8
defpoints
 62
   253
100
AcDbPolyline
 90
        5
 70
     0
 43
0.0
 10
531.1521450536488
 20
-172.9993298591075
 10
531.1521450536488
 20
205.6618318460798
 10
-530.9433261265999
 20
205.6618318460798
 10
-530.9433261265999
 20
-172.9993298591075
 10
531.1521450536488
 20
-172.9993298591075
  0
MTEXT
  5
B74E
330
901E
100
AcDbEntity
  8
defpoints
 62
   253
370
     0
100
AcDbMText
 10
0.0
 20
159.8871316540671
 30
0.0
 40
30.0
 41
1026.407338423251
 46
0.0
 71
     5
 72
     5
  1
DISCLOSURE NOTE:
  7
mp000096$0$2mm
 73
     1
 44
1.0
1001
ACAD_MLEADERVER
1070
     2
  0
LWPOLYLINE
  5
B74F
330
901E
100
AcDbEntity
  8
defpoints
 62
   253
100
AcDbPolyline
 90
        4
 70
     1
 43
0.0
 10
536.1521450536488
 20
-177.9993298591076
 10
536.1521450536488
 20
210.6618318460799
 10
-535.9433261265999
 20
210.6618318460798
 10
-535.9433261265999
 20
-177.9993298591077
  0
ENDBLK
  5
9020
330
901E
100
AcDbEntity
  8
0
100
AcDbBlockEnd
  0
BLOCK
  5
B152
330
B151
100
AcDbEntity
  8
0
100
AcDbBlockBegin
  2
mp001241
 70
     0
 10
0.0
 20
0.0
 30
0.0
  3
mp001241
  1
V:\mpcaddb\mp001000\mp001241.dwg
  0
LINE
  5
B76A
330
B151
100
AcDbEntity
  8
mp001241$0$MASONS Panel Perimeter (00134148)
100
AcDbLine
 10
1799.999999999996
 20
2211.651522388669
 30
0.0
 11
1799.999999999996
 21
0.0
 31
0.0
  0
LWPOLYLINE
  5
B76B
330
B151
100
AcDbEntity
  8
mp001241$0$MASONS Panel Perimeter (00134148)
100
AcDbPolyline
 90
        4
 70
     0
 43
0.0
 10
0.0
 20
1800.0
 10
2200.0
 20
1800.0
 10
2200.0
 20
1199.999999999999
 10
0.0
 20
1199.999999999999
  0
LINE
  5
B76C
330
B151
100
AcDbEntity
  8
mp001241$0$Detail Soffit Lining Perimeter (00134203)
100
AcDbLine
 10
1299.999999999996
 20
1978.497693311171
 30
0.0
 11
1799.999999999996
 21
1978.497693311171
 31
0.0
  0
LWPOLYLINE
  5
B76D
330
B151
100
AcDbEntity
  8
mp001241$0$MASONS Panel Perimeter (00134148)
100
AcDbPolyline
 90
        4
 70
     1
 43
0.0
 10
4399.999999999995
 20
-0.0000000000009095
 10
2199.999999999997
 20
-0.0000000000009095
 10
2199.999999999997
 20
600.0
 10
4399.999999999995
 20
600.0
  0
LWPOLYLINE
  5
B76E
330
B151
100
AcDbEntity
  8
mp001241$0$MASONS Panel Perimeter (00134148)
100
AcDbPolyline
 90
        4
 70
     1
 43
0.0
 10
2200.0
 20
0.0
 10
0.0
 20
0.0
 10
0.0
 20
600.0000000000003
 10
2200.0
 20
600.0000000000003
  0
LWPOLYLINE
  5
B76F
330
B151
100
AcDbEntity
  8
mp001241$0$MASONS Panel Perimeter (00134148)
100
AcDbPolyline
 90
        4
 70
     1
 43
0.0
 10
5499.999999999996
 20
0.0
 10
4399.999999999995
 20
0.0
 10
4399.999999999995
 20
600.0000000000003
 10
5499.999999999996
 20
600.0000000000003
  0
LWPOLYLINE
  5
B770
330
B151
100
AcDbEntity
  8
mp001241$0$MASONS Hidden (00134167)
 48
5.0
100
AcDbPolyline
 90
        4
 70
     1
 43
0.0
 10
5449.999999999995
 20
1700.0
 10
5399.999999999995
 20
1700.0
 10
5399.999999999995
 20
1900.0
 10
5449.999999999995
 20
1900.0
  0
LWPOLYLINE
  5
B771
330
B151
100
AcDbEntity
  8
mp001241$0$MASONS Hidden (00134167)
 48
5.0
100
AcDbPolyline
 90
        5
 70
     1
 43
0.0
 10
4899.999999999995
 20
2491.436117281667
 10
4899.999999999995
 20
2300.000000000002
 10
4849.999999999996
 20
2300.000000000002
 10
4849.999999999996
 20
2500.000000000003
 10
4881.634694244097
 20
2500.000000000003
  0
LWPOLYLINE
  5
B772
330
B151
100
AcDbEntity
  8
mp001241$0$MASONS Hidden (00134167)
 48
5.0
100
AcDbPolyline
 90
        4
 70
     1
 43
0.0
 10
4299.999999999996
 20
2300.0
 10
4249.999999999995
 20
2300.0
 10
4249.999999999995
 20
2500.0
 10
4299.999999999996
 20
2500.0
  0
LWPOLYLINE
  5
B773
330
B151
100
AcDbEntity
  8
mp001241$0$MASONS Hidden (00134167)
 48
5.0
100
AcDbPolyline
 90
        4
 70
     1
 43
0.0
 10
3699.999999999997
 20
2300.000000000002
 10
3649.999999999995
 20
2300.000000000002
 10
3649.999999999995
 20
2500.0
 10
3699.999999999997
 20
2500.0
  0
LWPOLYLINE
  5
B774
330
B151
100
AcDbEntity
  8
mp001241$0$MASONS Hidden (00134167)
 48
5.0
100
AcDbPolyline
 90
        4
 70
     1
 43
0.0
 10
3099.999999999996
 20
3038.527061782665
 10
3049.999999999997
 20
3015.211678874914
 10
3049.999999999997
 20
3100.000000000003
 10
3099.999999999996
 20
3100.000000000003
  0
LWPOLYLINE
  5
B775
330
B151
100
AcDbEntity
  8
mp001241$0$MASONS Hidden (00134167)
 48
5.0
100
AcDbPolyline
 90
        4
 70
     1
 43
0.0
 10
2499.999999999996
 20
2900.000000000003
 10
2449.999999999995
 20
2900.000000000003
 10
2449.999999999995
 20
3100.000000000001
 10
2499.999999999996
 20
3100.000000000001
  0
LWPOLYLINE
  5
B776
330
B151
100
AcDbEntity
  8
mp001241$0$MASONS Hidden (00134167)
 48
5.0
100
AcDbPolyline
 90
        4
 70
     1
 43
0.0
 10
1899.999999999996
 20
2478.957871996667
 10
1849.999999999996
 20
2455.642489088916
 10
1849.999999999996
 20
2500.0
 10
1899.999999999996
 20
2500.0
  0
LWPOLYLINE
  5
B777
330
B151
100
AcDbEntity
  8
mp001241$0$MASONS Hidden (00134167)
 48
5.0
100
AcDbPolyline
 90
        4
 70
     1
 43
0.0
 10
1299.999999999996
 20
2300.0
 10
1249.999999999996
 20
2300.0
 10
1249.999999999996
 20
2499.999999999996
 10
1299.999999999996
 20
2499.999999999996
  0
LWPOLYLINE
  5
B778
330
B151
100
AcDbEntity
  8
mp001241$0$MASONS Hidden (00134167)
 48
5.0
100
AcDbPolyline
 90
        4
 70
     1
 43
0.0
 10
699.9999999999961
 20
2300.0
 10
649.9999999999962
 20
2300.0
 10
649.9999999999962
 20
2459.792538546317
 10
699.9999999999961
 20
2483.107921454067
  0
LWPOLYLINE
  5
B779
330
B151
100
AcDbEntity
  8
mp001241$0$MASONS Hidden (00134167)
 48
5.0
100
AcDbPolyline
 90
        4
 70
     1
 43
0.0
 10
99.99999999999637
 20
1700.422667933634
 10
49.99999999999635
 20
1700.422667933634
 10
49.99999999999635
 20
1900.274421952581
 10
99.99999999999637
 20
1900.274421952581
  0
LINE
  5
B77A
330
B151
100
AcDbEntity
  8
mp001241$0$Detail Soffit Lining Perimeter (00134203)
100
AcDbLine
 10
-500.0
 20
1978.497693311169
 30
0.0
 11
0.0
 21
1978.497693311169
 31
0.0
  0
LINE
  5
B77B
330
B151
100
AcDbEntity
  8
mp001241$0$MASONS Hidden (00134167)
 48
10.0
100
AcDbLine
 10
5499.999999999996
 20
2156.69256074557
 30
0.0
 11
3649.999999999995
 21
3019.361728332319
 31
0.0
  0
LINE
  5
B77C
330
B151
100
AcDbEntity
  8
mp001241$0$MASONS Hidden (00134167)
 48
10.0
100
AcDbLine
 10
3649.999999999995
 20
3019.361728332319
 30
0.0
 11
3649.999999999995
 21
3074.320689975416
 31
0.0
  0
LWPOLYLINE
  5
B77D
330
B151
100
AcDbEntity
  8
mp001241$0$MASONS Hidden (00134167)
 48
5.0
100
AcDbPolyline
 90
        4
 70
     1
 43
0.0
 10
2499.999999999996
 20
2300.0
 10
2449.999999999997
 20
2300.0
 10
2449.999999999997
 20
2499.999999999996
 10
2499.999999999996
 20
2499.999999999996
  0
LWPOLYLINE
  5
B77E
330
B151
100
AcDbEntity
  8
mp001241$0$MASONS Hidden (00134167)
 48
5.0
100
AcDbPolyline
 90
        4
 70
     1
 43
0.0
 10
3099.999999999996
 20
500.0000000000004
 10
3049.999999999995
 20
500.0000000000004
 10
3049.999999999995
 20
700.0000000000007
 10
3099.999999999996
 20
700.0000000000007
  0
LWPOLYLINE
  5
B77F
330
B151
100
AcDbEntity
  8
mp001241$0$MASONS Hidden (00134167)
 48
5.0
100
AcDbPolyline
 90
        4
 70
     1
 43
0.0
 10
3699.999999999997
 20
25.48950436470159
 10
3649.999999999995
 20
25.48950436470159
 10
3649.999999999995
 20
199.9999999999985
 10
3699.999999999997
 20
199.9999999999985
  0
LWPOLYLINE
  5
B780
330
B151
100
AcDbEntity
  8
mp001241$0$MASONS Hidden (00134167)
 48
5.0
100
AcDbPolyline
 90
        4
 70
     1
 43
0.0
 10
3099.999999999995
 20
2300.0
 10
3049.999999999995
 20
2300.0
 10
3049.999999999995
 20
2500.0
 10
3099.999999999995
 20
2500.0
  0
LINE
  5
B781
330
B151
100
AcDbEntity
  8
0
 48
10.0
100
AcDbLine
 10
3413.379841684746
 20
3184.658481871663
 30
0.0
 11
3354.449904890925
 21
3157.179001050115
 31
0.0
  0
LINE
  5
B782
330
B151
100
AcDbEntity
  8
mp001241$0$MASONS Hidden (00134167)
 48
10.0
100
AcDbLine
 10
3354.449904890925
 20
3157.179001050115
 30
0.0
 11
2749.999999999996
 21
3439.038620671816
 31
0.0
  0
LINE
  5
B783
330
B151
100
AcDbEntity
  8
0
 48
10.0
100
AcDbLine
 10
2749.999999999996
 20
3439.038620671816
 30
0.0
 11
2749.999999999996
 21
3493.997582314912
 31
0.0
  0
LINE
  5
B784
330
B151
100
AcDbEntity
  8
mp001241$0$Detail Fascia Boards Perimeter (00134250)
 48
10.0
100
AcDbLine
 10
2749.999999999996
 20
3493.997582314912
 30
0.0
 11
3413.379841684746
 21
3184.658481871663
 31
0.0
  0
LINE
  5
B785
330
B151
100
AcDbEntity
  8
mp001241$0$MASONS Hidden (00134167)
 48
10.0
100
AcDbLine
 10
2749.999999999996
 20
3493.997582314912
 30
0.0
 11
2749.999999999996
 21
3439.038620671816
 31
0.0
  0
LINE
  5
B786
330
B151
100
AcDbEntity
  8
mp001241$0$MASONS Hidden (00134167)
 48
10.0
100
AcDbLine
 10
2749.999999999996
 20
3439.038620671816
 30
0.0
 11
0.0
 21
2156.692560745569
 31
0.0
  0
LWPOLYLINE
  5
B787
330
B151
100
AcDbEntity
  8
mp001241$0$MASONS Hidden (00134167)
 48
5.0
100
AcDbPolyline
 90
        4
 70
     1
 43
0.0
 10
5449.999999999995
 20
1100.000000000001
 10
5399.999999999995
 20
1100.000000000001
 10
5399.999999999995
 20
1300.000000000001
 10
5449.999999999995
 20
1300.000000000001
  0
LWPOLYLINE
  5
B788
330
B151
100
AcDbEntity
  8
mp001241$0$MASONS Hidden (00134167)
 48
5.0
100
AcDbPolyline
 90
        4
 70
     1
 43
0.0
 10
4299.999999999996
 20
25.4895043647025
 10
4249.999999999995
 20
25.4895043647025
 10
4249.999999999995
 20
199.9999999999995
 10
4299.999999999996
 20
199.9999999999995
  0
LWPOLYLINE
  5
B789
330
B151
100
AcDbEntity
  8
mp001241$0$MASONS Hidden (00134167)
 48
5.0
100
AcDbPolyline
 90
        4
 70
     1
 43
0.0
 10
4899.999999999995
 20
25.48950436470341
 10
4849.999999999996
 20
25.48950436470341
 10
4849.999999999996
 20
200.0
 10
4899.999999999995
 20
200.0
  0
LWPOLYLINE
  5
B78A
330
B151
100
AcDbEntity
  8
mp001241$0$MASONS Hidden (00134167)
 48
5.0
100
AcDbPolyline
 90
        4
 70
     1
 43
0.0
 10
5449.999999999995
 20
25.48950436470432
 10
5399.999999999995
 20
25.48950436470432
 10
5399.999999999995
 20
200.0000000000009
 10
5449.999999999995
 20
200.0000000000009
  0
LWPOLYLINE
  5
B78B
330
B151
100
AcDbEntity
  8
mp001241$0$MASONS Hidden (00134167)
 48
5.0
100
AcDbPolyline
 90
        4
 70
     1
 43
0.0
 10
3099.999999999996
 20
25.48950436470159
 10
3049.999999999995
 20
25.48950436470159
 10
3049.999999999995
 20
199.9999999999985
 10
3099.999999999996
 20
199.9999999999985
  0
LWPOLYLINE
  5
B78C
330
B151
100
AcDbEntity
  8
mp001241$0$MASONS Hidden (00134167)
 48
5.0
100
AcDbPolyline
 90
        4
 70
     1
 43
0.0
 10
2499.999999999996
 20
25.48950436470159
 10
2449.999999999995
 20
25.48950436470159
 10
2449.999999999995
 20
199.9999999999985
 10
2499.999999999996
 20
199.9999999999985
  0
LWPOLYLINE
  5
B78D
330
B151
100
AcDbEntity
  8
mp001241$0$MASONS Hidden (00134167)
 48
5.0
100
AcDbPolyline
 90
        4
 70
     1
 43
0.0
 10
1899.999999999996
 20
25.48950436470159
 10
1849.999999999996
 20
25.48950436470159
 10
1849.999999999996
 20
199.9999999999985
 10
1899.999999999996
 20
199.9999999999985
  0
LWPOLYLINE
  5
B78E
330
B151
100
AcDbEntity
  8
mp001241$0$MASONS Hidden (00134167)
 48
5.0
100
AcDbPolyline
 90
        4
 70
     1
 43
0.0
 10
1299.999999999996
 20
25.48950436470159
 10
1249.999999999996
 20
25.48950436470159
 10
1249.999999999996
 20
199.9999999999985
 10
1299.999999999996
 20
199.9999999999985
  0
LWPOLYLINE
  5
B78F
330
B151
100
AcDbEntity
  8
mp001241$0$MASONS Hidden (00134167)
 48
5.0
100
AcDbPolyline
 90
        4
 70
     1
 43
0.0
 10
699.9999999999961
 20
25.48950436470204
 10
649.9999999999962
 20
25.48950436470204
 10
649.9999999999962
 20
199.9999999999985
 10
699.9999999999961
 20
199.9999999999985
  0
LWPOLYLINE
  5
B790
330
B151
100
AcDbEntity
  8
mp001241$0$MASONS Hidden (00134167)
 48
5.0
100
AcDbPolyline
 90
        4
 70
     1
 43
0.0
 10
99.99999999999637
 20
25.48950436470204
 10
49.99999999999635
 20
25.48950436470204
 10
49.99999999999635
 20
199.9999999999985
 10
99.99999999999637
 20
199.9999999999985
  0
LWPOLYLINE
  5
B791
330
B151
100
AcDbEntity
  8
mp001241$0$MASONS Hidden (00134167)
 48
5.0
100
AcDbPolyline
 90
        4
 70
     1
 43
0.0
 10
3699.999999999997
 20
500.0000000000004
 10
3649.999999999995
 20
500.0000000000004
 10
3649.999999999995
 20
700.0000000000007
 10
3699.999999999997
 20
700.0000000000007
  0
LWPOLYLINE
  5
B792
330
B151
100
AcDbEntity
  8
mp001241$0$MASONS Hidden (00134167)
 48
5.0
100
AcDbPolyline
 90
        4
 70
     1
 43
0.0
 10
4299.999999999996
 20
500.0000000000004
 10
4249.999999999995
 20
500.0000000000004
 10
4249.999999999995
 20
700.0000000000007
 10
4299.999999999996
 20
700.0000000000007
  0
LWPOLYLINE
  5
B793
330
B151
100
AcDbEntity
  8
mp001241$0$MASONS Hidden (00134167)
 48
5.0
100
AcDbPolyline
 90
        4
 70
     1
 43
0.0
 10
4899.999999999995
 20
500.0000000000004
 10
4849.999999999996
 20
500.0000000000004
 10
4849.999999999996
 20
700.0000000000007
 10
4899.999999999995
 20
700.0000000000007
  0
LWPOLYLINE
  5
B794
330
B151
100
AcDbEntity
  8
mp001241$0$MASONS Hidden (00134167)
 48
5.0
100
AcDbPolyline
 90
        4
 70
     1
 43
0.0
 10
5449.999999999995
 20
500.0000000000013
 10
5399.999999999995
 20
500.0000000000013
 10
5399.999999999995
 20
700.0000000000014
 10
5449.999999999995
 20
700.0000000000014
  0
LWPOLYLINE
  5
B795
330
B151
100
AcDbEntity
  8
mp001241$0$MASONS Hidden (00134167)
 48
5.0
100
AcDbPolyline
 90
        4
 70
     1
 43
0.0
 10
2499.999999999996
 20
500.0000000000004
 10
2449.999999999995
 20
500.0000000000004
 10
2449.999999999995
 20
700.0000000000003
 10
2499.999999999996
 20
700.0000000000003
  0
LWPOLYLINE
  5
B796
330
B151
100
AcDbEntity
  8
mp001241$0$MASONS Hidden (00134167)
 48
5.0
100
AcDbPolyline
 90
        4
 70
     1
 43
0.0
 10
1899.999999999996
 20
500.0000000000004
 10
1849.999999999996
 20
500.0000000000004
 10
1849.999999999996
 20
700.0000000000007
 10
1899.999999999996
 20
700.0000000000007
  0
LWPOLYLINE
  5
B797
330
B151
100
AcDbEntity
  8
mp001241$0$MASONS Hidden (00134167)
 48
5.0
100
AcDbPolyline
 90
        4
 70
     1
 43
0.0
 10
1299.999999999996
 20
500.0000000000004
 10
1249.999999999996
 20
500.0000000000004
 10
1249.999999999996
 20
700.0000000000007
 10
1299.999999999996
 20
700.0000000000007
  0
LWPOLYLINE
  5
B798
330
B151
100
AcDbEntity
  8
mp001241$0$MASONS Hidden (00134167)
 48
5.0
100
AcDbPolyline
 90
        4
 70
     1
 43
0.0
 10
699.9999999999961
 20
500.0000000000004
 10
649.9999999999962
 20
500.0000000000004
 10
649.9999999999962
 20
700.0000000000003
 10
699.9999999999961
 20
700.0000000000003
  0
LWPOLYLINE
  5
B799
330
B151
100
AcDbEntity
  8
mp001241$0$MASONS Hidden (00134167)
 48
5.0
100
AcDbPolyline
 90
        4
 70
     1
 43
0.0
 10
99.99999999999637
 20
500.0000000000004
 10
49.99999999999635
 20
500.0000000000004
 10
49.99999999999635
 20
700.0000000000007
 10
99.99999999999637
 20
700.0000000000007
  0
LWPOLYLINE
  5
B79A
330
B151
100
AcDbEntity
  8
mp001241$0$MASONS Hidden (00134167)
 48
5.0
100
AcDbPolyline
 90
        4
 70
     1
 43
0.0
 10
4899.999999999995
 20
1100.0
 10
4849.999999999996
 20
1100.0
 10
4849.999999999996
 20
1300.0
 10
4899.999999999995
 20
1300.0
  0
LWPOLYLINE
  5
B79B
330
B151
100
AcDbEntity
  8
mp001241$0$MASONS Hidden Lines (00134167)
 48
5.0
100
AcDbPolyline
 90
        4
 70
     1
 43
0.0
 10
4699.999999999995
 20
1016.557164783373
 10
4699.999999999995
 20
966.5571647833715
 10
2699.999999999995
 20
966.5571647833715
 10
2699.999999999995
 20
1016.557164783371
  0
LWPOLYLINE
  5
B79C
330
B151
100
AcDbEntity
  8
mp001241$0$MASONS Hidden (00134167)
 48
5.0
100
AcDbPolyline
 90
        4
 70
     1
 43
0.0
 10
2499.999999999996
 20
1100.0
 10
2449.999999999997
 20
1100.0
 10
2449.999999999997
 20
1300.0
 10
2499.999999999996
 20
1300.0
  0
LWPOLYLINE
  5
B79D
330
B151
100
AcDbEntity
  8
mp001241$0$MASONS Hidden (00134167)
 48
5.0
100
AcDbPolyline
 90
        4
 70
     1
 43
0.0
 10
1899.999999999996
 20
1100.0
 10
1849.999999999996
 20
1100.0
 10
1849.999999999996
 20
1300.0
 10
1899.999999999996
 20
1300.0
  0
LWPOLYLINE
  5
B79E
330
B151
100
AcDbEntity
  8
mp001241$0$MASONS Hidden (00134167)
 48
5.0
100
AcDbPolyline
 90
        4
 70
     1
 43
0.0
 10
1299.999999999996
 20
1100.000000000001
 10
1249.999999999996
 20
1100.000000000001
 10
1249.999999999996
 20
1300.0
 10
1299.999999999996
 20
1300.0
  0
LWPOLYLINE
  5
B79F
330
B151
100
AcDbEntity
  8
mp001241$0$MASONS Hidden (00134167)
 48
5.0
100
AcDbPolyline
 90
        4
 70
     1
 43
0.0
 10
699.9999999999961
 20
1100.000000000001
 10
649.9999999999962
 20
1100.000000000001
 10
649.9999999999962
 20
1300.0
 10
699.9999999999961
 20
1300.0
  0
LWPOLYLINE
  5
B7A0
330
B151
100
AcDbEntity
  8
mp001241$0$MASONS Hidden (00134167)
 48
5.0
100
AcDbPolyline
 90
        4
 70
     1
 43
0.0
 10
99.99999999999637
 20
1100.0
 10
49.99999999999635
 20
1100.0
 10
49.99999999999635
 20
1300.0
 10
99.99999999999637
 20
1300.0
  0
LWPOLYLINE
  5
B7A1
330
B151
100
AcDbEntity
  8
mp001241$0$MASONS Hidden (00134167)
 48
5.0
100
AcDbPolyline
 90
        4
 70
     1
 43
0.0
 10
4899.999999999995
 20
1700.422667933634
 10
4849.999999999996
 20
1700.422667933634
 10
4849.999999999996
 20
1900.274421952581
 10
4899.999999999995
 20
1900.274421952581
  0
LWPOLYLINE
  5
B7A2
330
B151
100
AcDbEntity
  8
mp001241$0$MASONS Hidden (00134167)
 48
5.0
100
AcDbPolyline
 90
        4
 70
     1
 43
0.0
 10
2499.999999999996
 20
1700.422667933634
 10
2449.999999999995
 20
1700.422667933634
 10
2449.999999999995
 20
1900.274421952581
 10
2499.999999999996
 20
1900.274421952581
  0
LWPOLYLINE
  5
B7A3
330
B151
100
AcDbEntity
  8
mp001241$0$MASONS Hidden (00134167)
 48
5.0
100
AcDbPolyline
 90
        4
 70
     1
 43
0.0
 10
1899.999999999996
 20
1700.422667933635
 10
1849.999999999996
 20
1700.422667933635
 10
1849.999999999996
 20
1900.274421952581
 10
1899.999999999996
 20
1900.274421952581
  0
LWPOLYLINE
  5
B7A4
330
B151
100
AcDbEntity
  8
mp001241$0$MASONS Hidden (00134167)
 48
5.0
100
AcDbPolyline
 90
        4
 70
     1
 43
0.0
 10
1299.999999999996
 20
1700.422667933634
 10
1249.999999999996
 20
1700.422667933634
 10
1249.999999999996
 20
1900.274421952581
 10
1299.999999999996
 20
1900.274421952581
  0
LWPOLYLINE
  5
B7A5
330
B151
100
AcDbEntity
  8
mp001241$0$MASONS Hidden (00134167)
 48
5.0
100
AcDbPolyline
 90
        4
 70
     1
 43
0.0
 10
699.9999999999961
 20
1700.422667933634
 10
649.9999999999962
 20
1700.422667933634
 10
649.9999999999962
 20
1900.274421952581
 10
699.9999999999961
 20
1900.274421952581
  0
LWPOLYLINE
  5
B7A6
330
B151
100
AcDbEntity
  8
mp001241$0$MASONS Hidden (00134167)
 48
5.0
100
AcDbPolyline
 90
        4
 70
     1
 43
0.0
 10
1899.999999999996
 20
2900.000000000003
 10
1849.999999999996
 20
2900.000000000003
 10
1849.999999999996
 20
3019.361728332315
 10
1899.999999999996
 20
3042.677111240065
  0
LWPOLYLINE
  5
B7A7
330
B151
100
AcDbEntity
  8
mp001241$0$MASONS Hidden (00134167)
 48
5.0
100
AcDbPolyline
 90
        4
 70
     1
 43
0.0
 10
3699.999999999997
 20
2900.000000000002
 10
3649.999999999997
 20
2900.000000000002
 10
3649.999999999997
 20
3019.361728332319
 10
3699.999999999997
 20
2996.046345424567
  0
LINE
  5
B7A8
330
B151
100
AcDbEntity
  8
mp001241$0$MASONS Hidden (00134167)
 48
10.0
100
AcDbLine
 10
3649.999999999995
 20
3074.320689975416
 30
0.0
 11
3649.999999999995
 21
3019.361728332317
 31
0.0
  0
LINE
  5
B7A9
330
B151
100
AcDbEntity
  8
mp001241$0$MASONS Hidden (00134167)
 48
10.0
100
AcDbLine
 10
3649.999999999995
 20
3019.361728332317
 30
0.0
 11
1799.999999999996
 21
2156.69256074557
 31
0.0
  0
LWPOLYLINE
  5
B7AA
330
B151
100
AcDbEntity
  8
mp001241$0$Detail Fascia Boards Perimeter (00134250)
100
AcDbPolyline
 90
        4
 70
     1
 43
0.0
 10
3649.999999999995
 20
3074.320689975416
 10
1299.999999999996
 20
1978.497693311171
 10
1299.999999999996
 20
2199.173277103668
 10
3649.999999999995
 20
3294.996273767914
  0
LINE
  5
B7AB
330
B151
100
AcDbEntity
  8
mp001241$0$MASONS Hidden (00134167)
 48
5.0
100
AcDbLine
 10
5449.999999999995
 20
1200.000000000002
 30
0.0
 11
5399.999999999995
 21
1200.000000000002
 31
0.0
  0
LINE
  5
B7AC
330
B151
100
AcDbEntity
  8
mp001241$0$MASONS Panel Perimeter (00134148)
100
AcDbLine
 10
5449.999999999995
 20
1200.000000000002
 30
0.0
 11
5449.999999999995
 21
1800.0
 31
0.0
  0
LINE
  5
B7AD
330
B151
100
AcDbEntity
  8
mp001241$0$MASONS Panel Perimeter (00134148)
100
AcDbLine
 10
5449.999999999995
 20
0.000000000001819
 30
0.0
 11
5449.999999999995
 21
600.0
 31
0.0
  0
LINE
  5
B7AE
330
B151
100
AcDbEntity
  8
mp001241$0$MASONS Panel Perimeter (00134148)
100
AcDbLine
 10
1849.999999999996
 20
599.9999999999994
 30
0.0
 11
1849.999999999996
 21
1200.0
 31
0.0
  0
LINE
  5
B7AF
330
B151
100
AcDbEntity
  8
mp001241$0$MASONS Panel Perimeter (00134148)
100
AcDbLine
 10
1849.999999999996
 20
1800.0
 30
0.0
 11
1849.999999999996
 21
2234.966905296419
 31
0.0
  0
LINE
  5
B7B0
330
B151
100
AcDbEntity
  8
mp001241$0$MASONS Panel Perimeter (00134148)
100
AcDbLine
 10
50.0
 20
600.0000000000003
 30
0.0
 11
50.0
 21
1200.0
 31
0.0
  0
LINE
  5
B7B1
330
B151
100
AcDbEntity
  8
mp001241$0$MASONS Panel Perimeter (00134148)
100
AcDbLine
 10
50.0
 20
1800.0
 30
0.0
 11
50.0
 21
2234.96690529642
 31
0.0
  0
INSERT
  5
B7B2
330
B151
100
AcDbEntity
  8
mp001241$0$Detail Flashings Perimeter (00134165)
100
AcDbBlockReference
  2
mp001241$0$block19_0_Copy
 10
3699.999999999997
 20
1016.557164783372
 30
0.0
  0
LINE
  5
B7BA
330
B151
100
AcDbEntity
  8
mp001241$0$MASONS Panel Perimeter (00134148)
100
AcDbLine
 10
5499.999999999996
 20
1800.0
 30
0.0
 11
4699.999999999995
 21
1800.0
 31
0.0
  0
LINE
  5
B7BB
330
B151
100
AcDbEntity
  8
mp001241$0$MASONS Panel Perimeter (00134148)
100
AcDbLine
 10
3300.0
 20
2216.557164783372
 30
0.0
 11
3300.0
 21
2400.000000000003
 31
0.0
  0
LINE
  5
B7BC
330
B151
100
AcDbEntity
  8
mp001241$0$MASONS Panel Perimeter (00134148)
100
AcDbLine
 10
3300.0
 20
2400.000000000003
 30
0.0
 11
5096.085386295049
 21
2400.000000000003
 31
0.0
  0
LINE
  5
B7BD
330
B151
100
AcDbEntity
  8
mp001241$0$MASONS Panel Perimeter (00134148)
100
AcDbLine
 10
5499.999999999996
 20
2211.651522388669
 30
0.0
 11
5499.999999999996
 21
1200.000000000002
 31
0.0
  0
LINE
  5
B7BE
330
B151
100
AcDbEntity
  8
mp001241$0$MASONS Panel Perimeter (00134148)
100
AcDbLine
 10
2199.999999999997
 20
2400.000000000003
 30
0.0
 11
3300.0
 21
2400.000000000003
 31
0.0
  0
LINE
  5
B7BF
330
B151
100
AcDbEntity
  8
mp001241$0$MASONS Panel Perimeter (00134148)
100
AcDbLine
 10
3300.0
 20
2400.000000000003
 30
0.0
 11
3300.017669355675
 21
2216.557164783372
 31
0.0
  0
LINE
  5
B7C0
330
B151
100
AcDbEntity
  8
mp001241$0$MASONS Panel Perimeter (00134148)
100
AcDbLine
 10
2699.999999999995
 20
1800.0
 30
0.0
 11
1100.0
 21
1800.0
 31
0.0
  0
LINE
  5
B7C1
330
B151
100
AcDbEntity
  8
mp001241$0$MASONS Panel Perimeter (00134148)
100
AcDbLine
 10
1100.0
 20
1800.0
 30
0.0
 11
1100.0
 21
2400.000000000003
 31
0.0
  0
LINE
  5
B7C2
330
B151
100
AcDbEntity
  8
mp001241$0$MASONS Panel Perimeter (00134148)
100
AcDbLine
 10
1100.0
 20
2400.000000000003
 30
0.0
 11
1730.674297074441
 21
2400.000000000003
 31
0.0
  0
LINE
  5
B7C3
330
B151
100
AcDbEntity
  8
mp001241$0$MASONS Panel Perimeter (00134148)
100
AcDbLine
 10
1100.0
 20
599.9999999999994
 30
0.0
 11
1100.0
 21
1200.0
 31
0.0
  0
LINE
  5
B7C4
330
B151
100
AcDbEntity
  8
mp001241$0$MASONS Panel Perimeter (00134148)
100
AcDbLine
 10
1100.0
 20
1200.0
 30
0.0
 11
2699.999999999995
 21
1200.0
 31
0.0
  0
LINE
  5
B7C5
330
B151
100
AcDbEntity
  8
mp001241$0$MASONS Panel Perimeter (00134148)
100
AcDbLine
 10
3300.0
 20
1016.557164783373
 30
0.0
 11
3300.0
 21
599.9999999999994
 31
0.0
  0
LINE
  5
B7C6
330
B151
100
AcDbEntity
  8
mp001241$0$MASONS Panel Perimeter (00134148)
100
AcDbLine
 10
3300.0
 20
599.9999999999994
 30
0.0
 11
0.0
 21
599.9999999999994
 31
0.0
  0
LINE
  5
B7C7
330
B151
100
AcDbEntity
  8
mp001241$0$MASONS Panel Perimeter (00134148)
100
AcDbLine
 10
0.0
 20
599.9999999999994
 30
0.0
 11
0.0
 21
2211.651522388669
 31
0.0
  0
LINE
  5
B7C8
330
B151
100
AcDbEntity
  8
mp001241$0$MASONS Panel Perimeter (00134148)
100
AcDbLine
 10
5499.999999999996
 20
1200.0
 30
0.0
 11
5499.999999999996
 21
600.0
 31
0.0
  0
LINE
  5
B7C9
330
B151
100
AcDbEntity
  8
mp001241$0$MASONS Panel Perimeter (00134148)
100
AcDbLine
 10
5499.999999999996
 20
600.0
 30
0.0
 11
3300.0
 21
600.0
 31
0.0
  0
LINE
  5
B7CA
330
B151
100
AcDbEntity
  8
mp001241$0$MASONS Panel Perimeter (00134148)
100
AcDbLine
 10
3300.0
 20
600.0
 30
0.0
 11
3300.0
 21
1016.557164783373
 31
0.0
  0
LINE
  5
B7CB
330
B151
100
AcDbEntity
  8
mp001241$0$MASONS Panel Perimeter (00134148)
100
AcDbLine
 10
4699.999999999995
 20
1200.0
 30
0.0
 11
5499.999999999996
 21
1200.0
 31
0.0
  0
LINE
  5
B7CC
330
B151
100
AcDbEntity
  8
mp001241$0$MASONS Panel Perimeter (00134148)
100
AcDbLine
 10
4399.999999999995
 20
2724.589946359166
 30
0.0
 11
4399.999999999995
 21
2400.0
 31
0.0
  0
LINE
  5
B7CD
330
B151
100
AcDbEntity
  8
mp001241$0$MASONS Panel Perimeter (00134148)
100
AcDbLine
 10
4399.999999999995
 20
2400.0
 30
0.0
 11
2199.999999999997
 21
2400.0
 31
0.0
  0
LINE
  5
B7CE
330
B151
100
AcDbEntity
  8
mp001241$0$MASONS Panel Perimeter (00134148)
100
AcDbLine
 10
3490.618766010677
 20
3000.000000000002
 30
0.0
 11
3809.381233989312
 21
3000.000000000002
 31
0.0
  0
LINE
  5
B7CF
330
B151
100
AcDbEntity
  8
mp001241$0$Detail Soffit Lining Perimeter (00134203)
100
AcDbLine
 10
5499.999999999996
 20
1978.497693311167
 30
0.0
 11
5999.999999999996
 21
1978.497693311167
 31
0.0
  0
LINE
  5
B7D0
330
B151
100
AcDbEntity
  8
mp001241$0$Detail Fascia Boards Perimeter (00134250)
100
AcDbLine
 10
5999.999999999996
 20
1978.497693311167
 30
0.0
 11
3649.999999999995
 21
3074.320689975415
 31
0.0
  0
LINE
  5
B7D1
330
B151
100
AcDbEntity
  8
mp001241$0$Detail Fascia Boards Perimeter (00134250)
100
AcDbLine
 10
2749.999999999996
 20
3493.997582314912
 30
0.0
 11
-500.0
 21
1978.497693311169
 31
0.0
  0
LINE
  5
B7D2
330
B151
100
AcDbEntity
  8
mp001241$0$Detail Fascia Boards Perimeter (00134250)
100
AcDbLine
 10
-500.0
 20
1978.497693311169
 30
0.0
 11
-500.0
 21
2199.173277103668
 31
0.0
  0
LINE
  5
B7D3
330
B151
100
AcDbEntity
  8
mp001241$0$Detail Fascia Boards Perimeter (00134250)
100
AcDbLine
 10
-500.0
 20
2199.173277103668
 30
0.0
 11
2749.999999999996
 21
3714.673166107411
 31
0.0
  0
LINE
  5
B7D4
330
B151
100
AcDbEntity
  8
mp001241$0$Detail Fascia Boards Perimeter (00134250)
100
AcDbLine
 10
2749.999999999996
 20
3714.673166107411
 30
0.0
 11
2749.999999999996
 21
3493.997582314912
 31
0.0
  0
LINE
  5
B7D5
330
B151
100
AcDbEntity
  8
mp001241$0$Detail Fascia Boards Perimeter (00134250)
100
AcDbLine
 10
2749.999999999996
 20
3493.997582314912
 30
0.0
 11
2749.999999999996
 21
3714.673166107412
 31
0.0
  0
LINE
  5
B7D6
330
B151
100
AcDbEntity
  8
mp001241$0$Detail Fascia Boards Perimeter (00134250)
100
AcDbLine
 10
2749.999999999996
 20
3714.673166107412
 30
0.0
 11
5999.999999999996
 21
2199.173277103668
 31
0.0
  0
LINE
  5
B7D7
330
B151
100
AcDbEntity
  8
mp001241$0$Detail Fascia Boards Perimeter (00134250)
100
AcDbLine
 10
5999.999999999996
 20
2199.173277103668
 30
0.0
 11
5999.999999999996
 21
1978.497693311167
 31
0.0
  0
LINE
  5
B7D8
330
B151
100
AcDbEntity
  8
mp001241$0$MASONS Panel Perimeter (00134148)
100
AcDbLine
 10
2199.999999999997
 20
3000.000000000002
 30
0.0
 11
2199.999999999997
 21
2618.850169443166
 31
0.0
  0
LINE
  5
B7D9
330
B151
100
AcDbEntity
  8
mp001241$0$MASONS Panel Perimeter (00134148)
100
AcDbLine
 10
2199.999999999997
 20
2618.850169443166
 30
0.0
 11
1730.674297074441
 21
2400.000000000003
 31
0.0
  0
LINE
  5
B7DA
330
B151
100
AcDbEntity
  8
mp001241$0$MASONS Panel Perimeter (00134148)
100
AcDbLine
 10
1730.674297074441
 20
2400.000000000003
 30
0.0
 11
403.9146137049428
 21
2400.0
 31
0.0
  0
LINE
  5
B7DB
330
B151
100
AcDbEntity
  8
mp001241$0$MASONS Panel Perimeter (00134148)
100
AcDbLine
 10
3299.942207536239
 20
3237.555319398099
 30
0.0
 11
3299.942207536243
 21
3131.761644345231
 31
0.0
  0
LINE
  5
B7DC
330
B151
100
AcDbEntity
  8
mp001241$0$MASONS Panel Perimeter (00134148)
100
AcDbLine
 10
3017.378449380178
 20
3000.000000000003
 30
0.0
 11
1690.61876601068
 21
3000.000000000003
 31
0.0
  0
ENDBLK
  5
B153
330
B151
100
AcDbEntity
  8
0
100
AcDbBlockEnd
  0
BLOCK
  5
B757
330
B756
100
AcDbEntity
  8
0
100
AcDbBlockBegin
  2
mp000096$0$_OBLIQUE
 70
     0
 10
0.0
 20
0.0
 30
0.0
  3
mp000096$0$_OBLIQUE
  1

  0
LINE
  5
B758
330
B756
100
AcDbEntity
  8
0
  6
ByBlock
 62
     0
100
AcDbLine
 10
-0.5
 20
-0.5
 30
0.0
 11
0.5
 21
0.5
 31
0.0
  0
ENDBLK
  5
B759
330
B756
100
AcDbEntity
  8
0
100
AcDbBlockEnd
  0
BLOCK
  5
B75B
330
B75A
100
AcDbEntity
  8
0
100
AcDbBlockBegin
  2
mp000096$0$_DetailCallout
 70
     2
 10
0.0
 20
0.0
 30
0.0
  3
mp000096$0$_DetailCallout
  1

  0
CIRCLE
  5
B75C
330
B75A
100
AcDbEntity
  8
0
  6
ByBlock
 62
     0
370
    -2
100
AcDbCircle
 10
0.0
 20
0.0
 30
0.0
 40
8.0
  0
LINE
  5
B75D
330
B75A
100
AcDbEntity
  8
0
  6
ByBlock
 62
     0
370
    -2
100
AcDbLine
 10
8.0
 20
0.0
 30
0.0
 11
-8.0
 21
0.0
 31
0.0
  0
ATTDEF
  5
B75E
330
B75A
100
AcDbEntity
  8
0
 62
     0
100
AcDbText
 10
-15.0
 20
1.0
 30
0.0
 40
3.0
  1
VIEWNUMBER
  7
mp000096$0$x01
 72
     1
 11
0.0
 21
1.0
 31
0.0
100
AcDbAttributeDefinition
  3
Enter view number
  2
VIEWNUMBER
 70
     0
280
     0
  0
ATTDEF
  5
B760
330
B75A
100
AcDbEntity
  8
0
 62
     0
100
AcDbText
 10
-16.0
 20
-6.0
 30
0.0
 40
3.0
  1
SHEETNUMBER
  7
mp000096$0$x01
 72
     1
 11
0.0
 21
-6.0
 31
0.0
100
AcDbAttributeDefinition
  3
Enter sheet number
  2
SHEETNUMBER
 70
     0
280
     0
  0
ENDBLK
  5
B761
330
B75A
100
AcDbEntity
  8
0
100
AcDbBlockEnd
  0
BLOCK
  5
B7E4
330
B7E3
100
AcDbEntity
  8
0
100
AcDbBlockBegin
  2
mp001241$0$_OBLIQUE
 70
     0
 10
0.0
 20
0.0
 30
0.0
  3
mp001241$0$_OBLIQUE
  1

  0
LINE
  5
B7E5
330
B7E3
100
AcDbEntity
  8
0
  6
ByBlock
 62
     0
100
AcDbLine
 10
-0.5
 20
-0.5
 30
0.0
 11
0.5
 21
0.5
 31
0.0
  0
ENDBLK
  5
B7E6
330
B7E3
100
AcDbEntity
  8
0
100
AcDbBlockEnd
  0
BLOCK
  5
B7E8
330
B7E7
100
AcDbEntity
  8
0
100
AcDbBlockBegin
  2
mp001241$0$_DetailCallout
 70
     2
 10
0.0
 20
0.0
 30
0.0
  3
mp001241$0$_DetailCallout
  1

  0
CIRCLE
  5
B7E9
330
B7E7
100
AcDbEntity
  8
0
  6
ByBlock
 62
     0
370
    -2
100
AcDbCircle
 10
0.0
 20
0.0
 30
0.0
 40
8.0
  0
LINE
  5
B7EA
330
B7E7
100
AcDbEntity
  8
0
  6
ByBlock
 62
     0
370
    -2
100
AcDbLine
 10
8.0
 20
0.0
 30
0.0
 11
-8.0
 21
0.0
 31
0.0
  0
ATTDEF
  5
B7EB
330
B7E7
100
AcDbEntity
  8
0
 62
     0
100
AcDbText
 10
-15.0
 20
1.0
 30
0.0
 40
3.0
  1
VIEWNUMBER
  7
mp001241$0$x01
 72
     1
 11
0.0
 21
1.0
 31
0.0
100
AcDbAttributeDefinition
  3
Enter view number
  2
VIEWNUMBER
 70
     0
280
     0
  0
ATTDEF
  5
B7ED
330
B7E7
100
AcDbEntity
  8
0
 62
     0
100
AcDbText
 10
-16.0
 20
-6.0
 30
0.0
 40
3.0
  1
SHEETNUMBER
  7
mp001241$0$x01
 72
     1
 11
0.0
 21
-6.0
 31
0.0
100
AcDbAttributeDefinition
  3
Enter sheet number
  2
SHEETNUMBER
 70
     0
280
     0
  0
ENDBLK
  5
B7EE
330
B7E7
100
AcDbEntity
  8
0
100
AcDbBlockEnd
  0
BLOCK
  5
B7B5
330
B7B3
100
AcDbEntity
  8
mp001241$0$L-100
 62
    18
100
AcDbBlockBegin
  2
mp001241$0$block19_0_Copy
 70
     0
 10
0.0
 20
0.0
 30
0.0
  3
mp001241$0$block19_0_Copy
  1

  0
LWPOLYLINE
  5
B7B6
330
B7B3
100
AcDbEntity
  8
0
100
AcDbPolyline
 90
        4
 70
     1
 43
0.0
 10
970.0000000000013
 20
30.00000000000004
 10
-970.0000000000013
 20
30.00000000000004
 10
-970.0000000000013
 20
1170.0
 10
970.0000000000013
 20
1170.0
1001
AcDbBlockRepETag
1070
     1
1071
        0
1005
B7B6
  0
LWPOLYLINE
  5
B7B7
330
B7B3
100
AcDbEntity
  8
0
100
AcDbPolyline
 90
        4
 70
     1
 43
0.0
 10
910.0000000000012
 20
90.0
 10
-910.0000000000012
 20
90.0
 10
-910.0000000000012
 20
1110.0
 10
910.0000000000012
 20
1110.0
1001
AcDbBlockRepETag
1070
     1
1071
        1
1005
B7B7
  0
LWPOLYLINE
  5
B7B8
330
B7B3
100
AcDbEntity
  8
0
100
AcDbPolyline
 90
        4
 70
     1
 43
0.0
 10
1000.000000000001
 20
0.0
 10
-1000.000000000001
 20
0.0
 10
-1000.000000000001
 20
1200.0
 10
1000.000000000001
 20
1200.0
1001
AcDbBlockRepETag
1070
     1
1071
        2
1005
B7B8
  0
ENDBLK
  5
B7B9
330
B7B3
100
AcDbEntity
  8
mp001241$0$CAD_DEFAULT_LAYER
100
AcDbBlockEnd
  0
ENDSEC
  0
SECTION
  2
ENTITIES
  0
TEXT
  5
821D
102
{ACAD_XDICTIONARY
360
A02D
102
}
330
1F
100
AcDbEntity
  8
MP Annotation (00134142) @ 50
100
AcDbText
 10
7347.538427340829
 20
4410.146805143968
 30
0.0
 40
100.0
  1
Batten layout
  7
2mm
100
AcDbText
1001
AcadAnnotative
1000
AnnotativeData
1002
{
1070
     1
1070
     0
1002
}
  0
INSERT
  5
9027
330
1F
100
AcDbEntity
  8
0
100
AcDbBlockReference
  2
mp000096
 10
3878.804073981978
 20
-1426.492459003534
 30
0.0
1001
AEC_XDATA_BOUND_SPACE
1070
   100
1070
     1
  0
LINE
  5
A9ED
330
1F
100
AcDbEntity
  8
MP Panel Perimeter (00134148)
100
AcDbLine
 10
5252.00347119361
 20
-6315.6988328993
 30
0.0
 11
5252.00347119361
 21
-6500.30235108637
 31
0.0
  0
LINE
  5
A9EE
330
1F
100
AcDbEntity
  8
MP Panel Perimeter (00134148)
100
AcDbLine
 10
5202.003471193609
 20
-7009.161924782303
 30
0.0
 11
5202.003471193609
 21
-6523.245137514788
 31
0.0
  0
LINE
  5
A9EF
330
1F
100
AcDbEntity
  8
MP Panel Perimeter (00134148)
100
AcDbLine
 10
5252.00347119361
 20
-7009.161924782303
 30
0.0
 11
4766.246224624446
 21
-7009.161924782303
 31
0.0
  0
LINE
  5
A9F0
330
1F
100
AcDbEntity
  8
MP Panel Perimeter (00134148)
100
AcDbLine
 10
4464.425509806846
 20
-6959.161924782303
 30
0.0
 11
4719.871904594547
 21
-6959.161924782303
 31
0.0
  0
HATCH
  5
A9F6
330
1F
100
AcDbEntity
  8
MP Panel Hatch (00134149)
370
     5
100
AcDbHatch
 10
0.0
 20
0.0
 30
0.0
210
0.0
220
0.0
230
1.0
  2
DOTS
 70
     0
 71
     1
 91
        1
 92
        7
 72
     0
 73
     1
 93
        4
 10
1111.405289172475
 20
-7411.996047635941
 10
1161.405289172475
 20
-7411.996047635941
 10
1161.405289172475
 20
-6811.996047635941
 10
1111.405289172475
 20
-6811.996047635941
 97
        4
330
A9FB
330
A9F7
330
A9F8
330
A9FA
 75
     0
 76
     1
 52
0.0
 41
250.0
 77
     0
 78
     1
 53
0.0
 43
-711.6747029162215
 44
780.4647419792445
 45
7.8125
 46
15.625
 79
     2
 49
0.0
 49
-15.625
 47
3.474166451703606
 98
        1
 10
1127.979798728069
 20
-7012.902402101296
1001
ACAD
1010
0.0
1020
0.0
1030
0.0
  0
LINE
  5
A9F7
102
{ACAD_REACTORS
330
A9F6
102
}
330
1F
100
AcDbEntity
  8
MP Panel Perimeter (00134148)
100
AcDbLine
 10
1111.405289172475
 20
-6811.996047635941
 30
0.0
 11
1111.405289172475
 21
-7411.996047635941
 31
0.0
  0
LINE
  5
A9F8
102
{ACAD_REACTORS
330
A9F6
102
}
330
1F
100
AcDbEntity
  8
MP Panel Perimeter (00134148)
100
AcDbLine
 10
1111.405289172475
 20
-7411.996047635941
 30
0.0
 11
1161.405289172475
 21
-7411.996047635941
 31
0.0
  0
HATCH
  5
A9F9
330
1F
100
AcDbEntity
  8
MP Panel Hatch (00134149)
370
     5
100
AcDbHatch
 10
0.0
 20
0.0
 30
0.0
210
0.0
220
0.0
230
1.0
  2
DOTS
 70
     0
 71
     0
 91
        1
 92
        5
 93
       45
 72
     1
 10
1746.448934956345
 20
-7411.996047635941
 11
1749.09070115402
 21
-7405.181222028865
 72
     1
 10
1749.090701154018
 20
-7405.181222028865
 11
1753.273825888244
 21
-7390.741364317313
 72
     1
 10
1753.273825888246
 20
-7390.741364317313
 11
1757.000028293367
 21
-7376.303419666287
 72
     1
 10
1757.000028293367
 20
-7376.303419666287
 11
1760.314731073421
 21
-7361.879675887336
 72
     1
 10
1760.31473107342
 20
-7361.879675887336
 11
1763.236495261728
 21
-7347.461587947629
 72
     1
 10
1763.236495261728
 20
-7347.461587947629
 11
1765.783881891606
 21
-7333.040610814234
 72
     1
 10
1765.783881891606
 20
-7333.040610814234
 11
1767.975451996389
 21
-7318.608199454262
 72
     1
 10
1767.97545199639
 20
-7318.608199454262
 11
1769.829766609376
 21
-7304.155808834929
 72
     1
 10
1769.829766609375
 20
-7304.155808834929
 11
1771.365386763898
 21
-7289.674893923272
 72
     1
 10
1771.365386763901
 20
-7289.674893923272
 11
1772.600772405553
 21
-7275.157156012323
 72
     1
 10
1772.600772405553
 20
-7275.157156012323
 11
1773.551903044767
 21
-7260.600340605923
 72
     1
 10
1773.551903044767
 20
-7260.600340605923
 11
1774.232188212516
 21
-7246.008455616018
 72
     1
 10
1774.232188212516
 20
-7246.008455616018
 11
1774.654918436107
 21
-7231.385798937107
 72
     1
 10
1774.654918436106
 20
-7231.385798937107
 11
1774.833384242851
 21
-7216.73666846392
 72
     1
 10
1774.833384242851
 20
-7216.73666846392
 11
1774.780876160057
 21
-7202.065362091076
 72
     1
 10
1774.780876160057
 20
-7202.065362091076
 11
1774.510684715034
 21
-7187.376177713054
 72
     1
 10
1774.510684715034
 20
-7187.376177713054
 11
1774.036100435092
 21
-7172.673413224559
 72
     1
 10
1774.036100435093
 20
-7172.673413224559
 11
1773.370413847541
 21
-7157.96136652024
 72
     1
 10
1773.370413847541
 20
-7157.96136652024
 11
1772.52691547969
 21
-7143.244335494592
 72
     1
 10
1772.52691547969
 20
-7143.244335494592
 11
1771.518895858848
 21
-7128.526618042329
 72
     1
 10
1771.518895858848
 20
-7128.526618042329
 11
1770.359645512318
 21
-7113.81251205796
 72
     1
 10
1770.359645512319
 20
-7113.81251205796
 11
1769.062454967428
 21
-7099.106315436232
 72
     1
 10
1769.062454967428
 20
-7099.106315436232
 11
1767.640614751477
 21
-7084.412326071765
 72
     1
 10
1767.640614751477
 20
-7084.412326071765
 11
1766.107415391771
 21
-7069.734841858974
 72
     1
 10
1766.10741539177
 20
-7069.734841858974
 11
1764.476147421452
 21
-7055.07816068145
 72
     1
 10
1764.476147421452
 20
-7055.07816068145
 11
1784.644057835167
 21
-7037.412940680541
 72
     1
 10
1784.644057835168
 20
-7037.412940680541
 11
1740.660408601495
 21
-7041.66742969991
 72
     1
 10
1740.660408601496
 20
-7041.66742969991
 11
1760.758143110535
 21
-7024.063677286342
 72
     1
 10
1760.758143110534
 20
-7024.063677286342
 11
1758.799196784612
 21
-7008.521445719203
 72
     1
 10
1758.799196784613
 20
-7008.521445719203
 11
1756.806625707909
 21
-6992.99564838836
 72
     1
 10
1756.806625707908
 20
-6992.99564838836
 11
1754.801317702507
 21
-6977.482316764167
 72
     1
 10
1754.801317702507
 20
-6977.482316764167
 11
1752.804160590442
 21
-6961.977482316692
 72
     1
 10
1752.804160590442
 20
-6961.977482316692
 11
1750.836042193771
 21
-6946.477176515841
 72
     1
 10
1750.836042193772
 20
-6946.477176515841
 11
1748.917850334554
 21
-6930.977430832121
 72
     1
 10
1748.917850334554
 20
-6930.977430832121
 11
1747.070472834824
 21
-6915.47427673529
 72
     1
 10
1747.070472834822
 20
-6915.47427673529
 11
1745.314797516646
 21
-6899.963745695739
 72
     1
 10
1745.314797516646
 20
-6899.963745695739
 11
1743.671712202052
 21
-6884.441869183281
 72
     1
 10
1743.671712202051
 20
-6884.441869183281
 11
1742.162104713102
 21
-6868.904678668179
 72
     1
 10
1742.162104713103
 20
-6868.904678668179
 11
1740.806862871853
 21
-6853.348205620598
 72
     1
 10
1740.806862871854
 20
-6853.348205620598
 11
1739.626874500343
 21
-6837.768481510535
 72
     1
 10
1739.626874500343
 20
-6837.768481510535
 11
1738.643027420633
 21
-6822.161537808252
 72
     1
 10
1738.643027420632
 20
-6822.161537808252
 11
1738.144561198233
 21
-6811.99604763594
 72
     1
 10
1738.144561198232
 20
-6811.99604763594
 11
1161.405289172474
 21
-6811.996047635941
 72
     1
 10
1161.405289172475
 20
-6811.996047635941
 11
1161.405289172474
 21
-7411.996047635941
 72
     1
 10
1161.405289172473
 20
-7411.996047635941
 11
1746.448934956343
 21
-7411.996047635941
 97
        0
 75
     0
 76
     1
 52
0.0
 41
500.0
 77
     0
 78
     1
 53
0.0
 43
-711.6747029162215
 44
780.4647419792445
 45
15.625
 46
31.25
 79
     2
 49
0.0
 49
-31.25
 47
4.947311233909695
 98
        2
 10
2104.291801243351
 20
-7111.384146530813
 10
2104.291801243351
 20
-7111.384146530813
1001
ACAD
1010
0.0
1020
0.0
1030
0.0
  0
LINE
  5
A9FA
102
{ACAD_REACTORS
330
A9F6
102
}
330
1F
100
AcDbEntity
  8
MP Panel Perimeter (00134148)
100
AcDbLine
 10
1161.405289172475
 20
-7411.996047635941
 30
0.0
 11
1161.405289172475
 21
-6811.996047635941
 31
0.0
  0
LINE
  5
A9FB
102
{ACAD_REACTORS
330
A9F6
102
}
330
1F
100
AcDbEntity
  8
MP Panel Perimeter (00134148)
100
AcDbLine
 10
1161.405289172475
 20
-6811.996047635941
 30
0.0
 11
1111.405289172475
 21
-6811.996047635941
 31
0.0
  0
LINE
  5
A9FC
330
1F
100
AcDbEntity
  8
MP Panel Perimeter (00134148)
100
AcDbLine
 10
1161.405289172475
 20
-6811.996047635941
 30
0.0
 11
1738.11839091997
 21
-6811.996047635941
 31
0.0
  0
LINE
  5
A9FD
102
{ACAD_REACTORS
330
B906
102
}
330
1F
100
AcDbEntity
  8
MP Panel Perimeter (00134148)
100
AcDbLine
 10
2194.09572259467
 20
-6811.996047635941
 30
0.0
 11
2194.09572259467
 21
-7411.996047635941
 31
0.0
  0
LINE
  5
A9FE
102
{ACAD_REACTORS
330
B906
102
}
330
1F
100
AcDbEntity
  8
MP Panel Perimeter (00134148)
100
AcDbLine
 10
2194.09572259467
 20
-7411.996047635941
 30
0.0
 11
1829.50245590273
 21
-7411.996047635941
 31
0.0
  0
LINE
  5
AA4F
330
1F
100
AcDbEntity
  8
0
100
AcDbLine
 10
5252.00347119361
 20
-7009.161924782303
 30
0.0
 11
5202.003471193609
 21
-7009.161924782303
 31
0.0
  0
LINE
  5
AA50
330
1F
100
AcDbEntity
  8
MP Panel Perimeter (00134148)
100
AcDbLine
 10
5202.003471193609
 20
-6315.6988328993
 30
0.0
 11
5252.00347119361
 21
-6315.6988328993
 31
0.0
  0
LINE
  5
AA51
330
1F
100
AcDbEntity
  8
MP Panel Perimeter (00134148)
100
AcDbLine
 10
4464.425509806846
 20
-7009.161924782303
 30
0.0
 11
4464.425509806846
 21
-6959.161924782303
 31
0.0
  0
LINE
  5
AA52
330
1F
100
AcDbEntity
  8
0
 48
10.0
370
    13
100
AcDbLine
 10
5202.003471193609
 20
-6959.161924782303
 30
0.0
 11
5208.871717725887
 21
-6959.161924782303
 31
0.0
  0
LINE
  5
AAA3
330
1F
100
AcDbEntity
  8
0
 48
10.0
370
    13
100
AcDbLine
 10
5220.135224661337
 20
-6959.161924782303
 30
0.0
 11
5233.871717725888
 21
-6959.161924782304
 31
0.0
  0
LINE
  5
AAA4
330
1F
100
AcDbEntity
  8
0
 48
10.0
370
    13
100
AcDbLine
 10
5252.00347119361
 20
-6959.161924782303
 30
0.0
 11
5245.135224661336
 21
-6959.161924782303
 31
0.0
  0
INSERT
  5
B166
330
1F
100
AcDbEntity
  8
0
100
AcDbBlockReference
  2
mp001241
 10
876.1336029099911
 20
862.3284281804084
 30
0.0
1001
AEC_XDATA_BOUND_SPACE
1070
   100
1070
     1
  0
LINE
  5
B684
330
1F
100
AcDbEntity
  8
0
  6
Continuous
 48
10.0
370
     0
100
AcDbLine
 10
5202.003471193609
 20
-7193.645043123678
 30
0.0
 11
5202.003471193609
 21
-7050.084773107737
 31
0.0
1001
AcDbBlockRepETag
1070
     1
1071
        0
1005
B684
  0
LINE
  5
B685
330
1F
100
AcDbEntity
  8
0
  6
Continuous
 48
10.0
370
     0
100
AcDbLine
 10
5485.456706102379
 20
-6315.6988328993
 30
0.0
 11
5292.320597369566
 21
-6315.6988328993
 31
0.0
1001
AcDbBlockRepETag
1070
     1
1071
        0
1005
B685
  0
LINE
  5
B686
330
1F
100
AcDbEntity
  8
0
  6
Continuous
 48
10.0
370
     0
100
AcDbLine
 10
5485.456706102379
 20
-7009.161924782304
 30
0.0
 11
5292.320597369566
 21
-7009.161924782304
 31
0.0
1001
AcDbBlockRepETag
1070
     1
1071
        0
1005
B686
  0
LINE
  5
B687
330
1F
100
AcDbEntity
  8
0
  6
Continuous
 48
10.0
370
     0
100
AcDbLine
 10
4464.425509806846
 20
-7320.161547405523
 30
0.0
 11
4464.425509806846
 21
-7050.084773107737
 31
0.0
1001
AcDbBlockRepETag
1070
     1
1071
        0
1005
B687
  0
LINE
  5
B688
330
1F
100
AcDbEntity
  8
0
  6
Continuous
 48
10.0
370
     0
100
AcDbLine
 10
5252.00347119361
 20
-7320.161547405523
 30
0.0
 11
5252.00347119361
 21
-7050.084773107737
 31
0.0
1001
AcDbBlockRepETag
1070
     1
1071
        0
1005
B688
  0
LINE
  5
B689
330
1F
100
AcDbEntity
  8
MP Annotation (00134142)
100
AcDbLine
 10
5460.456706102377
 20
-7009.161924782303
 30
0.0
 11
5485.456706102377
 21
-7009.161924782303
 31
0.0
  0
LINE
  5
B68A
330
1F
100
AcDbEntity
  8
MP Annotation (00134142)
100
AcDbLine
 10
5460.456706102379
 20
-6315.6988328993
 30
0.0
 11
5485.456706102379
 21
-6315.6988328993
 31
0.0
  0
LINE
  5
B68B
330
1F
100
AcDbEntity
  8
MP Annotation (00134142)
100
AcDbLine
 10
5485.456706102377
 20
-6959.161924782303
 30
0.0
 11
5485.456706102377
 21
-6524.416333702223
 31
0.0
  0
INSERT
  5
B68C
330
1F
100
AcDbEntity
  8
MP Annotation (00134142)
100
AcDbBlockReference
  2
tick1
 10
5485.456706102377
 20
-7009.161924782303
 30
0.0
 41
50.0
 42
50.0
 43
50.0
 50
270.0
  0
INSERT
  5
B68D
330
1F
100
AcDbEntity
  8
MP Annotation (00134142)
100
AcDbBlockReference
  2
tick1
 10
5485.456706102379
 20
-6315.6988328993
 30
0.0
 41
50.0
 42
50.0
 43
50.0
 50
90.0
  0
MTEXT
  5
B68E
330
1F
100
AcDbEntity
  8
MP Annotation (00134142)
100
AcDbMText
 10
5428.004455079186
 20
-6770.33979513203
 30
0.0
 40
50.0
 41
0.0
 46
0.0
 71
     5
 72
     1
  1
\A1;2.2m Length
  7
2mm
 11
0.0000000000000001
 21
1.0
 31
0.0
 73
     1
 44
1.0
  0
LINE
  5
B68F
330
1F
100
AcDbEntity
  8
MP Annotation (00134142)
100
AcDbLine
 10
5252.00347119361
 20
-7295.161547405523
 30
0.0
 11
5252.00347119361
 21
-7320.161547405523
 31
0.0
  0
LINE
  5
B690
330
1F
100
AcDbEntity
  8
MP Annotation (00134142)
100
AcDbLine
 10
4464.425509806846
 20
-7295.161547405523
 30
0.0
 11
4464.425509806846
 21
-7320.161547405523
 31
0.0
  0
LINE
  5
B691
330
1F
100
AcDbEntity
  8
MP Annotation (00134142)
100
AcDbLine
 10
5202.003471193609
 20
-7320.161547405523
 30
0.0
 11
4754.347929404422
 21
-7320.161547405523
 31
0.0
  0
INSERT
  5
B692
330
1F
100
AcDbEntity
  8
MP Annotation (00134142)
100
AcDbBlockReference
  2
tick1
 10
5252.00347119361
 20
-7320.161547405523
 30
0.0
 41
50.0
 42
50.0
 43
50.0
  0
INSERT
  5
B693
330
1F
100
AcDbEntity
  8
MP Annotation (00134142)
100
AcDbBlockReference
  2
tick1
 10
4464.425509806846
 20
-7320.161547405523
 30
0.0
 41
50.0
 42
50.0
 43
50.0
 50
180.0
  0
MTEXT
  5
B694
330
1F
100
AcDbEntity
  8
MP Annotation (00134142)
100
AcDbMText
 10
4980.272488032528
 20
-7262.70929638233
 30
0.0
 40
50.0
 41
0.0
 46
0.0
 71
     5
 72
     1
  1
\A1;2.2m Length
  7
2mm
 73
     1
 44
1.0
  0
LINE
  5
B695
330
1F
100
AcDbEntity
  8
MP Annotation (00134142)
100
AcDbLine
 10
5202.003471193609
 20
-7168.645043123678
 30
0.0
 11
5202.003471193609
 21
-7193.645043123678
 31
0.0
  0
LINE
  5
B696
330
1F
100
AcDbEntity
  8
MP Annotation (00134142)
100
AcDbLine
 10
5252.00347119361
 20
-7168.645043123678
 30
0.0
 11
5252.00347119361
 21
-7193.645043123678
 31
0.0
  0
LINE
  5
B697
330
1F
100
AcDbEntity
  8
MP Annotation (00134142)
100
AcDbLine
 10
5152.003471193611
 20
-7193.645043123678
 30
0.0
 11
5102.00347119361
 21
-7193.645043123678
 31
0.0
  0
LINE
  5
B698
330
1F
100
AcDbEntity
  8
MP Annotation (00134142)
100
AcDbLine
 10
5302.003471193611
 20
-7193.645043123678
 30
0.0
 11
5473.456404345043
 21
-7193.645043123678
 31
0.0
  0
INSERT
  5
B699
330
1F
100
AcDbEntity
  8
MP Annotation (00134142)
100
AcDbBlockReference
  2
tick1
 10
5202.003471193609
 20
-7193.645043123678
 30
0.0
 41
50.0
 42
50.0
 43
50.0
  0
INSERT
  5
B69A
330
1F
100
AcDbEntity
  8
MP Annotation (00134142)
100
AcDbBlockReference
  2
tick1
 10
5252.00347119361
 20
-7193.645043123678
 30
0.0
 41
50.0
 42
50.0
 43
50.0
 50
180.0
  0
MTEXT
  5
B69B
330
1F
100
AcDbEntity
  8
MP Annotation (00134142)
100
AcDbMText
 10
5412.729937769327
 20
-7143.116393737591
 30
0.0
 40
50.0
 41
0.0
 46
0.0
 71
     5
 72
     1
  1
\A1;50
  7
2mm
 73
     1
 44
1.0
  0
LINE
  5
B69E
330
1F
100
AcDbEntity
  8
0
  6
Continuous
 48
10.0
370
     0
100
AcDbLine
 10
925.3814839589395
 20
-7411.996047635941
 30
0.0
 11
1063.616229214463
 21
-7411.996047635941
 31
0.0
1001
AcDbBlockRepETag
1070
     1
1071
        0
1005
B69E
  0
LINE
  5
B69F
330
1F
100
AcDbEntity
  8
0
  6
Continuous
 48
10.0
370
     0
100
AcDbLine
 10
925.3814839589358
 20
-6811.996047635938
 30
0.0
 11
1063.61622921446
 21
-6811.996047635938
 31
0.0
1001
AcDbBlockRepETag
1070
     1
1071
        0
1005
B69F
  0
LINE
  5
B6A0
330
1F
100
AcDbEntity
  8
0
  6
Continuous
 48
10.0
370
     0
100
AcDbLine
 10
1111.405289172475
 20
-6621.635090348225
 30
0.0
 11
1111.405289172475
 21
-6760.431328580345
 31
0.0
1001
AcDbBlockRepETag
1070
     1
1071
        0
1005
B6A0
  0
LINE
  5
B6A1
330
1F
100
AcDbEntity
  8
0
  6
Continuous
 48
10.0
370
     0
100
AcDbLine
 10
1161.405289172475
 20
-6621.635090348225
 30
0.0
 11
1161.405289172475
 21
-6760.431328580345
 31
0.0
1001
AcDbBlockRepETag
1070
     1
1071
        0
1005
B6A1
  0
LINE
  5
B6A2
330
1F
100
AcDbEntity
  8
0
  6
Continuous
 48
10.0
370
     0
100
AcDbLine
 10
2194.09572259467
 20
-6621.635090348225
 30
0.0
 11
2194.09572259467
 21
-6760.431328580345
 31
0.0
1001
AcDbBlockRepETag
1070
     1
1071
        0
1005
B6A2
  0
LINE
  5
B6A3
330
1F
100
AcDbEntity
  8
MP Annotation (00134142)
100
AcDbLine
 10
1161.405289172475
 20
-6646.635090348225
 30
0.0
 11
1161.405289172475
 21
-6621.635090348225
 31
0.0
  0
LINE
  5
B6A4
330
1F
100
AcDbEntity
  8
MP Annotation (00134142)
100
AcDbLine
 10
2194.09572259467
 20
-6646.635090348225
 30
0.0
 11
2194.09572259467
 21
-6621.635090348225
 31
0.0
  0
LINE
  5
B6A5
330
1F
100
AcDbEntity
  8
MP Annotation (00134142)
100
AcDbLine
 10
1223.905289172475
 20
-6621.635090348225
 30
0.0
 11
1758.231022479413
 21
-6621.635090348225
 31
0.0
  0
INSERT
  5
B6A6
330
1F
100
AcDbEntity
  8
MP Annotation (00134142)
100
AcDbBlockReference
  2
tick1
 10
1161.405289172475
 20
-6621.635090348225
 30
0.0
 41
62.5
 42
62.5
 43
62.5
 50
180.0
  0
INSERT
  5
B6A7
330
1F
100
AcDbEntity
  8
MP Annotation (00134142)
100
AcDbBlockReference
  2
tick1
 10
2194.09572259467
 20
-6621.635090348225
 30
0.0
 41
62.5
 42
62.5
 43
62.5
  0
MTEXT
  5
B6A8
330
1F
100
AcDbEntity
  8
MP Annotation (00134142)
100
AcDbMText
 10
1466.116218599498
 20
-6556.069776569235
 30
0.0
 40
62.5
 41
0.0
 46
0.0
 71
     5
 72
     1
  1
\A1;2.2m Length
  7
2.5mm
 73
     1
 44
1.0
  0
LINE
  5
B6A9
330
1F
100
AcDbEntity
  8
MP Annotation (00134142)
100
AcDbLine
 10
950.3814839589358
 20
-6811.996047635941
 30
0.0
 11
925.3814839589358
 21
-6811.996047635941
 31
0.0
  0
LINE
  5
B6AA
330
1F
100
AcDbEntity
  8
MP Annotation (00134142)
100
AcDbLine
 10
950.3814839589358
 20
-7411.996047635941
 30
0.0
 11
925.3814839589358
 21
-7411.996047635941
 31
0.0
  0
LINE
  5
B6AB
330
1F
100
AcDbEntity
  8
MP Annotation (00134142)
100
AcDbLine
 10
925.3814839589358
 20
-6874.496047635941
 30
0.0
 11
925.3814839589358
 21
-7349.496047635941
 31
0.0
  0
INSERT
  5
B6AC
330
1F
100
AcDbEntity
  8
MP Annotation (00134142)
100
AcDbBlockReference
  2
tick1
 10
925.3814839589358
 20
-6811.996047635941
 30
0.0
 41
62.5
 42
62.5
 43
62.5
 50
90.0
  0
INSERT
  5
B6AD
330
1F
100
AcDbEntity
  8
MP Annotation (00134142)
100
AcDbBlockReference
  2
tick1
 10
925.3814839589358
 20
-7411.996047635941
 30
0.0
 41
62.5
 42
62.5
 43
62.5
 50
270.0
  0
MTEXT
  5
B6AE
330
1F
100
AcDbEntity
  8
MP Annotation (00134142)
100
AcDbMText
 10
868.4706722263308
 20
-7111.99604763594
 30
0.0
 40
62.5
 41
0.0
 46
0.0
 71
     5
 72
     1
  1
\A1;600
  7
2.5mm
 11
0.0000000000000001
 21
1.0
 31
0.0
 73
     1
 44
1.0
  0
LINE
  5
B6AF
330
1F
100
AcDbEntity
  8
MP Annotation (00134142)
100
AcDbLine
 10
1161.405289172475
 20
-6646.635090348225
 30
0.0
 11
1161.405289172475
 21
-6621.635090348225
 31
0.0
  0
LINE
  5
B6B0
330
1F
100
AcDbEntity
  8
MP Annotation (00134142)
100
AcDbLine
 10
1111.405289172475
 20
-6646.635090348225
 30
0.0
 11
1111.405289172475
 21
-6621.635090348225
 31
0.0
  0
LINE
  5
B6B1
330
1F
100
AcDbEntity
  8
MP Annotation (00134142)
100
AcDbLine
 10
1223.905289172475
 20
-6621.635090348225
 30
0.0
 11
1286.405289172475
 21
-6621.635090348225
 31
0.0
  0
LINE
  5
B6B2
330
1F
100
AcDbEntity
  8
MP Annotation (00134142)
100
AcDbLine
 10
1048.905289172475
 20
-6621.635090348225
 30
0.0
 11
847.0891227331849
 21
-6621.635090348225
 31
0.0
  0
INSERT
  5
B6B3
330
1F
100
AcDbEntity
  8
MP Annotation (00134142)
100
AcDbBlockReference
  2
tick1
 10
1161.405289172475
 20
-6621.635090348225
 30
0.0
 41
62.5
 42
62.5
 43
62.5
 50
180.0
  0
INSERT
  5
B6B4
330
1F
100
AcDbEntity
  8
MP Annotation (00134142)
100
AcDbBlockReference
  2
tick1
 10
1111.405289172475
 20
-6621.635090348225
 30
0.0
 41
62.5
 42
62.5
 43
62.5
  0
MTEXT
  5
B6B5
330
1F
100
AcDbEntity
  8
MP Annotation (00134142)
100
AcDbMText
 10
916.74720595283
 20
-6564.72427861562
 30
0.0
 40
62.5
 41
0.0
 46
0.0
 71
     5
 72
     1
  1
\A1;50
  7
2.5mm
 73
     1
 44
1.0
  0
TEXT
  5
B6B6
330
1F
100
AcDbEntity
  8
MP Annotation (00134142)
100
AcDbText
 10
-586.7500362645792
 20
-4477.269745549911
 30
0.0
 40
200.0
  1
TYPICAL AAC ENVIRO TIE
100
AcDbText
1001
ACAD_MLEADERVER
1070
     2
1001
AcadAnnotative
1000
AnnotativeData
1002
{
1070
     1
1070
     0
1002
}
  0
TEXT
  5
B6B7
330
1F
100
AcDbEntity
  8
MP Annotation (00134142)
100
AcDbText
 10
-593.0256160735832
 20
-4814.01372008379
 30
0.0
 40
200.0
  1
& PANEL LAYOUT
100
AcDbText
1001
ACAD_MLEADERVER
1070
     2
1001
AcadAnnotative
1000
AnnotativeData
1002
{
1070
     1
1070
     0
1002
}
  0
LINE
  5
B6B8
330
1F
100
AcDbEntity
  8
0
  6
Continuous
 48
10.0
370
     0
100
AcDbLine
 10
-172.7905291812594
 20
1462.328428180408
 30
0.0
 11
764.8084577313698
 21
1462.328428180407
 31
0.0
1001
AcDbBlockRepETag
1070
     1
1071
        0
1005
B6B8
  0
LINE
  5
B6B9
330
1F
100
AcDbEntity
  8
0
  6
Continuous
 48
10.0
370
     0
100
AcDbLine
 10
-172.7905291812612
 20
2062.328428180411
 30
0.0
 11
764.8084577313681
 21
2062.328428180411
 31
0.0
1001
AcDbBlockRepETag
1070
     1
1071
        0
1005
B6B9
  0
LINE
  5
B6BA
330
1F
100
AcDbEntity
  8
MP Annotation (00134142)
100
AcDbLine
 10
-122.79052918126
 20
2062.328428180408
 30
0.0
 11
-172.7905291812601
 21
2062.328428180408
 31
0.0
  0
LINE
  5
B6BB
330
1F
100
AcDbEntity
  8
MP Annotation (00134142)
100
AcDbLine
 10
-122.7905291812603
 20
1462.328428180409
 30
0.0
 11
-172.7905291812604
 21
1462.328428180409
 31
0.0
  0
LINE
  5
B6BC
330
1F
100
AcDbEntity
  8
MP Annotation (00134142)
100
AcDbLine
 10
-172.7905291812602
 20
2187.328428180408
 30
0.0
 11
-172.7905291812601
 21
2312.328428180408
 31
0.0
  0
LINE
  5
B6BD
330
1F
100
AcDbEntity
  8
MP Annotation (00134142)
100
AcDbLine
 10
-172.7905291812604
 20
1337.328428180409
 30
0.0
 11
-172.7905291812604
 21
1212.328428180409
 31
0.0
  0
INSERT
  5
B6BE
330
1F
100
AcDbEntity
  8
MP Annotation (00134142)
100
AcDbBlockReference
  2
tick1
 10
-172.7905291812602
 20
2062.328428180408
 30
0.0
 41
125.0
 42
125.0
 43
125.0
 50
270.0
  0
INSERT
  5
B6BF
330
1F
100
AcDbEntity
  8
MP Annotation (00134142)
100
AcDbBlockReference
  2
tick1
 10
-172.7905291812603
 20
1462.328428180409
 30
0.0
 41
125.0
 42
125.0
 43
125.0
 50
90.0
  0
MTEXT
  5
B6C0
330
1F
100
AcDbEntity
  8
MP Annotation (00134142)
100
AcDbMText
 10
-172.7905291812605
 20
1762.328428180408
 30
0.0
 40
125.0
 41
0.0
 46
0.0
 71
     5
 72
     1
  1
\A1;Panel Width\P600
  7
2.5mm
 11
0.9999999998476914
 21
0.0000174532925191
 31
0.0
 73
     1
 44
1.0
  0
LINE
  5
B6C1
330
1F
100
AcDbEntity
  8
0
  6
Continuous
 48
10.0
370
     0
100
AcDbLine
 10
926.1336029099902
 20
4490.374199644795
 30
0.0
 11
926.1336029099899
 21
3219.699436032594
 31
0.0
1001
AcDbBlockRepETag
1070
     1
1071
        0
1005
B6C1
  0
LINE
  5
B6C2
330
1F
100
AcDbEntity
  8
0
  6
Continuous
 48
10.0
370
     0
100
AcDbLine
 10
876.133602909992
 20
4490.374199644796
 30
0.0
 11
876.133602909992
 21
3193.396613503692
 31
0.0
1001
AcDbBlockRepETag
1070
     1
1071
        0
1005
B6C2
  0
LINE
  5
B6C3
330
1F
100
AcDbEntity
  8
MP Annotation (00134142)
100
AcDbLine
 10
876.1336029099904
 20
4440.374199644796
 30
0.0
 11
876.1336029099904
 21
4490.374199644795
 31
0.0
  0
LINE
  5
B6C4
330
1F
100
AcDbEntity
  8
MP Annotation (00134142)
100
AcDbLine
 10
926.1336029099904
 20
4440.374199644796
 30
0.0
 11
926.1336029099904
 21
4490.374199644795
 31
0.0
  0
LINE
  5
B6C5
330
1F
100
AcDbEntity
  8
MP Annotation (00134142)
100
AcDbLine
 10
776.1336029099902
 20
4490.374199644795
 30
0.0
 11
676.1336029099902
 21
4490.374199644795
 31
0.0
  0
LINE
  5
B6C6
330
1F
100
AcDbEntity
  8
MP Annotation (00134142)
100
AcDbLine
 10
1026.13360290999
 20
4490.374199644795
 30
0.0
 11
1974.769346429772
 21
4490.374199644795
 31
0.0
  0
INSERT
  5
B6C7
330
1F
100
AcDbEntity
  8
MP Annotation (00134142)
100
AcDbBlockReference
  2
tick1
 10
876.1336029099904
 20
4490.374199644795
 30
0.0
 41
100.0
 42
100.0
 43
100.0
  0
INSERT
  5
B6C8
330
1F
100
AcDbEntity
  8
MP Annotation (00134142)
100
AcDbBlockReference
  2
tick1
 10
926.1336029099904
 20
4490.374199644795
 30
0.0
 41
100.0
 42
100.0
 43
100.0
 50
180.0
  0
MTEXT
  5
B6C9
330
1F
100
AcDbEntity
  8
MP Annotation (00134142)
100
AcDbMText
 10
1550.451474669881
 20
4674.764831750297
 30
0.0
 40
100.0
 41
0.0
 46
0.0
 71
     5
 72
     1
  1
\A1;Panel Depth\P50
  7
2mm
 73
     1
 44
1.0
  0
TEXT
  5
B6CA
330
1F
100
AcDbEntity
  8
MP Annotation (00134142)
100
AcDbText
 10
5622.050090586604
 20
-4681.394347641769
 30
0.0
 40
220.0
  1
Detail 05   NTS
100
AcDbText
1001
ACAD_MLEADERVER
1070
     2
1001
AcadAnnotative
1000
AnnotativeData
1002
{
1070
     1
1070
     0
1002
}
  0
LINE
  5
B6CB
330
1F
100
AcDbEntity
  8
0
  6
Continuous
 48
10.0
370
     0
100
AcDbLine
 10
3351.133602909983
 20
-298.2232661965653
 30
0.0
 11
3351.133602909983
 21
738.1638761082772
 31
0.0
1001
AcDbBlockRepETag
1070
     1
1071
        0
1005
B6CB
  0
LINE
  5
B6CC
330
1F
100
AcDbEntity
  8
0
  6
Continuous
 48
10.0
370
     0
100
AcDbLine
 10
3951.133602909985
 20
-298.2232661965642
 30
0.0
 11
3951.133602909985
 21
738.1638761082784
 31
0.0
1001
AcDbBlockRepETag
1070
     1
1071
        0
1005
B6CC
  0
LINE
  5
B6CD
330
1F
100
AcDbEntity
  8
0
  6
Continuous
 48
10.0
370
     0
100
AcDbLine
 10
7692.270562076474
 20
862.3284281804094
 30
0.0
 11
6515.561822781086
 21
862.3284281804096
 31
0.0
1001
AcDbBlockRepETag
1070
     1
1071
        0
1005
B6CD
  0
LINE
  5
B6CE
330
1F
100
AcDbEntity
  8
0
  6
Continuous
 48
10.0
370
     0
100
AcDbLine
 10
8008.561822781087
 20
1062.32842818041
 30
0.0
 11
6515.561822781086
 21
1062.32842818041
 31
0.0
1001
AcDbBlockRepETag
1070
     1
1071
        0
1005
B6CE
  0
LINE
  5
B6CF
330
1F
100
AcDbEntity
  8
0
  6
Continuous
 48
10.0
370
     0
100
AcDbLine
 10
8008.561822781087
 20
1362.328428180408
 30
0.0
 11
6515.561822781086
 21
1362.328428180408
 31
0.0
1001
AcDbBlockRepETag
1070
     1
1071
        0
1005
B6CF
  0
LINE
  5
B6D0
330
1F
100
AcDbEntity
  8
0
  6
Continuous
 48
10.0
370
     0
100
AcDbLine
 10
8008.561822781087
 20
1562.328428180411
 30
0.0
 11
6515.561822781086
 21
1562.328428180411
 31
0.0
1001
AcDbBlockRepETag
1070
     1
1071
        0
1005
B6D0
  0
LINE
  5
B6D1
330
1F
100
AcDbEntity
  8
0
  6
Continuous
 48
10.0
370
     0
100
AcDbLine
 10
8008.561822781089
 20
1962.328428180408
 30
0.0
 11
6515.561822781089
 21
1962.328428180408
 31
0.0
1001
AcDbBlockRepETag
1070
     1
1071
        0
1005
B6D1
  0
LINE
  5
B6D2
330
1F
100
AcDbEntity
  8
0
  6
Continuous
 48
10.0
370
     0
100
AcDbLine
 10
8008.561822781089
 20
2162.328428180412
 30
0.0
 11
6515.561822781089
 21
2162.328428180412
 31
0.0
1001
AcDbBlockRepETag
1070
     1
1071
        0
1005
B6D2
  0
LINE
  5
B6D3
330
1F
100
AcDbEntity
  8
0
  6
Continuous
 48
10.0
370
     0
100
AcDbLine
 10
8008.561822781089
 20
2562.328428180407
 30
0.0
 11
6515.561822781089
 21
2562.328428180407
 31
0.0
1001
AcDbBlockRepETag
1070
     1
1071
        0
1005
B6D3
  0
LINE
  5
B6D4
330
1F
100
AcDbEntity
  8
0
  6
Continuous
 48
10.0
370
     0
100
AcDbLine
 10
8008.561822781087
 20
2762.328428180411
 30
0.0
 11
6515.176270707954
 21
2762.328428180411
 31
0.0
1001
AcDbBlockRepETag
1070
     1
1071
        0
1005
B6D4
  0
LINE
  5
B6D5
330
1F
100
AcDbEntity
  8
0
  6
Continuous
 48
10.0
370
     0
100
AcDbLine
 10
8008.561822781089
 20
3162.328428180408
 30
0.0
 11
6515.176270707955
 21
3162.328428180408
 31
0.0
1001
AcDbBlockRepETag
1070
     1
1071
        0
1005
B6D5
  0
LINE
  5
B6D6
330
1F
100
AcDbEntity
  8
0
  6
Continuous
 48
10.0
370
     0
100
AcDbLine
 10
8008.561822781087
 20
3362.328428180409
 30
0.0
 11
6515.176270707954
 21
3362.328428180409
 31
0.0
1001
AcDbBlockRepETag
1070
     1
1071
        0
1005
B6D6
  0
LINE
  5
B6D7
330
1F
100
AcDbEntity
  8
0
  6
Continuous
 48
10.0
370
     0
100
AcDbLine
 10
8008.561822781089
 20
3762.328428180408
 30
0.0
 11
6515.176270707955
 21
3762.328428180408
 31
0.0
1001
AcDbBlockRepETag
1070
     1
1071
        0
1005
B6D7
  0
LINE
  5
B6D8
330
1F
100
AcDbEntity
  8
0
  6
Continuous
 48
10.0
370
     0
100
AcDbLine
 10
7692.270562076479
 20
3962.328428180408
 30
0.0
 11
6515.176270707955
 21
3962.328428180408
 31
0.0
1001
AcDbBlockRepETag
1070
     1
1071
        0
1005
B6D8
  0
LINE
  5
B6D9
330
1F
100
AcDbEntity
  8
MP Annotation (00134142)
100
AcDbLine
 10
7642.270562076475
 20
1062.328428180408
 30
0.0
 11
7692.270562076474
 21
1062.328428180408
 31
0.0
  0
LINE
  5
B6DA
330
1F
100
AcDbEntity
  8
MP Annotation (00134142)
100
AcDbLine
 10
7642.270562076475
 20
862.328428180408
 30
0.0
 11
7692.270562076474
 21
862.328428180408
 31
0.0
  0
LINE
  5
B6DB
330
1F
100
AcDbEntity
  8
MP Annotation (00134142)
100
AcDbLine
 10
7692.270562076474
 20
1162.328428180408
 30
0.0
 11
7692.270562076474
 21
1262.328428180408
 31
0.0
  0
LINE
  5
B6DC
330
1F
100
AcDbEntity
  8
MP Annotation (00134142)
100
AcDbLine
 10
7692.270562076474
 20
762.3284281804078
 30
0.0
 11
7692.270562076474
 21
662.3284281804078
 31
0.0
  0
INSERT
  5
B6DD
330
1F
100
AcDbEntity
  8
MP Annotation (00134142)
100
AcDbBlockReference
  2
tick1
 10
7692.270562076474
 20
1062.328428180408
 30
0.0
 41
100.0
 42
100.0
 43
100.0
 50
270.0
  0
INSERT
  5
B6DE
330
1F
100
AcDbEntity
  8
MP Annotation (00134142)
100
AcDbBlockReference
  2
tick1
 10
7692.270562076474
 20
862.328428180408
 30
0.0
 41
100.0
 42
100.0
 43
100.0
 50
90.0
  0
MTEXT
  5
B6DF
330
1F
100
AcDbEntity
  8
MP Annotation (00134142)
100
AcDbMText
 10
7692.270562076474
 20
962.3284281804092
 30
0.0
 40
100.0
 41
0.0
 46
0.0
 71
     5
 72
     1
  1
\A1;200
  7
2mm
 11
0.9999999998476914
 21
0.0000174532925191
 31
0.0
 73
     1
 44
1.0
  0
LINE
  5
B6E0
330
1F
100
AcDbEntity
  8
MP Annotation (00134142)
 48
5.0
100
AcDbLine
 10
7642.270562076477
 20
3762.328428180409
 30
0.0
 11
7692.270562076477
 21
3762.328428180409
 31
0.0
  0
LINE
  5
B6E1
330
1F
100
AcDbEntity
  8
MP Annotation (00134142)
 48
5.0
100
AcDbLine
 10
7642.270562076477
 20
3962.328428180409
 30
0.0
 11
7692.270562076477
 21
3962.328428180409
 31
0.0
  0
LINE
  5
B6E2
330
1F
100
AcDbEntity
  8
MP Annotation (00134142)
 48
5.0
100
AcDbLine
 10
7692.270562076477
 20
3662.328428180409
 30
0.0
 11
7692.270562076477
 21
3562.328428180409
 31
0.0
  0
LINE
  5
B6E3
330
1F
100
AcDbEntity
  8
MP Annotation (00134142)
 48
5.0
100
AcDbLine
 10
7692.270562076477
 20
4062.328428180409
 30
0.0
 11
7692.270562076477
 21
4162.328428180408
 31
0.0
  0
INSERT
  5
B6E4
330
1F
100
AcDbEntity
  8
MP Annotation (00134142)
 48
5.0
100
AcDbBlockReference
  2
tick1
 10
7692.270562076477
 20
3762.328428180409
 30
0.0
 41
100.0
 42
100.0
 43
100.0
 50
90.0
  0
INSERT
  5
B6E5
330
1F
100
AcDbEntity
  8
MP Annotation (00134142)
 48
5.0
100
AcDbBlockReference
  2
tick1
 10
7692.270562076477
 20
3962.328428180409
 30
0.0
 41
100.0
 42
100.0
 43
100.0
 50
270.0
  0
MTEXT
  5
B6E6
330
1F
100
AcDbEntity
  8
MP Annotation (00134142)
 48
5.0
100
AcDbMText
 10
7692.270562076476
 20
3862.32842818041
 30
0.0
 40
100.0
 41
0.0
 46
0.0
 71
     5
 72
     1
  1
\A1;200
  7
2mm
 11
0.9999999998476914
 21
0.0000174532925191
 31
0.0
 73
     1
 44
1.0
  0
LINE
  5
B6E7
330
1F
100
AcDbEntity
  8
MP Annotation (00134142)
 48
5.0
100
AcDbLine
 10
7958.561822781089
 20
3362.328428180409
 30
0.0
 11
8008.561822781087
 21
3362.328428180409
 31
0.0
  0
LINE
  5
B6E8
330
1F
100
AcDbEntity
  8
MP Annotation (00134142)
 48
5.0
100
AcDbLine
 10
7958.561822781089
 20
3762.328428180409
 30
0.0
 11
8008.561822781087
 21
3762.328428180409
 31
0.0
  0
LINE
  5
B6E9
330
1F
100
AcDbEntity
  8
MP Annotation (00134142)
 48
5.0
100
AcDbLine
 10
8008.561822781087
 20
3262.328428180409
 30
0.0
 11
8008.561822781087
 21
3162.328428180409
 31
0.0
  0
LINE
  5
B6EA
330
1F
100
AcDbEntity
  8
MP Annotation (00134142)
 48
5.0
100
AcDbLine
 10
8008.561822781087
 20
3862.328428180409
 30
0.0
 11
8008.561822781087
 21
3962.328428180409
 31
0.0
  0
INSERT
  5
B6EB
330
1F
100
AcDbEntity
  8
MP Annotation (00134142)
 48
5.0
100
AcDbBlockReference
  2
tick1
 10
8008.561822781087
 20
3362.328428180409
 30
0.0
 41
100.0
 42
100.0
 43
100.0
 50
90.0
  0
INSERT
  5
B6EC
330
1F
100
AcDbEntity
  8
MP Annotation (00134142)
 48
5.0
100
AcDbBlockReference
  2
tick1
 10
8008.561822781087
 20
3762.328428180409
 30
0.0
 41
100.0
 42
100.0
 43
100.0
 50
270.0
  0
MTEXT
  5
B6ED
330
1F
100
AcDbEntity
  8
MP Annotation (00134142)
 48
5.0
100
AcDbMText
 10
8008.561822781087
 20
3562.328428180409
 30
0.0
 40
100.0
 41
0.0
 46
0.0
 71
     5
 72
     1
  1
\A1;400
  7
2mm
 11
0.9999999998476914
 21
0.0000174532925191
 31
0.0
 73
     1
 44
1.0
  0
LINE
  5
B6EE
330
1F
100
AcDbEntity
  8
MP Annotation (00134142)
100
AcDbLine
 10
7642.270562076477
 20
3162.328428180411
 30
0.0
 11
7692.270562076477
 21
3162.328428180411
 31
0.0
  0
LINE
  5
B6EF
330
1F
100
AcDbEntity
  8
MP Annotation (00134142)
100
AcDbLine
 10
7642.270562076477
 20
3362.328428180409
 30
0.0
 11
7692.270562076477
 21
3362.328428180409
 31
0.0
  0
LINE
  5
B6F0
330
1F
100
AcDbEntity
  8
MP Annotation (00134142)
100
AcDbLine
 10
7692.270562076477
 20
3062.328428180411
 30
0.0
 11
7692.270562076477
 21
2962.328428180411
 31
0.0
  0
LINE
  5
B6F1
330
1F
100
AcDbEntity
  8
MP Annotation (00134142)
100
AcDbLine
 10
7692.270562076477
 20
3462.328428180409
 30
0.0
 11
7692.270562076477
 21
3562.328428180409
 31
0.0
  0
INSERT
  5
B6F2
330
1F
100
AcDbEntity
  8
MP Annotation (00134142)
100
AcDbBlockReference
  2
tick1
 10
7692.270562076477
 20
3162.328428180411
 30
0.0
 41
100.0
 42
100.0
 43
100.0
 50
90.0
  0
INSERT
  5
B6F3
330
1F
100
AcDbEntity
  8
MP Annotation (00134142)
100
AcDbBlockReference
  2
tick1
 10
7692.270562076477
 20
3362.328428180409
 30
0.0
 41
100.0
 42
100.0
 43
100.0
 50
270.0
  0
MTEXT
  5
B6F4
330
1F
100
AcDbEntity
  8
MP Annotation (00134142)
100
AcDbMText
 10
7692.270562076476
 20
3262.32842818041
 30
0.0
 40
100.0
 41
0.0
 46
0.0
 71
     5
 72
     1
  1
\A1;200
  7
2mm
 11
0.9999999998476914
 21
0.0000174532925191
 31
0.0
 73
     1
 44
1.0
  0
LINE
  5
B6F5
330
1F
100
AcDbEntity
  8
MP Annotation (00134142)
100
AcDbLine
 10
7958.561822781089
 20
2762.328428180409
 30
0.0
 11
8008.561822781087
 21
2762.328428180409
 31
0.0
  0
LINE
  5
B6F6
330
1F
100
AcDbEntity
  8
MP Annotation (00134142)
100
AcDbLine
 10
7958.561822781089
 20
3162.328428180411
 30
0.0
 11
8008.561822781087
 21
3162.328428180411
 31
0.0
  0
LINE
  5
B6F7
330
1F
100
AcDbEntity
  8
MP Annotation (00134142)
100
AcDbLine
 10
8008.561822781087
 20
2662.328428180409
 30
0.0
 11
8008.561822781087
 21
2562.328428180409
 31
0.0
  0
LINE
  5
B6F8
330
1F
100
AcDbEntity
  8
MP Annotation (00134142)
100
AcDbLine
 10
8008.561822781087
 20
3262.32842818041
 30
0.0
 11
8008.561822781087
 21
3362.32842818041
 31
0.0
  0
INSERT
  5
B6F9
330
1F
100
AcDbEntity
  8
MP Annotation (00134142)
100
AcDbBlockReference
  2
tick1
 10
8008.561822781087
 20
2762.328428180409
 30
0.0
 41
100.0
 42
100.0
 43
100.0
 50
90.0
  0
INSERT
  5
B6FA
330
1F
100
AcDbEntity
  8
MP Annotation (00134142)
100
AcDbBlockReference
  2
tick1
 10
8008.561822781087
 20
3162.328428180411
 30
0.0
 41
100.0
 42
100.0
 43
100.0
 50
270.0
  0
MTEXT
  5
B6FB
330
1F
100
AcDbEntity
  8
MP Annotation (00134142)
100
AcDbMText
 10
8008.561822781087
 20
2962.328428180409
 30
0.0
 40
100.0
 41
0.0
 46
0.0
 71
     5
 72
     1
  1
\A1;400
  7
2mm
 11
0.9999999998476914
 21
0.0000174532925191
 31
0.0
 73
     1
 44
1.0
  0
LINE
  5
B6FC
330
1F
100
AcDbEntity
  8
MP Annotation (00134142)
100
AcDbLine
 10
7642.270562076477
 20
2562.328428180409
 30
0.0
 11
7692.270562076477
 21
2562.328428180409
 31
0.0
  0
LINE
  5
B6FD
330
1F
100
AcDbEntity
  8
MP Annotation (00134142)
100
AcDbLine
 10
7642.270562076477
 20
2762.328428180409
 30
0.0
 11
7692.270562076477
 21
2762.328428180409
 31
0.0
  0
LINE
  5
B6FE
330
1F
100
AcDbEntity
  8
MP Annotation (00134142)
100
AcDbLine
 10
7692.270562076477
 20
2462.328428180409
 30
0.0
 11
7692.270562076477
 21
2362.328428180409
 31
0.0
  0
LINE
  5
B6FF
330
1F
100
AcDbEntity
  8
MP Annotation (00134142)
100
AcDbLine
 10
7692.270562076477
 20
2862.328428180409
 30
0.0
 11
7692.270562076477
 21
2962.328428180409
 31
0.0
  0
INSERT
  5
B700
330
1F
100
AcDbEntity
  8
MP Annotation (00134142)
100
AcDbBlockReference
  2
tick1
 10
7692.270562076477
 20
2562.328428180409
 30
0.0
 41
100.0
 42
100.0
 43
100.0
 50
90.0
  0
INSERT
  5
B701
330
1F
100
AcDbEntity
  8
MP Annotation (00134142)
100
AcDbBlockReference
  2
tick1
 10
7692.270562076477
 20
2762.328428180409
 30
0.0
 41
100.0
 42
100.0
 43
100.0
 50
270.0
  0
MTEXT
  5
B702
330
1F
100
AcDbEntity
  8
MP Annotation (00134142)
100
AcDbMText
 10
7692.270562076476
 20
2662.328428180411
 30
0.0
 40
100.0
 41
0.0
 46
0.0
 71
     5
 72
     1
  1
\A1;200
  7
2mm
 11
0.9999999998476914
 21
0.0000174532925191
 31
0.0
 73
     1
 44
1.0
  0
LINE
  5
B703
330
1F
100
AcDbEntity
  8
MP Annotation (00134142)
100
AcDbLine
 10
7958.561822781089
 20
2162.32842818041
 30
0.0
 11
8008.561822781089
 21
2162.32842818041
 31
0.0
  0
LINE
  5
B704
330
1F
100
AcDbEntity
  8
MP Annotation (00134142)
100
AcDbLine
 10
7958.561822781089
 20
2562.328428180409
 30
0.0
 11
8008.561822781089
 21
2562.328428180409
 31
0.0
  0
LINE
  5
B705
330
1F
100
AcDbEntity
  8
MP Annotation (00134142)
100
AcDbLine
 10
8008.561822781089
 20
2062.328428180411
 30
0.0
 11
8008.561822781089
 21
1962.328428180409
 31
0.0
  0
LINE
  5
B706
330
1F
100
AcDbEntity
  8
MP Annotation (00134142)
100
AcDbLine
 10
8008.561822781089
 20
2662.328428180409
 30
0.0
 11
8008.561822781089
 21
2762.328428180409
 31
0.0
  0
INSERT
  5
B707
330
1F
100
AcDbEntity
  8
MP Annotation (00134142)
100
AcDbBlockReference
  2
tick1
 10
8008.561822781089
 20
2162.32842818041
 30
0.0
 41
100.0
 42
100.0
 43
100.0
 50
90.0
  0
INSERT
  5
B708
330
1F
100
AcDbEntity
  8
MP Annotation (00134142)
100
AcDbBlockReference
  2
tick1
 10
8008.561822781089
 20
2562.328428180409
 30
0.0
 41
100.0
 42
100.0
 43
100.0
 50
270.0
  0
MTEXT
  5
B709
330
1F
100
AcDbEntity
  8
MP Annotation (00134142)
100
AcDbMText
 10
8008.561822781089
 20
2349.828428180409
 30
0.0
 40
100.0
 41
0.0
 46
0.0
 71
     5
 72
     1
  1
\A1;400
  7
2mm
 11
0.9999999998476914
 21
0.0000174532925191
 31
0.0
 73
     1
 44
1.0
  0
LINE
  5
B70A
330
1F
100
AcDbEntity
  8
MP Annotation (00134142)
100
AcDbLine
 10
7642.270562076475
 20
1962.328428180409
 30
0.0
 11
7692.270562076474
 21
1962.328428180409
 31
0.0
  0
LINE
  5
B70B
330
1F
100
AcDbEntity
  8
MP Annotation (00134142)
100
AcDbLine
 10
7642.270562076475
 20
2162.32842818041
 30
0.0
 11
7692.270562076474
 21
2162.32842818041
 31
0.0
  0
LINE
  5
B70C
330
1F
100
AcDbEntity
  8
MP Annotation (00134142)
100
AcDbLine
 10
7692.270562076474
 20
1862.32842818041
 30
0.0
 11
7692.270562076474
 21
1762.328428180409
 31
0.0
  0
LINE
  5
B70D
330
1F
100
AcDbEntity
  8
MP Annotation (00134142)
100
AcDbLine
 10
7692.270562076474
 20
2262.32842818041
 30
0.0
 11
7692.270562076474
 21
2362.32842818041
 31
0.0
  0
INSERT
  5
B70E
330
1F
100
AcDbEntity
  8
MP Annotation (00134142)
100
AcDbBlockReference
  2
tick1
 10
7692.270562076474
 20
1962.328428180409
 30
0.0
 41
100.0
 42
100.0
 43
100.0
 50
90.0
  0
INSERT
  5
B70F
330
1F
100
AcDbEntity
  8
MP Annotation (00134142)
100
AcDbBlockReference
  2
tick1
 10
7692.270562076474
 20
2162.32842818041
 30
0.0
 41
100.0
 42
100.0
 43
100.0
 50
270.0
  0
MTEXT
  5
B710
330
1F
100
AcDbEntity
  8
MP Annotation (00134142)
100
AcDbMText
 10
7692.270562076474
 20
2062.328428180411
 30
0.0
 40
100.0
 41
0.0
 46
0.0
 71
     5
 72
     1
  1
\A1;200
  7
2mm
 11
0.9999999998476914
 21
0.0000174532925191
 31
0.0
 73
     1
 44
1.0
  0
LINE
  5
B711
330
1F
100
AcDbEntity
  8
MP Annotation (00134142)
100
AcDbLine
 10
7958.561822781087
 20
1562.328428180409
 30
0.0
 11
8008.561822781087
 21
1562.328428180409
 31
0.0
  0
LINE
  5
B712
330
1F
100
AcDbEntity
  8
MP Annotation (00134142)
100
AcDbLine
 10
7958.561822781087
 20
1962.328428180409
 30
0.0
 11
8008.561822781087
 21
1962.328428180409
 31
0.0
  0
LINE
  5
B713
330
1F
100
AcDbEntity
  8
MP Annotation (00134142)
100
AcDbLine
 10
8008.561822781087
 20
1462.328428180409
 30
0.0
 11
8008.561822781087
 21
1362.328428180409
 31
0.0
  0
LINE
  5
B714
330
1F
100
AcDbEntity
  8
MP Annotation (00134142)
100
AcDbLine
 10
8008.561822781087
 20
2062.328428180411
 30
0.0
 11
8008.561822781087
 21
2162.32842818041
 31
0.0
  0
INSERT
  5
B715
330
1F
100
AcDbEntity
  8
MP Annotation (00134142)
100
AcDbBlockReference
  2
tick1
 10
8008.561822781087
 20
1562.328428180409
 30
0.0
 41
100.0
 42
100.0
 43
100.0
 50
90.0
  0
INSERT
  5
B716
330
1F
100
AcDbEntity
  8
MP Annotation (00134142)
100
AcDbBlockReference
  2
tick1
 10
8008.561822781087
 20
1962.328428180409
 30
0.0
 41
100.0
 42
100.0
 43
100.0
 50
270.0
  0
MTEXT
  5
B717
330
1F
100
AcDbEntity
  8
MP Annotation (00134142)
100
AcDbMText
 10
8008.561822781087
 20
1762.328428180409
 30
0.0
 40
100.0
 41
0.0
 46
0.0
 71
     5
 72
     1
  1
\A1;400
  7
2mm
 11
0.9999999998476914
 21
0.0000174532925191
 31
0.0
 73
     1
 44
1.0
  0
LINE
  5
B718
330
1F
100
AcDbEntity
  8
MP Annotation (00134142)
100
AcDbLine
 10
7642.270562076475
 20
1362.32842818041
 30
0.0
 11
7692.270562076474
 21
1362.328428180409
 31
0.0
  0
LINE
  5
B719
330
1F
100
AcDbEntity
  8
MP Annotation (00134142)
100
AcDbLine
 10
7642.270562076475
 20
1562.32842818041
 30
0.0
 11
7692.270562076474
 21
1562.328428180409
 31
0.0
  0
LINE
  5
B71A
330
1F
100
AcDbEntity
  8
MP Annotation (00134142)
100
AcDbLine
 10
7692.270562076474
 20
1262.328428180409
 30
0.0
 11
7692.270562076474
 21
1162.328428180409
 31
0.0
  0
LINE
  5
B71B
330
1F
100
AcDbEntity
  8
MP Annotation (00134142)
100
AcDbLine
 10
7692.270562076474
 20
1662.32842818041
 30
0.0
 11
7692.270562076474
 21
1762.328428180409
 31
0.0
  0
INSERT
  5
B71C
330
1F
100
AcDbEntity
  8
MP Annotation (00134142)
100
AcDbBlockReference
  2
tick1
 10
7692.270562076474
 20
1362.328428180409
 30
0.0
 41
100.0
 42
100.0
 43
100.0
 50
90.0
  0
INSERT
  5
B71D
330
1F
100
AcDbEntity
  8
MP Annotation (00134142)
100
AcDbBlockReference
  2
tick1
 10
7692.270562076474
 20
1562.328428180409
 30
0.0
 41
100.0
 42
100.0
 43
100.0
 50
270.0
  0
MTEXT
  5
B71E
330
1F
100
AcDbEntity
  8
MP Annotation (00134142)
100
AcDbMText
 10
7692.270562076474
 20
1462.328428180411
 30
0.0
 40
100.0
 41
0.0
 46
0.0
 71
     5
 72
     1
  1
\A1;200
  7
2mm
 11
0.9999999998476914
 21
0.0000174532925191
 31
0.0
 73
     1
 44
1.0
  0
LINE
  5
B71F
330
1F
100
AcDbEntity
  8
MP Annotation (00134142)
100
AcDbLine
 10
7958.561822781085
 20
1062.328428180409
 30
0.0
 11
8008.561822781087
 21
1062.328428180409
 31
0.0
  0
LINE
  5
B720
330
1F
100
AcDbEntity
  8
MP Annotation (00134142)
100
AcDbLine
 10
7958.561822781085
 20
1362.328428180409
 30
0.0
 11
8008.561822781087
 21
1362.328428180409
 31
0.0
  0
LINE
  5
B721
330
1F
100
AcDbEntity
  8
MP Annotation (00134142)
100
AcDbLine
 10
8008.561822781087
 20
962.3284281804087
 30
0.0
 11
8008.561822781087
 21
862.3284281804089
 31
0.0
  0
LINE
  5
B722
330
1F
100
AcDbEntity
  8
MP Annotation (00134142)
100
AcDbLine
 10
8008.561822781087
 20
1462.328428180409
 30
0.0
 11
8008.561822781087
 21
1562.328428180409
 31
0.0
  0
INSERT
  5
B723
330
1F
100
AcDbEntity
  8
MP Annotation (00134142)
100
AcDbBlockReference
  2
tick1
 10
8008.561822781087
 20
1062.328428180409
 30
0.0
 41
100.0
 42
100.0
 43
100.0
 50
90.0
  0
INSERT
  5
B724
330
1F
100
AcDbEntity
  8
MP Annotation (00134142)
100
AcDbBlockReference
  2
tick1
 10
8008.561822781087
 20
1362.328428180409
 30
0.0
 41
100.0
 42
100.0
 43
100.0
 50
270.0
  0
MTEXT
  5
B725
330
1F
100
AcDbEntity
  8
MP Annotation (00134142)
100
AcDbMText
 10
8008.561822781087
 20
1212.328428180411
 30
0.0
 40
100.0
 41
0.0
 46
0.0
 71
     5
 72
     1
  1
\A1;300
  7
2mm
 11
0.9999999998476914
 21
0.0000174532925191
 31
0.0
 73
     1
 44
1.0
  0
LINE
  5
B726
330
1F
100
AcDbEntity
  8
MP Annotation (00134142)
100
AcDbLine
 10
3351.133602909987
 20
-248.2232661965631
 30
0.0
 11
3351.133602909987
 21
-298.2232661965631
 31
0.0
  0
LINE
  5
B727
330
1F
100
AcDbEntity
  8
MP Annotation (00134142)
100
AcDbLine
 10
3951.133602909985
 20
-248.2232661965631
 30
0.0
 11
3951.133602909985
 21
-298.2232661965631
 31
0.0
  0
LINE
  5
B728
330
1F
100
AcDbEntity
  8
MP Annotation (00134142)
100
AcDbLine
 10
3451.133602909987
 20
-298.2232661965631
 30
0.0
 11
3851.133602909985
 21
-298.2232661965631
 31
0.0
  0
INSERT
  5
B729
330
1F
100
AcDbEntity
  8
MP Annotation (00134142)
100
AcDbBlockReference
  2
tick1
 10
3351.133602909987
 20
-298.2232661965631
 30
0.0
 41
100.0
 42
100.0
 43
100.0
 50
180.0
  0
INSERT
  5
B72A
330
1F
100
AcDbEntity
  8
MP Annotation (00134142)
100
AcDbBlockReference
  2
tick1
 10
3951.133602909985
 20
-298.2232661965631
 30
0.0
 41
100.0
 42
100.0
 43
100.0
  0
MTEXT
  5
B72B
330
1F
100
AcDbEntity
  8
MP Annotation (00134142)
100
AcDbMText
 10
3651.133602909985
 20
-29.68074686959631
 30
0.0
 40
100.0
 41
0.0
 46
0.0
 71
     5
 72
     1
  1
\A1;600\PCentres\PMax
  7
2mm
 73
     1
 44
1.0
  0
SPLINE
  5
B833
102
{ACAD_REACTORS
330
B906
102
}
330
1F
100
AcDbEntity
  8
0
 62
     7
100
AcDbSpline
210
0.0
220
0.0
230
1.0
 70
     8
 71
     3
 72
    13
 73
     9
 74
     0
 42
0.0000000001
 43
0.0000000001
 40
0.0
 40
0.0
 40
0.0
 40
0.0
 40
48.79898777989121
 40
97.59797576472022
 40
170.2627541910372
 40
242.9275326173485
 40
766.6000885240379
 40
1563.293521579884
 40
1563.293521579884
 40
1563.293521579884
 40
1563.293521579884
 10
1785.504105292544
 20
-7443.757453260914
 30
0.0
 10
1790.384004070532
 20
-7443.757453260914
 30
0.0
 10
1800.506573095887
 20
-7444.322522812878
 30
0.0
 10
1815.411610426743
 20
-7434.624328495576
 30
0.0
 10
1827.415677162333
 20
-7418.980778580823
 30
0.0
 10
1849.815104907942
 20
-7355.435097233776
 30
0.0
 10
1858.755772428749
 20
-7213.698750234158
 30
0.0
 10
1838.891619730866
 20
-7083.664964542125
 30
0.0
 10
1829.029503118176
 20
-7004.409251662226
 30
0.0
  0
SPLINE
  5
B834
102
{ACAD_REACTORS
330
B906
102
}
330
1F
100
AcDbEntity
  8
0
 62
     7
100
AcDbSpline
210
0.0
220
0.0
230
1.0
 70
     8
 71
     3
 72
    12
 73
     8
 74
     0
 42
0.0000000001
 43
0.0000000001
 40
1667.061627962185
 40
1667.061627962185
 40
1667.061627962185
 40
1667.061627962185
 40
1668.070810470324
 40
2424.63155733053
 40
2817.885458966713
 40
2947.261689699971
 40
3036.776312537723
 40
3036.776312537723
 40
3036.776312537723
 40
3036.776312537723
 10
1825.311498807257
 20
-6973.394768267116
 30
0.0
 10
1825.299974441528
 20
-6973.294060894374
 30
0.0
 10
1816.653409886503
 20
-6897.694041013775
 30
0.0
 10
1808.682847335618
 20
-6781.331354777005
 30
0.0
 10
1829.592221613078
 20
-6656.236094185641
 30
0.0
 10
1849.398082548021
 20
-6595.76607800234
 30
0.0
 10
1871.416474576645
 20
-6584.295517012979
 30
0.0
 10
1880.367936860421
 20
-6584.295517012979
 30
0.0
  0
LINE
  5
B835
102
{ACAD_REACTORS
330
B906
102
}
330
1F
100
AcDbEntity
  8
0
100
AcDbLine
 10
1849.127237627215
 20
-6986.805499248657
 30
0.0
 11
1829.029503118172
 21
-7004.409251662227
 31
0.0
  0
LINE
  5
B836
102
{ACAD_REACTORS
330
B906
102
}
330
1F
100
AcDbEntity
  8
0
100
AcDbLine
 10
1825.698657987541
 20
-6973.055652714002
 30
0.0
 11
1805.143588393541
 21
-6991.059988268026
 31
0.0
  0
LINE
  5
B837
102
{ACAD_REACTORS
330
B906
102
}
330
1F
100
AcDbEntity
  8
0
100
AcDbLine
 10
1849.127237627215
 20
-6986.805499248657
 30
0.0
 11
1805.143588393541
 21
-6991.059988268026
 31
0.0
  0
SPLINE
  5
B83C
330
1F
100
AcDbEntity
  8
0
 62
     7
100
AcDbSpline
210
0.0
220
0.0
230
1.0
 70
     8
 71
     3
 72
    13
 73
     9
 74
     0
 42
0.0000000001
 43
0.0000000001
 40
0.0
 40
0.0
 40
0.0
 40
0.0
 40
48.79898777989121
 40
97.59797576472022
 40
170.2627541910372
 40
242.9275326173485
 40
766.6000885240379
 40
1563.293521579884
 40
1563.293521579884
 40
1563.293521579884
 40
1563.293521579884
 10
1804.283540936165
 20
-6584.715475687652
 30
0.0
 10
1799.403642158177
 20
-6584.715475687652
 30
0.0
 10
1789.281073132823
 20
-6584.150406135687
 30
0.0
 10
1774.376035801968
 20
-6593.84860045299
 30
0.0
 10
1762.371969066376
 20
-6609.492150367744
 30
0.0
 10
1739.972541320767
 20
-6673.03783171479
 30
0.0
 10
1731.031873799962
 20
-6814.774178714408
 30
0.0
 10
1750.896026497845
 20
-6944.807964406442
 30
0.0
 10
1760.758143110534
 20
-7024.063677286339
 30
0.0
  0
SPLINE
  5
B83D
330
1F
100
AcDbEntity
  8
0
 62
     7
100
AcDbSpline
210
0.0
220
0.0
230
1.0
 70
     8
 71
     3
 72
    12
 73
     8
 74
     0
 42
0.0000000001
 43
0.0000000001
 40
1667.061627962185
 40
1667.061627962185
 40
1667.061627962185
 40
1667.061627962185
 40
1668.070810470324
 40
2424.63155733053
 40
2817.885458966713
 40
2947.261689699971
 40
3036.776312537723
 40
3036.776312537723
 40
3036.776312537723
 40
3036.776312537723
 10
1764.476147421452
 20
-7055.07816068145
 30
0.0
 10
1764.487671787181
 20
-7055.17886805419
 30
0.0
 10
1773.134236342206
 20
-7130.778887934789
 30
0.0
 10
1781.104798893093
 20
-7247.141574171561
 30
0.0
 10
1760.195424615633
 20
-7372.236834762924
 30
0.0
 10
1740.389563680688
 20
-7432.706850946226
 30
0.0
 10
1718.371171652065
 20
-7444.177411935587
 30
0.0
 10
1709.419709368289
 20
-7444.177411935587
 30
0.0
  0
LINE
  5
B83E
330
1F
100
AcDbEntity
  8
0
100
AcDbLine
 10
1740.660408601494
 20
-7041.66742969991
 30
0.0
 11
1760.758143110537
 21
-7024.063677286339
 31
0.0
  0
LINE
  5
B83F
330
1F
100
AcDbEntity
  8
0
100
AcDbLine
 10
1764.088988241168
 20
-7055.417276234563
 30
0.0
 11
1784.644057835168
 21
-7037.412940680539
 31
0.0
  0
LINE
  5
B840
330
1F
100
AcDbEntity
  8
0
100
AcDbLine
 10
1740.660408601494
 20
-7041.66742969991
 30
0.0
 11
1784.644057835168
 21
-7037.412940680539
 31
0.0
  0
LINE
  5
B841
330
1F
100
AcDbEntity
  8
MP Annotation (00134142)
100
AcDbLine
 10
1841.231548862863
 20
-6621.635090348225
 30
0.0
 11
2131.59572259467
 21
-6621.635090348225
 31
0.0
  0
LINE
  5
B8D4
330
1F
100
AcDbEntity
  8
MP Panel Perimeter (00134148)
100
AcDbLine
 10
1746.74131463673
 20
-7411.996047635941
 30
0.0
 11
1161.405289172475
 21
-7411.996047635941
 31
0.0
  0
LINE
  5
B8D5
102
{ACAD_REACTORS
330
B906
102
}
330
1F
100
AcDbEntity
  8
MP Panel Perimeter (00134148)
100
AcDbLine
 10
1814.953221533444
 20
-6811.996047635941
 30
0.0
 11
2194.09572259467
 21
-6811.996047635941
 31
0.0
  0
HATCH
  5
B906
330
1F
100
AcDbEntity
  8
MP Panel Hatch (00134149)
370
     5
100
AcDbHatch
 10
0.0
 20
0.0
 30
0.0
210
0.0
220
0.0
230
1.0
  2
DOTS
 70
     0
 71
     1
 91
        1
 92
        5
 93
        8
 72
     1
 10
2194.09572259467
 20
-6811.996047635941
 11
1814.953221533444
 21
-6811.996047635941
 72
     4
 94
        3
 73
     0
 74
     0
 95
        9
 96
        5
 40
1667.061627962185
 40
1667.061627962185
 40
1667.061627962185
 40
1667.061627962185
 40
2203.28783623642
 40
2204.29701874456
 40
2204.29701874456
 40
2204.29701874456
 40
2204.29701874456
 10
1814.953221533444
 20
-6811.996047635942
 10
1814.746144513923
 20
-6865.566829104586
 10
1819.168209824739
 20
-6919.681840227733
 10
1825.299974441528
 20
-6973.294060894374
 10
1825.311498807257
 20
-6973.394768267116
 72
     1
 10
1825.311498807258
 20
-6973.394768267116
 11
1805.143588393541
 21
-6991.059988268026
 72
     1
 10
1805.143588393541
 20
-6991.059988268026
 11
1849.127237627214
 21
-6986.805499248657
 72
     1
 10
1849.127237627214
 20
-6986.805499248657
 11
1829.029503118176
 21
-7004.409251662224
 72
     4
 94
        3
 73
     0
 74
     0
 95
       10
 96
        6
 40
194.2134599861106
 40
194.2134599861106
 40
194.2134599861106
 40
194.2134599861106
 40
990.9068930419568
 40
1514.579448948646
 40
1563.293521579884
 40
1563.293521579884
 40
1563.293521579884
 40
1563.293521579884
 10
1829.029503118176
 20
-7004.409251662226
 10
1838.891619730866
 20
-7083.664964542125
 10
1858.755772428749
 20
-7213.698750234158
 10
1849.968823908567
 20
-7352.998190866073
 10
1831.426422672934
 20
-7407.522202487895
 10
1829.502455902728
 20
-7411.996047635939
 72
     1
 10
1829.502455902727
 20
-7411.996047635941
 11
2194.095722594669
 21
-7411.996047635941
 72
     1
 10
2194.095722594669
 20
-7411.996047635941
 11
2194.09572259467
 21
-6811.996047635941
 97
        8
330
B8D5
330
B834
330
B836
330
B837
330
B835
330
B833
330
A9FE
330
A9FD
 75
     0
 76
     1
 52
0.0
 41
500.0
 77
     0
 78
     1
 53
0.0
 43
1805.143588393543
 44
-7411.996047635939
 45
15.625
 46
31.25
 79
     2
 49
0.0
 49
-31.25
 47
3.157713027961704
 98
        1
 10
2056.030477543518
 20
-7022.575324064165
1001
ACAD
1010
0.0
1020
0.0
1030
0.0
  0
SPLINE
  5
B919
330
1F
100
AcDbEntity
  8
0
 62
     7
100
AcDbSpline
210
0.0
220
0.0
230
1.0
 70
     8
 71
     3
 72
    13
 73
     9
 74
     0
 42
0.0000000001
 43
0.0000000001
 40
0.0
 40
0.0
 40
0.0
 40
0.0
 40
48.79898777989121
 40
97.59797576472022
 40
170.2627541910372
 40
242.9275326173485
 40
766.6000885240379
 40
1563.293521579884
 40
1563.293521579884
 40
1563.293521579884
 40
1563.293521579884
 10
4733.084525701113
 20
-6935.019352504491
 30
0.0
 10
4735.5244750901
 20
-6935.019352504491
 30
0.0
 10
4740.585759602767
 20
-6934.73681772851
 30
0.0
 10
4748.038278268175
 20
-6939.58591488715
 30
0.0
 10
4754.040311635955
 20
-6947.407689844507
 30
0.0
 10
4765.240025508734
 20
-6979.180530517954
 30
0.0
 10
4769.710359269125
 20
-7050.048704017591
 30
0.0
 10
4759.778282920207
 20
-7115.065596863449
 30
0.0
 10
4754.847224613877
 20
-7154.693453303302
 30
0.0
  0
SPLINE
  5
B91A
330
1F
100
AcDbEntity
  8
0
 62
     7
100
AcDbSpline
210
0.0
220
0.0
230
1.0
 70
     8
 71
     3
 72
    12
 73
     8
 74
     0
 42
0.0000000001
 43
0.0000000001
 40
1667.061627962185
 40
1667.061627962185
 40
1667.061627962185
 40
1667.061627962185
 40
1668.070810470324
 40
2424.63155733053
 40
2817.885458966713
 40
2947.261689699971
 40
3036.776312537723
 40
3036.776312537723
 40
3036.776312537723
 40
3036.776312537723
 10
4752.988222458422
 20
-7170.200695000819
 30
0.0
 10
4752.982460275556
 20
-7170.25104868719
 30
0.0
 10
4748.659177998056
 20
-7208.051058627399
 30
0.0
 10
4744.673896722621
 20
-7266.232401745643
 30
0.0
 10
4755.128583861326
 20
-7328.780032041173
 30
0.0
 10
4765.031514328773
 20
-7359.01504013275
 30
0.0
 10
4776.040710343059
 20
-7364.750320627416
 30
0.0
 10
4780.516441484935
 20
-7364.750320627416
 30
0.0
  0
LINE
  5
B91B
330
1F
100
AcDbEntity
  8
0
100
AcDbLine
 10
4764.896091868371
 20
-7163.495329510067
 30
0.0
 11
4754.847224613873
 21
-7154.693453303302
 31
0.0
  0
LINE
  5
B91C
330
1F
100
AcDbEntity
  8
0
100
AcDbLine
 10
4753.181802048562
 20
-7170.370252777377
 30
0.0
 11
4742.904267251588
 21
-7161.368085000387
 31
0.0
  0
LINE
  5
B91D
330
1F
100
AcDbEntity
  8
0
100
AcDbLine
 10
4764.896091868371
 20
-7163.495329510067
 30
0.0
 11
4742.904267251588
 21
-7161.368085000387
 31
0.0
  0
SPLINE
  5
B922
330
1F
100
AcDbEntity
  8
0
 62
     7
100
AcDbSpline
210
0.0
220
0.0
230
1.0
 70
     8
 71
     3
 72
    13
 73
     9
 74
     0
 42
0.0000000001
 43
0.0000000001
 40
0.0
 40
0.0
 40
0.0
 40
0.0
 40
48.79898777989121
 40
97.59797576472022
 40
170.2627541910372
 40
242.9275326173485
 40
766.6000885240379
 40
1563.293521579884
 40
1563.293521579884
 40
1563.293521579884
 40
1563.293521579884
 10
4746.032934698243
 20
-7364.540341296458
 30
0.0
 10
4743.592985309256
 20
-7364.540341296458
 30
0.0
 10
4738.531700796589
 20
-7364.822876072439
 30
0.0
 10
4731.079182131181
 20
-7359.973778913801
 30
0.0
 10
4725.077148763401
 20
-7352.152003956442
 30
0.0
 10
4713.877434890622
 20
-7320.379163282996
 30
0.0
 10
4709.40710113023
 20
-7249.510989783359
 30
0.0
 10
4719.339177479149
 20
-7184.494096937498
 30
0.0
 10
4724.270235785479
 20
-7144.866240497647
 30
0.0
  0
SPLINE
  5
B923
330
1F
100
AcDbEntity
  8
0
 62
     7
100
AcDbSpline
210
0.0
220
0.0
230
1.0
 70
     8
 71
     3
 72
    12
 73
     8
 74
     0
 42
0.0000000001
 43
0.0000000001
 40
1667.061627962185
 40
1667.061627962185
 40
1667.061627962185
 40
1667.061627962185
 40
1668.070810470324
 40
2424.63155733053
 40
2817.885458966713
 40
2947.261689699971
 40
3036.776312537723
 40
3036.776312537723
 40
3036.776312537723
 40
3036.776312537723
 10
4726.129237940935
 20
-7129.35899880013
 30
0.0
 10
4726.1350001238
 20
-7129.308645113758
 30
0.0
 10
4730.458282401301
 20
-7091.508635173551
 30
0.0
 10
4734.443563676736
 20
-7033.327292055307
 30
0.0
 10
4723.988876538031
 20
-6970.779661759777
 30
0.0
 10
4714.085946070583
 20
-6940.544653668199
 30
0.0
 10
4703.076750056298
 20
-6934.809373173533
 30
0.0
 10
4698.601018914422
 20
-6934.809373173533
 30
0.0
  0
LINE
  5
B924
330
1F
100
AcDbEntity
  8
0
100
AcDbLine
 10
4714.221368530985
 20
-7136.064364290882
 30
0.0
 11
4724.270235785483
 21
-7144.866240497647
 31
0.0
  0
LINE
  5
B925
330
1F
100
AcDbEntity
  8
0
100
AcDbLine
 10
4725.935658350794
 20
-7129.189441023573
 30
0.0
 11
4736.213193147769
 21
-7138.191608800562
 31
0.0
  0
LINE
  5
B926
330
1F
100
AcDbEntity
  8
0
100
AcDbLine
 10
4714.221368530985
 20
-7136.064364290882
 30
0.0
 11
4736.213193147769
 21
-7138.191608800562
 31
0.0
  0
SPLINE
  5
B92B
330
1F
100
AcDbEntity
  8
0
 62
     7
100
AcDbSpline
210
0.0
220
0.0
230
1.0
 70
     8
 71
     3
 72
    13
 73
     9
 74
     0
 42
0.0000000001
 43
0.0000000001
 40
0.0
 40
0.0
 40
0.0
 40
0.0
 40
48.79898777989121
 40
97.59797576472022
 40
170.2627541910372
 40
242.9275326173485
 40
766.6000885240379
 40
1563.293521579884
 40
1563.293521579884
 40
1563.293521579884
 40
1563.293521579884
 10
5191.40939117059
 20
-6507.346779411179
 30
0.0
 10
5191.40939117059
 20
-6509.176741452924
 30
0.0
 10
5191.197490088601
 20
-6512.972704837432
 30
0.0
 10
5194.834312957592
 20
-6518.562093836504
 30
0.0
 10
5200.700644175624
 20
-6523.063618862349
 30
0.0
 10
5224.530274680766
 20
-6531.463404266952
 30
0.0
 10
5277.681404805623
 20
-6534.816154587254
 30
0.0
 10
5326.444074440135
 20
-6527.367097325549
 30
0.0
 10
5356.164966770097
 20
-6523.668803595791
 30
0.0
  0
SPLINE
  5
B92C
330
1F
100
AcDbEntity
  8
0
 62
     7
100
AcDbSpline
210
0.0
220
0.0
230
1.0
 70
     8
 71
     3
 72
    12
 73
     8
 74
     0
 42
0.0000000001
 43
0.0000000001
 40
1667.061627962185
 40
1667.061627962185
 40
1667.061627962185
 40
1667.061627962185
 40
1668.070810470324
 40
2424.63155733053
 40
2817.885458966713
 40
2947.261689699971
 40
3036.776312537723
 40
3036.776312537723
 40
3036.776312537723
 40
3036.776312537723
 10
5367.795398043263
 20
-6522.274551979196
 30
0.0
 10
5367.833163308041
 20
-6522.270230342048
 30
0.0
 10
5396.183170763266
 20
-6519.027768633913
 30
0.0
 10
5439.819178102054
 20
-6516.03880767733
 30
0.0
 10
5486.729900823817
 20
-6523.879823031378
 30
0.0
 10
5509.406156892554
 20
-6531.307020881982
 30
0.0
 10
5513.707617263564
 20
-6539.563917892715
 30
0.0
 10
5513.707617263564
 20
-6542.920716249131
 30
0.0
  0
LINE
  5
B92D
330
1F
100
AcDbEntity
  8
0
100
AcDbLine
 10
5362.766373925186
 20
-6531.20545403668
 30
0.0
 11
5356.164966770097
 21
-6523.668803595788
 31
0.0
  0
LINE
  5
B92E
330
1F
100
AcDbEntity
  8
0
100
AcDbLine
 10
5367.922566375681
 20
-6522.419736671801
 30
0.0
 11
5361.170940542921
 21
-6514.711585574052
 31
0.0
  0
LINE
  5
B92F
330
1F
100
AcDbEntity
  8
0
100
AcDbLine
 10
5362.766373925186
 20
-6531.20545403668
 30
0.0
 11
5361.170940542921
 21
-6514.711585574052
 31
0.0
  0
SPLINE
  5
B934
330
1F
100
AcDbEntity
  8
0
 62
     7
100
AcDbSpline
210
0.0
220
0.0
230
1.0
 70
     8
 71
     3
 72
    13
 73
     9
 74
     0
 42
0.0000000001
 43
0.0000000001
 40
0.0
 40
0.0
 40
0.0
 40
0.0
 40
48.79898777989121
 40
97.59797576472022
 40
170.2627541910372
 40
242.9275326173485
 40
766.6000885240379
 40
1563.293521579884
 40
1563.293521579884
 40
1563.293521579884
 40
1563.293521579884
 10
5513.550132765335
 20
-6512.393483340187
 30
0.0
 10
5513.550132765335
 20
-6510.563521298442
 30
0.0
 10
5513.762033847322
 20
-6506.767557913935
 30
0.0
 10
5510.125210978333
 20
-6501.178168914863
 30
0.0
 10
5504.2588797603
 20
-6496.676643889017
 30
0.0
 10
5480.429249255157
 20
-6488.276858484413
 30
0.0
 10
5427.278119130302
 20
-6484.924108164111
 30
0.0
 10
5378.51544949579
 20
-6492.373165425817
 30
0.0
 10
5348.794557165827
 20
-6496.071459155576
 30
0.0
  0
SPLINE
  5
B935
330
1F
100
AcDbEntity
  8
0
 62
     7
100
AcDbSpline
210
0.0
220
0.0
230
1.0
 70
     8
 71
     3
 72
    12
 73
     8
 74
     0
 42
0.0000000001
 43
0.0000000001
 40
1667.061627962185
 40
1667.061627962185
 40
1667.061627962185
 40
1667.061627962185
 40
1668.070810470324
 40
2424.63155733053
 40
2817.885458966713
 40
2947.261689699971
 40
3036.776312537723
 40
3036.776312537723
 40
3036.776312537723
 40
3036.776312537723
 10
5337.164125892662
 20
-6497.465710772171
 30
0.0
 10
5337.126360627883
 20
-6497.470032409317
 30
0.0
 10
5308.776353172658
 20
-6500.712494117454
 30
0.0
 10
5265.14034583387
 20
-6503.701455074035
 30
0.0
 10
5218.229623112107
 20
-6495.860439719987
 30
0.0
 10
5195.553367043371
 20
-6488.433241869384
 30
0.0
 10
5191.251906672359
 20
-6480.17634485865
 30
0.0
 10
5191.251906672359
 20
-6476.819546502234
 30
0.0
  0
LINE
  5
B936
330
1F
100
AcDbEntity
  8
0
100
AcDbLine
 10
5342.193150010738
 20
-6488.534808714686
 30
0.0
 11
5348.794557165827
 21
-6496.071459155577
 31
0.0
  0
LINE
  5
B937
330
1F
100
AcDbEntity
  8
0
100
AcDbLine
 10
5337.036957560243
 20
-6497.320526079564
 30
0.0
 11
5343.788583393003
 21
-6505.028677177313
 31
0.0
  0
LINE
  5
B938
330
1F
100
AcDbEntity
  8
0
100
AcDbLine
 10
5342.193150010738
 20
-6488.534808714686
 30
0.0
 11
5343.788583393003
 21
-6505.028677177313
 31
0.0
  0
LINE
  5
B939
330
1F
100
AcDbEntity
  8
MP Panel Perimeter (00134148)
100
AcDbLine
 10
4729.285205272186
 20
-7009.161924782303
 30
0.0
 11
4464.425509806846
 21
-7009.161924782303
 31
0.0
  0
LINE
  5
B93A
330
1F
100
AcDbEntity
  8
MP Panel Perimeter (00134148)
100
AcDbLine
 10
4757.995243189369
 20
-6959.161924782303
 30
0.0
 11
5202.003471193609
 21
-6959.161924782303
 31
0.0
  0
LINE
  5
B93B
330
1F
100
AcDbEntity
  8
MP Panel Perimeter (00134148)
100
AcDbLine
 10
5252.00347119361
 20
-6532.429789103052
 30
0.0
 11
5252.00347119361
 21
-7009.161924782303
 31
0.0
  0
LINE
  5
B93C
330
1F
100
AcDbEntity
  8
MP Panel Perimeter (00134148)
100
AcDbLine
 10
5202.003471193609
 20
-6490.286828059916
 30
0.0
 11
5202.003471193609
 21
-6315.6988328993
 31
0.0
  0
LINE
  5
B93D
330
1F
100
AcDbEntity
  8
MP Annotation (00134142)
100
AcDbLine
 10
5485.456706102379
 20
-6491.097215195729
 30
0.0
 11
5485.456706102379
 21
-6365.698832899298
 31
0.0
  0
LINE
  5
B93E
330
1F
100
AcDbEntity
  8
MP Annotation (00134142)
100
AcDbLine
 10
4716.246191704772
 20
-7320.161547405523
 30
0.0
 11
4514.425509806846
 21
-7320.161547405523
 31
0.0
  0
VIEWPORT
  5
16C0
102
{ACAD_XDICTIONARY
360
16C1
102
}
330
16B9
100
AcDbEntity
 67
     1
  8
0
100
AcDbViewport
 10
128.7905261253402
 20
111.3944020003807
 30
0.0
 40
977.5568868174401
 41
465.5518959673655
 68
     1
 69
     1
 12
128.7905261253402
 22
111.3944020003807
 13
0.0
 23
0.0
 14
10.0
 24
10.0
 15
10.0
 25
10.0
 16
0.0
 26
0.0
 36
1.0
 17
0.0
 27
0.0
 37
0.0
 42
50.0
 43
0.0
 44
0.0
 45
465.5518959673655
 50
0.0
 51
0.0
 72
  1000
 90
   819200
  1

281
     0
 71
     0
 74
     0
110
0.0
120
0.0
130
0.0
111
1.0
121
0.0
131
0.0
112
0.0
122
1.0
132
0.0
 79
     0
146
0.0
170
     0
 61
     5
348
220
292
     1
282
     1
141
0.0
142
0.0
 63
   250
421
  3355443
  0
ENDSEC
  0
SECTION
  2
OBJECTS
  0
DICTIONARY
  5
C
330
0
100
AcDbDictionary
281
     1
  3
ACAD_BACKGROUND
350
83C
  3
ACAD_COLOR
350
EB
  3
ACAD_DWFDEFINITIONS
350
40F3
  3
ACAD_FIELDLIST
350
E70
  3
ACAD_FLATSHOT
350
89C
  3
ACAD_GROUP
350
D
  3
ACAD_IMAGE_DICT
350
E6E
  3
ACAD_IMAGE_VARS
350
E74
  3
ACAD_LAYOUT
350
1A
  3
ACAD_MATERIAL
350
EA
  3
ACAD_MLEADERSTYLE
350
2C3
  3
ACAD_MLINESTYLE
350
17
  3
ACAD_PLOTSETTINGS
350
19
  3
ACAD_PLOTSTYLENAME
350
E
  3
ACAD_SCALELIST
350
2A1
  3
ACAD_TABLESTYLE
350
22B
  3
ACAD_VISUALSTYLE
350
21A
  3
ACAD_WIPEOUT_VARS
350
8464
  3
AcAec
350
A21
  3
ACDB_RECOMPOSE_DATA
350
310
  3
AcDbVariableDictionary
350
25B
  3
AEC_DISP_REP_CONFIGURATIONS
350
A0A
  3
AEC_DISP_REP_SETS
350
A01
  3
AEC_DISP_REPS
350
8DB
  3
AEC_DISPLAY_PROPS_DEFAULTS
350
8DF
  3
AEC_LAYERKEY_STYLES
350
A0C
  3
AEC_PROPERTY_SET_DEFS
350
3C2
  3
AEC_VARS
350
8DD
  3
ASE_INDEX_DICTIONARY
350
3E43
  0
DICTIONARY
  5
28F
330
2
100
AcDbDictionary
280
     1
281
     1
  3
ACAD_LAYERFILTERS
360
1BB9
  3
ACAD_LAYERSTATES
360
290
  3
ACLYDICTIONARY
360
1BB8
  0
DICTIONARY
  5
308
330
10
100
AcDbDictionary
280
     1
281
     1
  3
ADSK_XREC_LAYER_RECONCILED
360
4297
  0
DICTIONARY
  5
37E
330
37D
100
AcDbDictionary
280
     1
281
     1
  0
DICTIONARY
  5
B155
330
B154
100
AcDbDictionary
280
     1
281
     1
  0
DICTIONARY
  5
B157
330
B156
100
AcDbDictionary
280
     1
281
     1
  0
DICTIONARY
  5
B15B
330
B15A
100
AcDbDictionary
280
     1
281
     1
  0
DICTIONARY
  5
B15D
330
B15C
100
AcDbDictionary
280
     1
281
     1
  0
DICTIONARY
  5
B98A
330
B989
100
AcDbDictionary
280
     1
281
     1
  3
ASDK_XREC_ANNO_SCALE_INFO
360
B98B
  0
DICTIONARY
  5
102E
330
1F
100
AcDbDictionary
280
     1
281
     1
  3
ACAD_SORTENTS
360
A3DF
  0
DICTIONARY
  5
88F6
330
6B77
100
AcDbDictionary
280
     1
281
     1
  3
ACAD_SORTENTS
360
88F7
  0
DICTIONARY
  5
6B7B
330
6B7A
100
AcDbDictionary
280
     1
281
     1
  0
DICTIONARY
  5
72AF
330
72AE
100
AcDbDictionary
280
     1
281
     1
  3
ACAD_ENHANCEDBLOCK
360
72B0
  3
AcDbDynamicBlockRoundTripPurgePreventer
360
72B6
  0
DICTIONARY
  5
8909
330
82A7
100
AcDbDictionary
280
     1
281
     1
  3
ACAD_SORTENTS
360
890A
  0
DICTIONARY
  5
82A4
330
82A3
100
AcDbDictionary
280
     1
281
     1
  0
DICTIONARY
  5
B750
330
901E
100
AcDbDictionary
280
     1
281
     1
  3
ACAD_SORTENTS
360
B751
  0
DICTIONARY
  5
B7DD
330
B151
100
AcDbDictionary
280
     1
281
     1
  3
ACAD_SORTENTS
360
B7DE
  0
DICTIONARY
  5
B7B4
330
B7B3
100
AcDbDictionary
280
     1
281
     1
  0
DICTIONARY
  5
B98C
330
B74B
100
AcDbDictionary
280
     1
281
     1
  3
ACAD_MTEXT_2008_RT
360
B98D
  0
DICTIONARY
  5
A02D
330
821D
100
AcDbDictionary
280
     1
281
     1
  3
AcDbContextDataManager
360
A02E
  0
DICTIONARY
  5
16C1
330
16C0
100
AcDbDictionary
280
     1
281
     1
  3
ASDK_XREC_ANNOTATION_SCALE_INFO
360
16C2
  0
DICTIONARY
  5
83C
102
{ACAD_REACTORS
330
C
102
}
330
C
100
AcDbDictionary
281
     1
  0
DICTIONARY
  5
EB
102
{ACAD_REACTORS
330
C
102
}
330
C
100
AcDbDictionary
281
     1
  0
DICTIONARY
  5
40F3
102
{ACAD_REACTORS
330
C
102
}
330
C
100
AcDbDictionary
281
     1
  0
FIELDLIST
  5
E70
102
{ACAD_REACTORS
330
C
102
}
330
C
100
AcDbIdSet
 90
        0
100
AcDbFieldList
  0
XRECORD
  5
89C
102
{ACAD_REACTORS
330
C
102
}
330
C
100
AcDbXrecord
280
     1
 71
     0
  0
DICTIONARY
  5
D
102
{ACAD_REACTORS
330
C
102
}
330
C
100
AcDbDictionary
281
     1
  0
DICTIONARY
  5
E6E
102
{ACAD_REACTORS
330
C
102
}
330
C
100
AcDbDictionary
281
     1
  0
RASTERVARIABLES
  5
E74
102
{ACAD_REACTORS
330
C
102
}
330
C
100
AcDbRasterVariables
 90
        0
 70
     1
 71
     1
 72
     1
  0
DICTIONARY
  5
1A
102
{ACAD_REACTORS
330
C
102
}
330
C
100
AcDbDictionary
281
     1
  3
1
350
16BA
  3
Model
350
22
  0
DICTIONARY
  5
EA
102
{ACAD_REACTORS
330
C
102
}
330
C
100
AcDbDictionary
281
     1
  3
ByBlock
350
218
  3
ByLayer
350
217
  3
Global
350
219
  0
DICTIONARY
  5
2C3
102
{ACAD_REACTORS
330
C
102
}
330
C
100
AcDbDictionary
281
     1
  3
2mm
350
389
  3
Standard
350
2C4
  0
DICTIONARY
  5
17
102
{ACAD_REACTORS
330
C
102
}
330
C
100
AcDbDictionary
281
     1
  3
mp000096$0$STANDARD
350
B752
  3
mp001241$0$STANDARD
350
B7DF
  3
Standard
350
18
  0
DICTIONARY
  5
19
102
{ACAD_REACTORS
330
C
102
}
330
C
100
AcDbDictionary
281
     1
  0
ACDBDICTIONARYWDFLT
  5
E
102
{ACAD_REACTORS
330
C
102
}
330
C
100
AcDbDictionary
281
     1
  3
Normal
350
F
100
AcDbDictionaryWithDefault
340
F
  0
DICTIONARY
  5
2A1
102
{ACAD_REACTORS
330
C
102
}
330
C
100
AcDbDictionary
281
     1
  3
*A1
350
13E3
  3
*A10
350
5B94
  3
*A11
350
8454
  3
*A12
350
8456
  3
*A13
350
13EC
  3
*A14
350
5B73
  3
*A15
350
5B97
  3
*A16
350
13F0
  3
*A17
350
13EF
  3
*A18
350
5B99
  3
*A19
350
8458
  3
*A2
350
845A
  3
*A20
350
13F4
  3
*A21
350
5B86
  3
*A22
350
13E6
  3
*A23
350
13E5
  3
*A24
350
13F6
  3
*A25
350
13F5
  3
*A26
350
845C
  3
*A27
350
13E9
  3
*A28
350
5B8C
  3
*A29
350
13EE
  3
*A3
350
13ED
  3
*A30
350
13EB
  3
*A31
350
13EA
  3
*A32
350
845F
  3
*A33
350
13F1
  3
*A34
350
13E4
  3
*A35
350
5B80
  3
*A36
350
8455
  3
*A37
350
5B82
  3
*A38
350
5B85
  3
*A39
350
5B83
  3
*A4
350
8452
  3
*A40
350
5B87
  3
*A41
350
8459
  3
*A42
350
5B88
  3
*A43
350
5B8B
  3
*A44
350
5B89
  3
*A45
350
5B8D
  3
*A46
350
845D
  3
*A47
350
5B8E
  3
*A48
350
5B91
  3
*A49
350
5B8F
  3
*A5
350
5B92
  3
*A50
350
8460
  3
*A51
350
5B93
  3
*A52
350
5B96
  3
*A53
350
8453
  3
*A54
350
5B84
  3
*A55
350
5B98
  3
*A56
350
13F2
  3
*A57
350
8457
  3
*A58
350
5B8A
  3
*A59
350
13F3
  3
*A6
350
13E7
  3
*A60
350
845B
  3
*A61
350
5B90
  3
*A62
350
13E8
  3
*A7
350
845E
  3
*A8
350
5B95
  3
*A9
350
5B81
  3
A0
350
A6E
  3
A1
350
A77
  3
A2
350
A78
  3
A3
350
A79
  3
A4
350
A7A
  3
A5
350
A7B
  3
A6
350
A7C
  3
A7
350
A7D
  3
A8
350
A7E
  3
A9
350
A7F
  3
B0
350
A80
  3
B1
350
A6F
  3
B2
350
A81
  3
B3
350
A82
  3
B4
350
A70
  3
B5
350
A71
  3
B6
350
A72
  3
B7
350
A73
  3
B8
350
A74
  3
B9
350
A75
  3
C0
350
A76
  3
C1
350
2A2
  0
DICTIONARY
  5
22B
102
{ACAD_REACTORS
330
C
102
}
330
C
100
AcDbDictionary
281
     1
  3
mp000096$0$Standard
350
B753
  3
mp001241$0$Standard
350
B7E0
  3
Standard
350
22C
  0
DICTIONARY
  5
21A
102
{ACAD_REACTORS
330
C
102
}
330
C
100
AcDbDictionary
281
     1
  3
2dWireframe
350
220
  3
3D Hidden
350
222
  3
3dWireframe
350
221
  3
Basic
350
21F
  3
Brighten
350
226
  3
ColorChange
350
22A
  3
Conceptual
350
223
  3
Dim
350
225
  3
Facepattern
350
229
  3
Flat
350
21B
  3
FlatWithEdges
350
21C
  3
Gouraud
350
21D
  3
GouraudWithEdges
350
21E
  3
Linepattern
350
228
  3
Realistic
350
224
  3
Thicken
350
227
  0
WIPEOUTVARIABLES
  5
8464
102
{ACAD_REACTORS
330
C
102
}
330
C
100
AcDbWipeoutVariables
 70
     1
  0
DICTIONARY
  5
A21
102
{ACAD_REACTORS
330
C
102
}
330
C
100
AcDbDictionary
281
     1
  3
AcAecLayerManager
350
A22
  0
XRECORD
  5
310
102
{ACAD_REACTORS
330
C
102
}
330
C
100
AcDbXrecord
280
     1
 90
        1
330
22C
330
821D
330
B74B
330
B753
330
B7E0
  0
DICTIONARY
  5
25B
102
{ACAD_REACTORS
330
C
102
}
330
C
100
AcDbDictionary
281
     1
  3
CANNOSCALE
350
313
  3
CMLEADERSTYLE
350
311
  3
CTABLESTYLE
350
25C
  3
LAYEREVAL
350
315
  3
LAYERNOTIFY
350
316
  3
LIGHTINGUNITS
350
314
  3
MLEADERSCALE
350
A3E
  3
MSLTSCALE
350
312
  0
DICTIONARY
  5
A0A
102
{ACAD_REACTORS
330
C
102
}
330
C
100
AcDbDictionary
281
     1
  0
DICTIONARY
  5
A01
102
{ACAD_REACTORS
330
C
102
}
330
C
100
AcDbDictionary
281
     1
  0
DICTIONARY
  5
8DB
102
{ACAD_REACTORS
330
C
102
}
330
C
100
AcDbDictionary
281
     1
  0
DICTIONARY
  5
8DF
102
{ACAD_REACTORS
330
C
102
}
330
C
100
AcDbDictionary
281
     1
  0
DICTIONARY
  5
A0C
102
{ACAD_REACTORS
330
C
102
}
330
C
100
AcDbDictionary
281
     1
  0
DICTIONARY
  5
3C2
102
{ACAD_REACTORS
330
C
102
}
330
C
100
AcDbDictionary
281
     1
  0
DICTIONARY
  5
8DD
102
{ACAD_REACTORS
330
C
102
}
330
C
100
AcDbDictionary
281
     1
  0
DICTIONARY
  5
3E43
102
{ACAD_REACTORS
330
C
102
}
330
C
100
AcDbDictionary
281
     1
  3
ASEBlockHierarchyIndexRecord
350
3E44
1001
DCO15
1040
1692121483.687
  0
DICTIONARY
  5
1BB9
102
{ACAD_REACTORS
330
28F
102
}
330
28F
100
AcDbDictionary
281
     1
  0
DICTIONARY
  5
290
102
{ACAD_REACTORS
330
28F
102
}
330
28F
100
AcDbDictionary
281
     1
  3
00000050
350
3D97
  3
00000561
350
3D8B
  3
mp000096$0$00000050
350
B73C
  3
mp000096$0$00000561
350
B740
  3
mp001241$0$00000050
350
B743
  3
mp001241$0$00000561
350
B746
  0
DICTIONARY
  5
1BB8
102
{ACAD_REACTORS
330
28F
102
}
330
28F
100
AcDbDictionary
281
     1
1001
ACAD
1000
<All
  0
XRECORD
  5
4297
102
{ACAD_REACTORS
330
308
102
}
330
308
100
AcDbXrecord
280
     1
290
     1
  0
XRECORD
  5
B98B
102
{ACAD_REACTORS
330
B98A
102
}
330
B98A
100
AcDbXrecord
280
     1
 70
     1
340
A7E
340
ABEE
 70
    -1
  0
SORTENTSTABLE
  5
A3DF
102
{ACAD_REACTORS
330
102E
102
}
330
102E
100
AcDbSortentsTable
330
1F
331
B71B
  5
B696
331
B6E4
  5
B6CF
331
B6A5
  5
B70C
331
B723
  5
B690
331
B6EC
  5
B6C9
331
B6AD
  5
B708
331
B72B
  5
B68B
331
B6F4
  5
B6C3
331
B6B5
  5
B703
331
A9F0
  5
74E9
331
B6FC
  5
B6AF
331
B6BD
  5
B6F4
331
B686
  5
B91A
331
A9F8
  5
81EE
331
B704
  5
B6A9
331
B6C5
  5
B6EA
331
B68E
  5
B917
331
B70C
  5
B6A3
331
B6CD
  5
B6E4
331
B696
  5
B72B
331
AA50
  5
B67F
331
B92F
  5
B939
331
B714
  5
B69D
331
B69E
  5
B71F
331
B6D5
  5
B6DC
331
B937
  5
B92F
331
B840
  5
B724
331
B6DD
  5
B6D6
331
B71C
  5
B697
331
B6E5
  5
B6D0
331
B6A6
  5
B710
331
B724
  5
B691
331
B6ED
  5
B6CA
331
B6AE
  5
B709
331
B6F5
  5
B6B6
331
B6B6
  5
B6FB
331
B6FD
  5
B6B0
331
B6BE
  5
B6F5
331
B687
  5
B919
331
A9F9
  5
8202
331
B705
  5
B6AA
331
B6C6
  5
B6EB
331
B68F
  5
B834
331
B70D
  5
B6A4
331
B6CE
  5
B6E3
331
B697
  5
B82F
331
AA51
  5
B681
331
B715
  5
B69E
331
B69F
  5
B71E
331
B6D6
  5
B6DB
331
B938
  5
B934
331
B841
  5
B70D
331
B6DE
  5
B6D7
331
B71D
  5
B698
331
B6E6
  5
B6D1
331
B6A7
  5
B715
331
B725
  5
B692
331
B6EE
  5
B6BD
331
B6AF
  5
B6FD
331
B6F6
  5
B6B7
331
B6B7
  5
B6FC
331
B919
  5
B93A
331
B6FE
  5
B6B1
331
B6BF
  5
B6F6
331
B688
  5
B918
331
A9FA
  5
8212
331
B706
  5
B6AB
331
B6C7
  5
B6EC
331
B690
  5
B835
331
B70E
  5
B6A5
331
B698
  5
B830
331
AA52
  5
B682
331
B6CF
  5
B6E2
331
B716
  5
B69F
331
B6D7
  5
B6DA
331
B939
  5
7387
331
B6DF
  5
B6D8
331
B6A0
  5
B719
331
B71E
  5
B699
331
B6E7
  5
B6C4
331
B6A8
  5
B716
331
B726
  5
B686
331
B6EF
  5
B6BE
331
B6B0
  5
B6FE
331
B6B8
  5
B6F9
331
821D
  5
B6FA
331
B6F7
  5
B6B8
331
B91A
  5
B93B
331
B6FF
  5
B6B2
331
B922
  5
B924
331
B6C0
  5
B6F7
331
B689
  5
B83B
331
A9FB
  5
821D
331
B707
  5
B6AC
331
B6C8
  5
B6ED
331
B691
  5
B836
331
B833
  5
B725
331
B70F
  5
B6A6
331
B699
  5
B831
331
B6D0
  5
B6E1
331
B717
  5
B6A0
331
B6D8
  5
B6D9
331
B93A
  5
81BC
331
B6E0
  5
B6CB
331
B6A1
  5
B718
331
AAA3
  5
B683
331
B71F
  5
B68C
331
B6E8
  5
B6C5
331
B6A9
  5
B704
331
B727
  5
B687
331
B6F0
  5
B6BF
331
B6B1
  5
B6FF
331
B6F8
  5
B6B9
331
B6B9
  5
B6F8
331
B91B
  5
B93C
331
B923
  5
B925
331
B700
  5
B6B3
331
B6C1
  5
B6F0
331
B68A
  5
B83C
331
A9FC
  5
8222
331
B708
  5
B6AD
331
B6C9
  5
B6EE
331
B692
  5
B838
331
B834
  5
B726
331
B710
  5
B6A7
331
B69A
  5
B832
331
B6D1
  5
B6E0
331
B92B
  5
B935
331
B83C
  5
B720
331
B6D9
  5
B6D2
331
B93B
  5
7344
331
B718
  5
B693
331
B6E1
  5
B6CC
331
B6A2
  5
B717
331
AAA4
  5
B684
331
B720
  5
B68D
331
B6E9
  5
B6C6
331
B6AA
  5
B705
331
B8D4
  5
8828
331
B728
  5
B688
331
B6F1
  5
B6C0
331
B6B2
  5
B700
331
A9ED
  5
7339
331
B6F9
  5
B6BA
331
B6BA
  5
B6F1
331
B91C
  5
B93D
331
B924
  5
B926
331
B701
  5
B6B4
331
B6C2
  5
B6EF
331
B68B
  5
B83D
331
A9FD
  5
8225
331
B709
  5
B6AE
331
B6CA
  5
B6E7
331
B693
  5
B839
331
B835
  5
B727
331
B711
  5
B69A
331
B69B
  5
B833
331
B6D2
  5
B6DF
331
B92C
  5
B936
331
B83D
  5
B721
331
B6DA
  5
B6D3
331
B934
  5
B92C
331
B93C
  5
735A
331
B719
  5
B694
331
B6E2
  5
B6CD
331
B6A3
  5
B70A
331
B721
  5
B68E
331
B6EA
  5
B6C7
331
B6AB
  5
B706
331
B729
  5
B689
331
B6F2
  5
B6C1
331
B6B3
  5
B701
331
A9EE
  5
734F
331
B8D5
  5
8224
331
B6FA
  5
B6BB
331
B6BB
  5
B6F2
331
B684
  5
B923
331
A9F6
  5
81CE
331
B91D
  5
B93E
331
B925
  5
B927
331
B702
  5
B6B5
331
B6C3
  5
B6E8
331
B68C
  5
B83F
331
A9FE
  5
87BD
331
B70A
  5
B6A1
331
B6CB
  5
B6E6
331
B694
  5
B83A
331
B836
  5
B728
331
B712
  5
B69B
331
B6D3
  5
B6DE
331
B92D
  5
B937
331
B83E
  5
B722
331
B6DB
  5
B6D4
331
9027
  5
732E
331
B935
  5
B92D
331
B93D
  5
B83E
331
B71A
  5
B695
331
B6E3
  5
B6CE
331
B6A4
  5
B70B
331
B722
  5
B68F
331
B6EB
  5
B6C8
331
B6AC
  5
B707
331
B72A
  5
B68A
331
B6F3
  5
B6C2
331
B6B4
  5
B702
331
A9EF
  5
7374
331
B6FB
  5
B6BC
331
B6BC
  5
B6F3
331
B685
  5
B91B
331
A9F7
  5
81DE
331
B906
  5
8223
331
B926
  5
B92B
331
B703
  5
B6A8
331
B6C4
  5
B6E9
331
B68D
  5
B840
331
B70B
  5
B6A2
331
B6CC
  5
B6E5
331
B695
  5
B72A
331
AA4F
  5
AA83
331
B92E
  5
B938
331
B837
  5
B729
331
B6D4
  5
B6DD
331
B166
  5
B685
331
B713
  5
B69C
331
B936
  5
B92E
331
B83F
  5
B723
331
B6DC
  5
B6D5
331
B93E
  5
B837
  0
SORTENTSTABLE
  5
88F7
102
{ACAD_REACTORS
330
88F6
102
}
330
88F6
100
AcDbSortentsTable
330
6B77
  0
ACAD_EVALUATION_GRAPH
  5
72B0
102
{ACAD_REACTORS
330
72AF
102
}
330
72AF
100
AcDbEvalGraph
 96
        8
 97
        8
 91
        0
 93
       32
 95
        1
360
72B1
 92
        2
 92
        2
 92
        0
 92
        3
 91
        1
 93
       32
 95
        2
360
72B2
 92
       -1
 92
       -1
 92
        2
 92
        2
 91
        2
 93
       32
 95
        3
360
72B3
 92
        0
 92
        0
 92
       -1
 92
       -1
 91
        3
 93
       32
 95
        4
360
72B4
 92
        1
 92
        1
 92
       -1
 92
       -1
 91
        4
 93
       32
 95
        8
360
72B5
 92
        3
 92
        3
 92
       -1
 92
       -1
 92
        0
 93
        0
 94
        1
 91
        0
 91
        2
 92
       -1
 92
       -1
 92
       -1
 92
        1
 92
       -1
 92
        1
 93
        0
 94
        1
 91
        0
 91
        3
 92
       -1
 92
       -1
 92
        0
 92
        3
 92
       -1
 92
        2
 93
        0
 94
        2
 91
        1
 91
        0
 92
       -1
 92
       -1
 92
       -1
 92
       -1
 92
       -1
 92
        3
 93
        0
 94
        2
 91
        0
 91
        4
 92
       -1
 92
       -1
 92
        1
 92
       -1
 92
       -1
  0
ACDB_DYNAMICBLOCKPURGEPREVENTER_VERSION
  5
72B6
102
{ACAD_REACTORS
330
72AF
102
}
330
72AF
100
AcDbDynamicBlockPurgePreventer
 70
     1
  0
SORTENTSTABLE
  5
890A
102
{ACAD_REACTORS
330
8909
102
}
330
8909
100
AcDbSortentsTable
330
82A7
331
8907
  5
8908
331
8905
  5
8906
331
8903
  5
88FF
331
8901
  5
8902
331
88FF
  5
8900
331
8908
  5
8905
331
8906
  5
8907
331
8902
  5
8903
331
8900
  5
8901
  0
SORTENTSTABLE
  5
B751
102
{ACAD_REACTORS
330
B750
102
}
330
B750
100
AcDbSortentsTable
330
901E
331
B74E
  5
B74F
331
B74F
  5
B74E
  0
SORTENTSTABLE
  5
B7DE
102
{ACAD_REACTORS
330
B7DD
102
}
330
B7DD
100
AcDbSortentsTable
330
B151
331
B7D8
  5
B788
331
B7CC
  5
B782
331
B776
  5
B797
331
B7A5
  5
B7CF
331
B782
  5
B7A5
331
B7C8
  5
B77A
331
B772
  5
B793
331
B7A1
  5
B7CB
331
B7C4
  5
B76B
331
B76E
  5
B78F
331
B795
  5
B7BF
331
B79D
  5
B7C7
331
B7C0
  5
B772
331
B76A
  5
B76F
331
B791
  5
B7BB
331
B799
  5
B7C3
331
B7BC
  5
B778
331
B78D
  5
B7B0
331
B7D7
  5
B787
331
B7B0
  5
B7DA
331
B7AC
  5
B7D6
331
B7D3
  5
B780
331
B77D
  5
B7A0
331
B789
  5
B7AC
331
B7CF
  5
B79C
331
B779
  5
B79A
331
B7A8
  5
B7D2
331
B785
  5
B7A8
331
B7DB
  5
B78C
331
B7CB
  5
B77D
331
B775
  5
B796
331
B7A4
  5
B7CE
331
B781
  5
B7A4
331
B7C7
  5
B76E
331
B771
  5
B792
331
B7A0
  5
B7CA
331
B7C3
  5
B76A
331
B76D
  5
B78E
331
B794
  5
B7BE
331
B79C
  5
B7C6
331
B7BF
  5
B771
331
B790
  5
B7BA
331
B798
  5
B7C2
331
B7BB
  5
B777
331
B7AF
  5
B7D9
331
B7D6
  5
B786
331
B78C
  5
B7AF
331
B7AB
  5
B7D5
331
B77C
  5
B79F
331
B7D2
  5
B77F
331
B788
  5
B7AB
331
B7A7
  5
B7D1
331
B7CE
  5
B784
331
B778
  5
B799
331
B784
  5
B7A7
331
B7DA
  5
B78A
331
B7A3
  5
B7CD
331
B774
  5
B795
331
B7CA
  5
B77C
331
B780
  5
B7A3
331
B79F
  5
B7C9
331
B770
  5
B791
331
B797
  5
B7C1
331
B7C6
  5
B76D
331
B79B
  5
B7C5
331
B76C
  5
B78B
331
B793
  5
B7BD
331
B7C2
  5
B774
331
B7BE
  5
B770
331
B78F
  5
B7B2
331
B7B2
  5
B7DC
331
B7BA
  5
B776
331
B7AE
  5
B7D8
331
B77F
  5
B7A2
331
B7D5
  5
B785
331
B78B
  5
B7AE
331
B7AA
  5
B7D4
331
B77B
  5
B79E
331
B7D1
  5
B77E
331
B787
  5
B7AA
331
B7A6
  5
B7D0
331
B777
  5
B798
331
B7CD
  5
B783
331
B783
  5
B7A6
331
B7D9
  5
B789
331
B7A2
  5
B7CC
331
B773
  5
B794
331
B7C9
  5
B77B
331
B79E
  5
B7C8
331
B76F
  5
B790
331
B796
  5
B7C0
331
B7C5
  5
B76C
331
B79A
  5
B7C4
331
B76B
  5
B775
331
B792
  5
B7BC
331
B7C1
  5
B773
331
B7BD
  5
B779
331
B78E
  5
B7B1
331
B7B1
  5
B7DB
331
B7AD
  5
B7D7
331
B7D4
  5
B781
331
B77E
  5
B7A1
331
B78A
  5
B7AD
331
B7DC
  5
B78D
331
B7D0
  5
B79D
331
B77A
  5
B79B
331
B7A9
  5
B7D3
331
B786
  5
B7A9
  0
XRECORD
  5
B98D
102
{ACAD_REACTORS
330
B98C
102
}
330
B98C
100
AcDbXrecord
280
     1
 40
14753640.0
  1
\pxqc;The information provided is for guide only and must be used along side professional architectural/structural design. Professional architectural/structural design takes preference with any conflicting areas of the building design.\PAll documents
  1
 or data downloaded from www.mpb.co.nz or emailed from MASONS Plastabrick Limited is the intellectual property of MASONS Plastabrick Limited. MASONS Plastabrick Limited takes no responsibility for any of the documents or data being used for any other
  1
 purpose than for professional architectural/structural design.
  0
DICTIONARY
  5
A02E
102
{ACAD_REACTORS
330
A02D
102
}
330
A02D
100
AcDbDictionary
281
     1
  3
ACDB_ANNOTATIONSCALES
350
A02F
  0
XRECORD
  5
16C2
102
{ACAD_REACTORS
330
16C1
102
}
330
16C1
100
AcDbXrecord
280
     1
 90
        1
340
2A2
  0
LAYOUT
  5
16BA
102
{ACAD_XDICTIONARY
360
170C
102
}
102
{ACAD_REACTORS
330
1A
102
}
330
1A
100
AcDbPlotSettings
  1

  2
DWF6 ePlot.pc3
  4
ISO_full_bleed_A4_(297.00_x_210.00_MM)
  6

 40
0.7937499880790711
 41
0.7937499880790711
 42
0.79376220703125
 43
0.7937469482421875
 44
297.0
 45
210.0
 46
0.0
 47
0.0
 48
0.0
 49
0.0
140
0.0
141
0.0
142
1.0
143
1.0
 70
   672
 72
     1
 73
     0
 74
     5
  7

 75
    16
147
25.4
 76
     0
 77
     2
 78
   300
148
0.0
149
0.0
100
AcDbLayout
  1
1
 70
     1
 71
     1
 10
-0.7937499880790711
 20
-0.7937499880790711
 11
296.2062500119209
 21
209.2062500119209
 12
0.0
 22
0.0
 32
0.0
 14
1.000000000000000E+20
 24
1.000000000000000E+20
 34
1.000000000000000E+20
 15
-1.000000000000000E+20
 25
-1.000000000000000E+20
 35
-1.000000000000000E+20
146
0.0
 13
0.0
 23
0.0
 33
0.0
 16
1.0
 26
0.0
 36
0.0
 17
0.0
 27
1.0
 37
0.0
 76
     0
330
16B9
331
16C0
1001
ACAD_PSEXT
1000
DWF6 ePlot.pc3
1000
DWF6 ePlot
1000
File
1000

1070
     0
  0
LAYOUT
  5
22
102
{ACAD_XDICTIONARY
360
4377
102
}
102
{ACAD_REACTORS
330
1A
102
}
330
1A
100
AcDbPlotSettings
  1

  2
none_device
  4
Letter_(8.50_x_11.00_Inches)
  6

 40
6.4
 41
6.4
 42
6.4
 43
6.4
 44
215.8999938964844
 45
279.3999938964844
 46
21.082
 47
0.0
 48
0.0
 49
0.0
140
0.0
141
0.0
142
1.0
143
1.55897424456234
 70
 11924
 72
     0
 73
     1
 74
     0
  7

 75
     0
147
0.6414474154964215
 76
     0
 77
     2
 78
   300
148
42.66874504805538
149
1.074921630094032
100
AcDbLayout
  1
Model
 70
     1
 71
     0
 10
0.0
 20
0.0
 11
12.0
 21
9.0
 12
0.0
 22
0.0
 32
0.0
 14
0.0
 24
0.0
 34
0.0
 15
0.0
 25
0.0
 35
0.0
146
0.0
 13
0.0
 23
0.0
 33
0.0
 16
1.0
 26
0.0
 36
0.0
 17
0.0
 27
1.0
 37
0.0
 76
     0
330
1F
331
215
  0
MATERIAL
  5
218
102
{ACAD_REACTORS
330
EA
102
}
330
EA
100
AcDbMaterial
  1
ByBlock
 73
     1
 78
     1
172
     1
176
     1
270
     1
274
     1
 94
       63
  0
MATERIAL
  5
217
102
{ACAD_REACTORS
330
EA
102
}
330
EA
100
AcDbMaterial
  1
ByLayer
 73
     1
 78
     1
172
     1
176
     1
270
     1
274
     1
 94
       63
  0
MATERIAL
  5
219
102
{ACAD_REACTORS
330
EA
102
}
330
EA
100
AcDbMaterial
  1
Global
 73
     1
 78
     1
172
     1
176
     1
270
     1
274
     1
 94
       63
  0
MLEADERSTYLE
  5
389
102
{ACAD_REACTORS
330
2C3
102
}
330
2C3
100
AcDbMLeaderStyle
170
     2
171
     1
172
     0
 90
        2
 40
0.0
 41
0.0
173
     1
 91
-1073741824
340
15
 92
       -1
290
     1
 42
2.0
291
     0
 43
0.0
  3
Standard
 44
4.0
300

342
380
174
     1
178
     1
175
     1
176
     0
 93
-1073741824
 45
2.0
292
     0
297
     0
 46
4.0
343
356
 94
-1056964608
 47
1.0
 49
1.0
140
1.0
293
     1
141
0.0
294
     1
177
     0
142
0.0
295
     0
296
     1
143
0.0
1001
ACAD_MLEADERVER
1070
     2
  0
MLEADERSTYLE
  5
2C4
102
{ACAD_REACTORS
330
2C3
102
}
330
2C3
100
AcDbMLeaderStyle
170
     2
171
     1
172
     0
 90
        2
 40
0.0
 41
0.0
173
     1
 91
-1056964608
340
14
 92
       -2
290
     1
 42
0.09
291
     1
 43
0.36
  3
Standard
 44
0.18
300

342
11
174
     1
178
     6
175
     1
176
     0
 93
-1056964608
 45
0.18
292
     0
297
     0
 46
0.18
 94
-1056964608
 47
1.0
 49
1.0
140
1.0
293
     1
141
0.0
294
     1
177
     0
142
1.0
295
     0
296
     0
143
0.125
1001
ACAD_MLEADERVER
1070
     2
  0
MLINESTYLE
  5
B752
102
{ACAD_REACTORS
330
17
102
}
330
17
100
AcDbMlineStyle
  2
MP000096$0$STANDARD
 70
     0
  3

 62
   256
 51
90.0
 52
90.0
 71
     2
 49
0.5
 62
   256
  6
BYLAYER
 49
-0.5
 62
   256
  6
BYLAYER
  0
MLINESTYLE
  5
B7DF
102
{ACAD_REACTORS
330
17
102
}
330
17
100
AcDbMlineStyle
  2
MP001241$0$STANDARD
 70
     0
  3

 62
   256
 51
90.0
 52
90.0
 71
     2
 49
0.5
 62
   256
  6
BYLAYER
 49
-0.5
 62
   256
  6
BYLAYER
  0
MLINESTYLE
  5
18
102
{ACAD_REACTORS
330
17
102
}
330
17
100
AcDbMlineStyle
  2
STANDARD
 70
     0
  3

 62
   256
 51
90.0
 52
90.0
 71
     2
 49
0.5
 62
   256
  6
BYLAYER
 49
-0.5
 62
   256
  6
BYLAYER
  0
ACDBPLACEHOLDER
  5
F
102
{ACAD_REACTORS
330
E
102
}
330
E
  0
SCALE
  5
13E3
102
{ACAD_REACTORS
330
2A1
102
}
330
2A1
100
AcDbScale
 70
     0
300
1:2_XREF
140
1.0
141
2.0
290
     0
  0
SCALE
  5
5B94
102
{ACAD_REACTORS
330
2A1
102
}
330
2A1
100
AcDbScale
 70
     0
300
3/8" = 1'-0"_XREF
140
0.375
141
12.0
290
     0
  0
SCALE
  5
8454
102
{ACAD_REACTORS
330
2A1
102
}
330
2A1
100
AcDbScale
 70
     0
300
*1:2000_XREF
140
1.0
141
2000.0
290
     0
  0
SCALE
  5
8456
102
{ACAD_REACTORS
330
2A1
102
}
330
2A1
100
AcDbScale
 70
     0
300
*1:25_XREF
140
1.0
141
25.0
290
     0
  0
SCALE
  5
13EC
102
{ACAD_REACTORS
330
2A1
102
}
330
2A1
100
AcDbScale
 70
     0
300
1:100_XREF
140
1.0
141
100.0
290
     0
  0
SCALE
  5
5B73
102
{ACAD_REACTORS
330
2A1
102
}
330
2A1
100
AcDbScale
 70
     0
300
*1:0.5
140
1.0
141
0.5
290
     0
  0
SCALE
  5
5B97
102
{ACAD_REACTORS
330
2A1
102
}
330
2A1
100
AcDbScale
 70
     0
300
1" = 1'-0"_XREF
140
1.0
141
12.0
290
     0
  0
SCALE
  5
13F0
102
{ACAD_REACTORS
330
2A1
102
}
330
2A1
100
AcDbScale
 70
     0
300
1:500_XREF
140
1.0
141
500.0
290
     0
  0
SCALE
  5
13EF
102
{ACAD_REACTORS
330
2A1
102
}
330
2A1
100
AcDbScale
 70
     0
300
1:250_XREF
140
1.0
141
250.0
290
     0
  0
SCALE
  5
5B99
102
{ACAD_REACTORS
330
2A1
102
}
330
2A1
100
AcDbScale
 70
     0
300
6" = 1'-0"_XREF
140
6.0
141
12.0
290
     0
  0
SCALE
  5
8458
102
{ACAD_REACTORS
330
2A1
102
}
330
2A1
100
AcDbScale
 70
     0
300
*1:2500_XREF
140
1.0
141
2500.0
290
     0
  0
SCALE
  5
845A
102
{ACAD_REACTORS
330
2A1
102
}
330
2A1
100
AcDbScale
 70
     0
300
*1:500_XREF
140
1.0
141
500.0
290
     0
  0
SCALE
  5
13F4
102
{ACAD_REACTORS
330
2A1
102
}
330
2A1
100
AcDbScale
 70
     0
300
1:2000_XREF
140
1.0
141
2000.0
290
     0
  0
SCALE
  5
5B86
102
{ACAD_REACTORS
330
2A1
102
}
330
2A1
100
AcDbScale
 70
     0
300
3" = 1'-0"_XREF
140
3.0
141
12.0
290
     0
  0
SCALE
  5
13E6
102
{ACAD_REACTORS
330
2A1
102
}
330
2A1
100
AcDbScale
 70
     0
300
1:7.5_XREF
140
1.0
141
7.5
290
     0
  0
SCALE
  5
13E5
102
{ACAD_REACTORS
330
2A1
102
}
330
2A1
100
AcDbScale
 70
     0
300
1:5_XREF
140
1.0
141
5.0
290
     0
  0
SCALE
  5
13F6
102
{ACAD_REACTORS
330
2A1
102
}
330
2A1
100
AcDbScale
 70
     0
300
1:5000_XREF
140
1.0
141
5000.0
290
     0
  0
SCALE
  5
13F5
102
{ACAD_REACTORS
330
2A1
102
}
330
2A1
100
AcDbScale
 70
     0
300
1:2500_XREF
140
1.0
141
2500.0
290
     0
  0
SCALE
  5
845C
102
{ACAD_REACTORS
330
2A1
102
}
330
2A1
100
AcDbScale
 70
     0
300
*1:750_XREF
140
1.0
141
750.0
290
     0
  0
SCALE
  5
13E9
102
{ACAD_REACTORS
330
2A1
102
}
330
2A1
100
AcDbScale
 70
     0
300
1:25_XREF
140
1.0
141
25.0
290
     0
  0
SCALE
  5
5B8C
102
{ACAD_REACTORS
330
2A1
102
}
330
2A1
100
AcDbScale
 70
     0
300
1/2" = 1'-0"_XREF
140
0.5
141
12.0
290
     0
  0
SCALE
  5
13EE
102
{ACAD_REACTORS
330
2A1
102
}
330
2A1
100
AcDbScale
 70
     0
300
1:200_XREF
140
1.0
141
200.0
290
     0
  0
SCALE
  5
13ED
102
{ACAD_REACTORS
330
2A1
102
}
330
2A1
100
AcDbScale
 70
     0
300
1:150_XREF
140
1.0
141
150.0
290
     0
  0
SCALE
  5
13EB
102
{ACAD_REACTORS
330
2A1
102
}
330
2A1
100
AcDbScale
 70
     0
300
1:75_XREF
140
1.0
141
75.0
290
     0
  0
SCALE
  5
13EA
102
{ACAD_REACTORS
330
2A1
102
}
330
2A1
100
AcDbScale
 70
     0
300
1:50_XREF
140
1.0
141
50.0
290
     0
  0
SCALE
  5
845F
102
{ACAD_REACTORS
330
2A1
102
}
330
2A1
100
AcDbScale
 70
     0
300
*1-40_XREF
140
1.0
141
40.0
290
     0
  0
SCALE
  5
13F1
102
{ACAD_REACTORS
330
2A1
102
}
330
2A1
100
AcDbScale
 70
     0
300
1:750_XREF
140
1.0
141
750.0
290
     0
  0
SCALE
  5
13E4
102
{ACAD_REACTORS
330
2A1
102
}
330
2A1
100
AcDbScale
 70
     0
300
1:2.5_XREF
140
1.0
141
2.5
290
     0
  0
SCALE
  5
5B80
102
{ACAD_REACTORS
330
2A1
102
}
330
2A1
100
AcDbScale
 70
     0
300
1/4" = 1'-0"_XREF
140
0.25
141
12.0
290
     0
  0
SCALE
  5
8455
102
{ACAD_REACTORS
330
2A1
102
}
330
2A1
100
AcDbScale
 70
     0
300
*1:2.5_XREF
140
1.0
141
2.5
290
     0
  0
SCALE
  5
5B82
102
{ACAD_REACTORS
330
2A1
102
}
330
2A1
100
AcDbScale
 70
     0
300
1:8_XREF
140
1.0
141
8.0
290
     0
  0
SCALE
  5
5B85
102
{ACAD_REACTORS
330
2A1
102
}
330
2A1
100
AcDbScale
 70
     0
300
1/32" = 1'-0"_XREF
140
0.03125
141
12.0
290
     0
  0
SCALE
  5
5B83
102
{ACAD_REACTORS
330
2A1
102
}
330
2A1
100
AcDbScale
 70
     0
300
1:16_XREF
140
1.0
141
16.0
290
     0
  0
SCALE
  5
8452
102
{ACAD_REACTORS
330
2A1
102
}
330
2A1
100
AcDbScale
 70
     0
300
*1:1000_XREF
140
1.0
141
1000.0
290
     0
  0
SCALE
  5
5B87
102
{ACAD_REACTORS
330
2A1
102
}
330
2A1
100
AcDbScale
 70
     0
300
2:1_XREF
140
2.0
141
1.0
290
     0
  0
SCALE
  5
8459
102
{ACAD_REACTORS
330
2A1
102
}
330
2A1
100
AcDbScale
 70
     0
300
*1:400_XREF
140
1.0
141
400.0
290
     0
  0
SCALE
  5
5B88
102
{ACAD_REACTORS
330
2A1
102
}
330
2A1
100
AcDbScale
 70
     0
300
4:1_XREF
140
4.0
141
1.0
290
     0
  0
SCALE
  5
5B8B
102
{ACAD_REACTORS
330
2A1
102
}
330
2A1
100
AcDbScale
 70
     0
300
1/16" = 1'-0"_XREF
140
0.0625
141
12.0
290
     0
  0
SCALE
  5
5B89
102
{ACAD_REACTORS
330
2A1
102
}
330
2A1
100
AcDbScale
 70
     0
300
8:1_XREF
140
8.0
141
1.0
290
     0
  0
SCALE
  5
5B8D
102
{ACAD_REACTORS
330
2A1
102
}
330
2A1
100
AcDbScale
 70
     0
300
1'-0" = 1'-0"_XREF
140
12.0
141
12.0
290
     0
  0
SCALE
  5
845D
102
{ACAD_REACTORS
330
2A1
102
}
330
2A1
100
AcDbScale
 70
     0
300
*1:8_XREF
140
1.0
141
8.0
290
     0
  0
SCALE
  5
5B8E
102
{ACAD_REACTORS
330
2A1
102
}
330
2A1
100
AcDbScale
 70
     0
300
1/128" = 1'-0"_XREF
140
0.0078125
141
12.0
290
     0
  0
SCALE
  5
5B91
102
{ACAD_REACTORS
330
2A1
102
}
330
2A1
100
AcDbScale
 70
     0
300
3/32" = 1'-0"_XREF
140
0.09375
141
12.0
290
     0
  0
SCALE
  5
5B8F
102
{ACAD_REACTORS
330
2A1
102
}
330
2A1
100
AcDbScale
 70
     0
300
1/64" = 1'-0"_XREF
140
0.015625
141
12.0
290
     0
  0
SCALE
  5
5B92
102
{ACAD_REACTORS
330
2A1
102
}
330
2A1
100
AcDbScale
 70
     0
300
1/8" = 1'-0"_XREF
140
0.125
141
12.0
290
     0
  0
SCALE
  5
8460
102
{ACAD_REACTORS
330
2A1
102
}
330
2A1
100
AcDbScale
 70
     0
300
*1:4_XREF
140
1.0
141
4.0
290
     0
  0
SCALE
  5
5B93
102
{ACAD_REACTORS
330
2A1
102
}
330
2A1
100
AcDbScale
 70
     0
300
3/16" = 1'-0"_XREF
140
0.1875
141
12.0
290
     0
  0
SCALE
  5
5B96
102
{ACAD_REACTORS
330
2A1
102
}
330
2A1
100
AcDbScale
 70
     0
300
3/4" = 1'-0"_XREF
140
0.75
141
12.0
290
     0
  0
SCALE
  5
8453
102
{ACAD_REACTORS
330
2A1
102
}
330
2A1
100
AcDbScale
 70
     0
300
*1:15_XREF
140
1.0
141
15.0
290
     0
  0
SCALE
  5
5B84
102
{ACAD_REACTORS
330
2A1
102
}
330
2A1
100
AcDbScale
 70
     0
300
1:30_XREF
140
1.0
141
30.0
290
     0
  0
SCALE
  5
5B98
102
{ACAD_REACTORS
330
2A1
102
}
330
2A1
100
AcDbScale
 70
     0
300
1-1/2" = 1'-0"_XREF
140
1.5
141
12.0
290
     0
  0
SCALE
  5
13F2
102
{ACAD_REACTORS
330
2A1
102
}
330
2A1
100
AcDbScale
 70
     0
300
1:1000_XREF
140
1.0
141
1000.0
290
     0
  0
SCALE
  5
8457
102
{ACAD_REACTORS
330
2A1
102
}
330
2A1
100
AcDbScale
 70
     0
300
*1:250_XREF
140
1.0
141
250.0
290
     0
  0
SCALE
  5
5B8A
102
{ACAD_REACTORS
330
2A1
102
}
330
2A1
100
AcDbScale
 70
     0
300
10:1_XREF
140
10.0
141
1.0
290
     0
  0
SCALE
  5
13F3
102
{ACAD_REACTORS
330
2A1
102
}
330
2A1
100
AcDbScale
 70
     0
300
1:1250_XREF
140
1.0
141
1250.0
290
     0
  0
SCALE
  5
13E7
102
{ACAD_REACTORS
330
2A1
102
}
330
2A1
100
AcDbScale
 70
     0
300
1:10_XREF
140
1.0
141
10.0
290
     0
  0
SCALE
  5
845B
102
{ACAD_REACTORS
330
2A1
102
}
330
2A1
100
AcDbScale
 70
     0
300
*1:5000_XREF
140
1.0
141
5000.0
290
     0
  0
SCALE
  5
5B90
102
{ACAD_REACTORS
330
2A1
102
}
330
2A1
100
AcDbScale
 70
     0
300
1:40_XREF
140
1.0
141
40.0
290
     0
  0
SCALE
  5
13E8
102
{ACAD_REACTORS
330
2A1
102
}
330
2A1
100
AcDbScale
 70
     0
300
1:20_XREF
140
1.0
141
20.0
290
     0
  0
SCALE
  5
845E
102
{ACAD_REACTORS
330
2A1
102
}
330
2A1
100
AcDbScale
 70
     0
300
*1:40_XREF
140
1.0
141
40.0
290
     0
  0
SCALE
  5
5B95
102
{ACAD_REACTORS
330
2A1
102
}
330
2A1
100
AcDbScale
 70
     0
300
100:1_XREF
140
100.0
141
1.0
290
     0
  0
SCALE
  5
5B81
102
{ACAD_REACTORS
330
2A1
102
}
330
2A1
100
AcDbScale
 70
     0
300
1:4_XREF
140
1.0
141
4.0
290
     0
  0
SCALE
  5
A6E
102
{ACAD_REACTORS
330
2A1
102
}
330
2A1
100
AcDbScale
 70
     0
300
*1:1
140
1.0
141
1.0
290
     0
  0
SCALE
  5
A77
102
{ACAD_REACTORS
330
2A1
102
}
330
2A1
100
AcDbScale
 70
     0
300
*1:2.5
140
1.0
141
2.5
290
     0
  0
SCALE
  5
A78
102
{ACAD_REACTORS
330
2A1
102
}
330
2A1
100
AcDbScale
 70
     0
300
*1:25
140
1.0
141
25.0
290
     0
  0
SCALE
  5
A79
102
{ACAD_REACTORS
330
2A1
102
}
330
2A1
100
AcDbScale
 70
     0
300
*1:250
140
1.0
141
250.0
290
     0
  0
SCALE
  5
A7A
102
{ACAD_REACTORS
330
2A1
102
}
330
2A1
100
AcDbScale
 70
     0
300
*1:2500
140
1.0
141
2500.0
290
     0
  0
SCALE
  5
A7B
102
{ACAD_REACTORS
330
2A1
102
}
330
2A1
100
AcDbScale
 70
     0
300
*1:40
140
1.0
141
40.0
290
     0
  0
SCALE
  5
A7C
102
{ACAD_REACTORS
330
2A1
102
}
330
2A1
100
AcDbScale
 70
     0
300
*1:400
140
1.0
141
400.0
290
     0
  0
SCALE
  5
A7D
102
{ACAD_REACTORS
330
2A1
102
}
330
2A1
100
AcDbScale
 70
     0
300
*1:5
140
1.0
141
5.0
290
     0
  0
SCALE
  5
A7E
102
{ACAD_REACTORS
330
2A1
102
}
330
2A1
100
AcDbScale
 70
     0
300
*1:50
140
1.0
141
50.0
290
     0
  0
SCALE
  5
A7F
102
{ACAD_REACTORS
330
2A1
102
}
330
2A1
100
AcDbScale
 70
     0
300
*1:500
140
1.0
141
500.0
290
     0
  0
SCALE
  5
A80
102
{ACAD_REACTORS
330
2A1
102
}
330
2A1
100
AcDbScale
 70
     0
300
*1:5000
140
1.0
141
5000.0
290
     0
  0
SCALE
  5
A6F
102
{ACAD_REACTORS
330
2A1
102
}
330
2A1
100
AcDbScale
 70
     0
300
*1:10
140
1.0
141
10.0
290
     0
  0
SCALE
  5
A81
102
{ACAD_REACTORS
330
2A1
102
}
330
2A1
100
AcDbScale
 70
     0
300
*1:750
140
1.0
141
750.0
290
     0
  0
SCALE
  5
A82
102
{ACAD_REACTORS
330
2A1
102
}
330
2A1
100
AcDbScale
 70
     0
300
*1:8
140
1.0
141
8.0
290
     0
  0
SCALE
  5
A70
102
{ACAD_REACTORS
330
2A1
102
}
330
2A1
100
AcDbScale
 70
     0
300
*1:15
140
1.0
141
15.0
290
     0
  0
SCALE
  5
A71
102
{ACAD_REACTORS
330
2A1
102
}
330
2A1
100
AcDbScale
 70
     0
300
*1:100
140
1.0
141
100.0
290
     0
  0
SCALE
  5
A72
102
{ACAD_REACTORS
330
2A1
102
}
330
2A1
100
AcDbScale
 70
     0
300
*1:1000
140
1.0
141
1000.0
290
     0
  0
SCALE
  5
A73
102
{ACAD_REACTORS
330
2A1
102
}
330
2A1
100
AcDbScale
 70
     0
300
*1:2
140
1.0
141
2.0
290
     0
  0
SCALE
  5
A74
102
{ACAD_REACTORS
330
2A1
102
}
330
2A1
100
AcDbScale
 70
     0
300
*1:20
140
1.0
141
20.0
290
     0
  0
SCALE
  5
A75
102
{ACAD_REACTORS
330
2A1
102
}
330
2A1
100
AcDbScale
 70
     0
300
*1:200
140
1.0
141
200.0
290
     0
  0
SCALE
  5
A76
102
{ACAD_REACTORS
330
2A1
102
}
330
2A1
100
AcDbScale
 70
     0
300
*1:2000
140
1.0
141
2000.0
290
     0
  0
SCALE
  5
2A2
102
{ACAD_REACTORS
330
2A1
102
}
330
2A1
100
AcDbScale
 70
     0
300
1:1
140
1.0
141
1.0
290
     1
  0
TABLESTYLE
  5
B753
102
{ACAD_XDICTIONARY
360
B754
102
}
102
{ACAD_REACTORS
330
22B
102
}
330
22B
100
AcDbTableStyle
  3
Standard
 70
     0
 71
     0
 40
0.06
 41
0.06
280
     0
281
     0
  7
mp000096$0$Standard
140
0.18
170
     2
 62
     0
 63
     7
283
     0
 90
      512
 91
        0
  1

274
    -2
284
     1
 64
     0
275
    -2
285
     1
 65
     0
276
    -2
286
     1
 66
     0
277
    -2
287
     1
 67
     0
278
    -2
288
     1
 68
     0
279
    -2
289
     1
 69
     0
  7
mp000096$0$Standard
140
0.25
170
     5
 62
     0
 63
     7
283
     0
 90
      512
 91
        0
  1

274
    -2
284
     1
 64
     0
275
    -2
285
     1
 65
     0
276
    -2
286
     1
 66
     0
277
    -2
287
     1
 67
     0
278
    -2
288
     1
 68
     0
279
    -2
289
     1
 69
     0
  7
mp000096$0$Standard
140
0.18
170
     5
 62
     0
 63
     7
283
     0
 90
      512
 91
        0
  1

274
    -2
284
     1
 64
     0
275
    -2
285
     1
 65
     0
276
    -2
286
     1
 66
     0
277
    -2
287
     1
 67
     0
278
    -2
288
     1
 68
     0
279
    -2
289
     1
 69
     0
  0
TABLESTYLE
  5
B7E0
102
{ACAD_XDICTIONARY
360
B7E1
102
}
102
{ACAD_REACTORS
330
22B
102
}
330
22B
100
AcDbTableStyle
  3
Standard
 70
     0
 71
     0
 40
0.06
 41
0.06
280
     0
281
     0
  7
mp001241$0$Standard
140
0.18
170
     2
 62
     0
 63
     7
283
     0
 90
      512
 91
        0
  1

274
    -2
284
     1
 64
     0
275
    -2
285
     1
 65
     0
276
    -2
286
     1
 66
     0
277
    -2
287
     1
 67
     0
278
    -2
288
     1
 68
     0
279
    -2
289
     1
 69
     0
  7
mp001241$0$Standard
140
0.25
170
     5
 62
     0
 63
     7
283
     0
 90
      512
 91
        0
  1

274
    -2
284
     1
 64
     0
275
    -2
285
     1
 65
     0
276
    -2
286
     1
 66
     0
277
    -2
287
     1
 67
     0
278
    -2
288
     1
 68
     0
279
    -2
289
     1
 69
     0
  7
mp001241$0$Standard
140
0.18
170
     5
 62
     0
 63
     7
283
     0
 90
      512
 91
        0
  1

274
    -2
284
     1
 64
     0
275
    -2
285
     1
 65
     0
276
    -2
286
     1
 66
     0
277
    -2
287
     1
 67
     0
278
    -2
288
     1
 68
     0
279
    -2
289
     1
 69
     0
  0
TABLESTYLE
  5
22C
102
{ACAD_XDICTIONARY
360
30E
102
}
102
{ACAD_REACTORS
330
22B
102
}
330
22B
100
AcDbTableStyle
  3
Standard
 70
     0
 71
     0
 40
0.06
 41
0.06
280
     0
281
     0
  7
Standard
140
0.18
170
     2
 62
     0
 63
     7
283
     0
 90
      512
 91
        0
  1

274
    -2
284
     1
 64
     0
275
    -2
285
     1
 65
     0
276
    -2
286
     1
 66
     0
277
    -2
287
     1
 67
     0
278
    -2
288
     1
 68
     0
279
    -2
289
     1
 69
     0
  7
Standard
140
0.25
170
     5
 62
     0
 63
     7
283
     0
 90
      512
 91
        0
  1

274
    -2
284
     1
 64
     0
275
    -2
285
     1
 65
     0
276
    -2
286
     1
 66
     0
277
    -2
287
     1
 67
     0
278
    -2
288
     1
 68
     0
279
    -2
289
     1
 69
     0
  7
Standard
140
0.18
170
     5
 62
     0
 63
     7
283
     0
 90
      512
 91
        0
  1

274
    -2
284
     1
 64
     0
275
    -2
285
     1
 65
     0
276
    -2
286
     1
 66
     0
277
    -2
287
     1
 67
     0
278
    -2
288
     1
 68
     0
279
    -2
289
     1
 69
     0
  0
VISUALSTYLE
  5
220
102
{ACAD_REACTORS
330
21A
102
}
330
21A
100
AcDbVisualStyle
  2
2dWireframe
 70
     4
 71
     0
 72
     2
 73
     1
 90
        0
 40
-0.6
 41
-30.0
 62
     5
 63
     7
421
 16777215
 74
     1
 91
        4
 64
     7
 65
   257
 75
     1
175
     1
 42
1.0
 92
        0
 66
   257
 43
1.0
 76
     1
 77
     6
 78
     2
 67
     7
 79
     5
170
     0
171
     0
290
     0
174
     0
 93
        1
 44
0.0
173
     0
291
     0
 45
0.0
  0
VISUALSTYLE
  5
222
102
{ACAD_REACTORS
330
21A
102
}
330
21A
100
AcDbVisualStyle
  2
3D Hidden
 70
     6
 71
     1
 72
     2
 73
     2
 90
        0
 40
-0.6
 41
-30.0
 62
     5
 63
     7
421
 16777215
 74
     2
 91
       10
 64
     7
 65
   257
 75
     2
175
     2
 42
40.0
 92
        0
 66
   257
 43
1.0
 76
     1
 77
     6
 78
     2
 67
     7
 79
     3
170
     0
171
     0
290
     0
174
     0
 93
        1
 44
0.0
173
     0
291
     0
 45
0.0
  0
VISUALSTYLE
  5
221
102
{ACAD_REACTORS
330
21A
102
}
330
21A
100
AcDbVisualStyle
  2
3dWireframe
 70
     5
 71
     0
 72
     2
 73
     1
 90
        0
 40
-0.6
 41
-30.0
 62
     5
 63
     7
421
 16777215
 74
     1
 91
        4
 64
     7
 65
   257
 75
     1
175
     1
 42
1.0
 92
        0
 66
   257
 43
1.0
 76
     1
 77
     6
 78
     2
 67
     7
 79
     5
170
     0
171
     0
290
     0
174
     0
 93
        1
 44
0.0
173
     0
291
     0
 45
0.0
  0
VISUALSTYLE
  5
21F
102
{ACAD_REACTORS
330
21A
102
}
330
21A
100
AcDbVisualStyle
  2
Basic
 70
     7
 71
     1
 72
     0
 73
     1
 90
        0
 40
-0.6
 41
-30.0
 62
     5
 63
     7
421
 16777215
 74
     0
 91
        4
 64
     7
 65
   257
 75
     1
175
     1
 42
1.0
 92
        8
 66
     7
 43
1.0
 76
     1
 77
     6
 78
     2
 67
     7
 79
     5
170
     0
171
     0
290
     0
174
     0
 93
        1
 44
0.0
173
     0
291
     1
 45
0.0
  0
VISUALSTYLE
  5
226
102
{ACAD_REACTORS
330
21A
102
}
330
21A
100
AcDbVisualStyle
  2
Brighten
 70
    12
 71
     2
 72
     2
 73
     1
 90
        0
 40
-0.6
 41
-30.0
 62
     5
 63
     7
421
 16777215
 74
     1
 91
        4
 64
     7
 65
   257
 75
     1
175
     1
 42
1.0
 92
        8
 66
     7
 43
1.0
 76
     1
 77
     6
 78
     2
 67
     7
 79
     5
170
     0
171
     0
290
     0
174
     0
 93
        1
 44
50.0
173
     0
291
     1
 45
0.0
  0
VISUALSTYLE
  5
22A
102
{ACAD_REACTORS
330
21A
102
}
330
21A
100
AcDbVisualStyle
  2
ColorChange
 70
    16
 71
     2
 72
     2
 73
     3
 90
        0
 40
-0.6
 41
-30.0
 62
     5
 63
     8
421
  8421504
 74
     1
 91
        4
 64
     7
 65
   257
 75
     1
175
     1
 42
1.0
 92
        8
 66
     8
424
  8421504
 43
1.0
 76
     1
 77
     6
 78
     2
 67
     7
 79
     5
170
     0
171
     0
290
     0
174
     0
 93
        1
 44
0.0
173
     0
291
     1
 45
0.0
  0
VISUALSTYLE
  5
223
102
{ACAD_XDICTIONARY
360
811
102
}
102
{ACAD_REACTORS
330
21A
102
}
330
21A
100
AcDbVisualStyle
  2
Conceptual
 70
     9
 71
     2
 72
     2
 73
     1
 90
        0
 40
-0.6
 41
-30.0
 62
     5
 63
     7
421
 16777215
 74
     0
 91
        0
 64
     7
 65
   257
 75
     1
175
     1
 42
40.0
 92
        8
 66
     7
 43
1.0
 76
     1
 77
     6
 78
     2
 67
     7
 79
     5
170
     0
171
     0
290
     0
174
     0
 93
       12
 44
0.0
173
     0
291
     0
 45
0.0
  0
VISUALSTYLE
  5
225
102
{ACAD_REACTORS
330
21A
102
}
330
21A
100
AcDbVisualStyle
  2
Dim
 70
    11
 71
     2
 72
     2
 73
     1
 90
        0
 40
-0.6
 41
-30.0
 62
     5
 63
     7
421
 16777215
 74
     1
 91
        4
 64
     7
 65
   257
 75
     1
175
     1
 42
1.0
 92
        8
 66
     7
 43
1.0
 76
     1
 77
     6
 78
     2
 67
     7
 79
     5
170
     0
171
     0
290
     0
174
     0
 93
        1
 44
-50.0
173
     0
291
     1
 45
0.0
  0
VISUALSTYLE
  5
229
102
{ACAD_REACTORS
330
21A
102
}
330
21A
100
AcDbVisualStyle
  2
Facepattern
 70
    15
 71
     2
 72
     2
 73
     1
 90
        0
 40
-0.6
 41
-30.0
 62
     5
 63
     7
421
 16777215
 74
     1
 91
        4
 64
     7
 65
   257
 75
     1
175
     1
 42
1.0
 92
        8
 66
     7
 43
1.0
 76
     1
 77
     6
 78
     2
 67
     7
 79
     5
170
     0
171
     0
290
     0
174
     0
 93
        1
 44
0.0
173
     0
291
     1
 45
0.0
  0
VISUALSTYLE
  5
21B
102
{ACAD_REACTORS
330
21A
102
}
330
21A
100
AcDbVisualStyle
  2
Flat
 70
     0
 71
     2
 72
     1
 73
     1
 90
        2
 40
-0.6
 41
30.0
 62
     5
 63
     7
421
 16777215
 74
     0
 91
        4
 64
     7
 65
   257
 75
     1
175
     1
 42
1.0
 92
        8
 66
     7
 43
1.0
 76
     1
 77
     6
 78
     2
 67
     7
 79
     5
170
     0
171
     0
290
     0
174
     0
 93
        1
 44
0.0
173
     0
291
     1
 45
0.0
  0
VISUALSTYLE
  5
21C
102
{ACAD_REACTORS
330
21A
102
}
330
21A
100
AcDbVisualStyle
  2
FlatWithEdges
 70
     1
 71
     2
 72
     1
 73
     1
 90
        2
 40
-0.6
 41
30.0
 62
     5
 63
     7
421
 16777215
 74
     1
 91
        4
 64
     7
 65
   257
 75
     1
175
     1
 42
1.0
 92
        0
 66
   257
 43
1.0
 76
     1
 77
     6
 78
     2
 67
     7
 79
     5
170
     0
171
     0
290
     0
174
     0
 93
        1
 44
0.0
173
     0
291
     1
 45
0.0
  0
VISUALSTYLE
  5
21D
102
{ACAD_REACTORS
330
21A
102
}
330
21A
100
AcDbVisualStyle
  2
Gouraud
 70
     2
 71
     2
 72
     2
 73
     1
 90
        2
 40
-0.6
 41
30.0
 62
     5
 63
     7
421
 16777215
 74
     0
 91
        4
 64
     7
 65
   257
 75
     1
175
     1
 42
1.0
 92
        0
 66
     7
 43
1.0
 76
     1
 77
     6
 78
     2
 67
     7
 79
     5
170
     0
171
     0
290
     0
174
     0
 93
        1
 44
0.0
173
     0
291
     1
 45
0.0
  0
VISUALSTYLE
  5
21E
102
{ACAD_REACTORS
330
21A
102
}
330
21A
100
AcDbVisualStyle
  2
GouraudWithEdges
 70
     3
 71
     2
 72
     2
 73
     1
 90
        2
 40
-0.6
 41
30.0
 62
     5
 63
     7
421
 16777215
 74
     1
 91
        4
 64
     7
 65
   257
 75
     1
175
     1
 42
1.0
 92
        0
 66
   257
 43
1.0
 76
     1
 77
     6
 78
     2
 67
     7
 79
     5
170
     0
171
     0
290
     0
174
     0
 93
        1
 44
0.0
173
     0
291
     1
 45
0.0
  0
VISUALSTYLE
  5
228
102
{ACAD_REACTORS
330
21A
102
}
330
21A
100
AcDbVisualStyle
  2
Linepattern
 70
    14
 71
     2
 72
     2
 73
     1
 90
        0
 40
-0.6
 41
-30.0
 62
     5
 63
     7
421
 16777215
 74
     1
 91
        4
 64
     7
 65
   257
 75
     7
175
     7
 42
1.0
 92
        8
 66
     7
 43
1.0
 76
     1
 77
     6
 78
     2
 67
     7
 79
     5
170
     0
171
     0
290
     0
174
     0
 93
        1
 44
0.0
173
     0
291
     1
 45
0.0
  0
VISUALSTYLE
  5
224
102
{ACAD_REACTORS
330
21A
102
}
330
21A
100
AcDbVisualStyle
  2
Realistic
 70
     8
 71
     2
 72
     2
 73
     1
 90
        0
 40
-0.6
 41
-30.0
 62
     5
 63
     7
421
 16777215
 74
     1
 91
        0
 64
     7
 65
   257
 75
     1
175
     1
 42
1.0
 92
        8
 66
     7
 43
1.0
 76
     1
 77
     6
 78
     2
 67
     7
 79
     5
170
     0
171
     0
290
     0
174
     0
 93
       13
 44
0.0
173
     0
291
     0
 45
0.0
  0
VISUALSTYLE
  5
227
102
{ACAD_REACTORS
330
21A
102
}
330
21A
100
AcDbVisualStyle
  2
Thicken
 70
    13
 71
     2
 72
     2
 73
     1
 90
        0
 40
-0.6
 41
-30.0
 62
     5
 63
     7
421
 16777215
 74
     1
 91
        4
 64
     7
 65
   257
 75
     1
175
     1
 42
1.0
 92
       12
 66
     7
 43
1.0
 76
     1
 77
     6
 78
     2
 67
     7
 79
     5
170
     0
171
     0
290
     0
174
     0
 93
        1
 44
0.0
173
     0
291
     1
 45
0.0
  0
DICTIONARY
  5
A22
102
{ACAD_REACTORS
330
A21
102
}
330
A21
100
AcDbDictionary
280
     1
281
     1
  3
DefaultStandard
360
A38
  3
Standards
360
A23
  0
DICTIONARYVAR
  5
313
102
{ACAD_REACTORS
330
25B
102
}
330
25B
100
DictionaryVariables
280
     0
  1
*1:25
  0
DICTIONARYVAR
  5
311
102
{ACAD_REACTORS
330
25B
102
}
330
25B
100
DictionaryVariables
280
     0
  1
2mm
  0
DICTIONARYVAR
  5
25C
102
{ACAD_REACTORS
330
25B
102
}
330
25B
100
DictionaryVariables
280
     0
  1
STANDARD
  0
DICTIONARYVAR
  5
315
102
{ACAD_REACTORS
330
25B
102
}
330
25B
100
DictionaryVariables
280
     0
  1
1
  0
DICTIONARYVAR
  5
316
102
{ACAD_REACTORS
330
25B
102
}
330
25B
100
DictionaryVariables
280
     0
  1
15
  0
DICTIONARYVAR
  5
314
102
{ACAD_REACTORS
330
25B
102
}
330
25B
100
DictionaryVariables
280
     0
  1
0
  0
DICTIONARYVAR
  5
A3E
102
{ACAD_REACTORS
330
25B
102
}
330
25B
100
DictionaryVariables
280
     0
  1
0.000000
  0
DICTIONARYVAR
  5
312
102
{ACAD_REACTORS
330
25B
102
}
330
25B
100
DictionaryVariables
280
     0
  1
0
  0
XRECORD
  5
3E44
102
{ACAD_REACTORS
330
3E43
102
}
330
3E43
100
AcDbXrecord
280
     1
330
0
330
0
330
0
  0
XRECORD
  5
3D97
102
{ACAD_XDICTIONARY
360
3D98
102
}
102
{ACAD_REACTORS
330
290
102
}
330
290
100
AcDbXrecord
280
     1
 91
      514
301

290
     0
302
0
330
0
 90
        8
 62
     7
370
    -3
331
16
  1
Color_7
330
0
 90
        8
 62
     7
370
    -3
331
16
  1
Color_7
330
0
 90
        8
 62
     7
370
    -3
331
16
  1
Color_7
330
0
 90
        0
 62
    30
370
    -3
331
16
  1
Color_30
330
0
 90
        8
 62
   252
370
    -3
331
16
  1
Color_252
330
0
 90
        8
 62
     3
370
    30
331
16
  1
Color_3
330
0
 90
        8
 62
   253
370
    -3
331
16
  1
Color_253
330
0
 90
        8
 62
     1
370
    -3
331
16
  1
Color_1
330
0
 90
        0
 62
     5
370
    -3
331
16
  1
Color_5
330
0
 90
        8
 62
     2
370
    -3
331
16
  1
Color_2
330
0
 90
        0
 62
   178
370
    -3
331
16
  1
Color_178
 92
-1039794079
330
0
 90
        8
 62
     7
370
    -3
331
16
  1
Color_7
330
0
 90
        8
 62
     7
370
    -3
331
16
  1
Color_7
330
0
 90
        8
 62
     7
370
    -3
331
16
  1
Color_7
330
0
 90
        8
 62
     7
370
    -3
331
16
  1
Color_7
330
0
 90
        8
 62
     7
370
    -3
331
16
  1
Color_7
330
0
 90
        0
 62
     4
370
    -3
331
16
  1
Color_4
330
0
 90
        0
 62
     7
370
    -3
331
16
  1
Color_7
330
37D
 90
        0
 62
     7
370
    -3
331
16
  1
Color_7
330
10
 90
        8
 62
     7
370
    -3
331
16
  1
Color_7
330
0
 90
       10
 62
     7
370
    -3
331
16
  1
Color_7
330
0
 90
       10
 62
     7
370
    -3
331
16
  1
Color_7
330
0
 90
       10
 62
     7
370
    -3
331
16
  1
Color_7
330
0
 90
       10
 62
     7
370
    -3
331
16
  1
Color_7
330
0
 90
       10
 62
     7
370
    -3
331
16
  1
Color_7
330
0
 90
       10
 62
     7
370
    -3
331
16
  1
Color_7
330
0
 90
       10
 62
     7
370
    -3
331
16
  1
Color_7
330
0
 90
       10
 62
     7
370
    -3
331
16
  1
Color_7
330
0
 90
       10
 62
     7
370
    -3
331
16
  1
Color_7
330
0
 90
       10
 62
     7
370
    -3
331
16
  1
Color_7
330
0
 90
       10
 62
     7
370
    -3
331
16
  1
Color_7
330
0
 90
       10
 62
     7
370
    -3
331
16
  1
Color_7
330
0
 90
       10
 62
     7
370
    -3
331
16
  1
Color_7
330
0
 90
       10
 62
     7
370
    -3
331
16
  1
Color_7
330
0
 90
       10
 62
     7
370
    -3
331
16
  1
Color_7
330
0
 90
       10
 62
     7
370
    -3
331
16
  1
Color_7
330
0
 90
       10
 62
     7
370
    -3
331
16
  1
Color_7
330
0
 90
       10
 62
     7
370
    -3
331
16
  1
Color_7
330
0
 90
       10
 62
     7
370
    -3
331
16
  1
Color_7
330
0
 90
       10
 62
     7
370
    -3
331
16
  1
Color_7
330
0
 90
       10
 62
     7
370
    -3
331
16
  1
Color_7
330
0
 90
        2
 62
     7
370
    -3
331
16
  1
Color_7
330
0
 90
       10
 62
     7
370
    -3
331
16
  1
Color_7
330
0
 90
        2
 62
     7
370
    -3
331
16
  1
Color_7
330
0
 90
       10
 62
     7
370
    -3
331
16
  1
Color_7
330
0
 90
        2
 62
     7
370
    -3
331
16
  1
Color_7
330
0
 90
       10
 62
     7
370
    -3
331
16
  1
Color_7
330
0
 90
       10
 62
     7
370
    -3
331
16
  1
Color_7
330
0
 90
        2
 62
     7
370
    -3
331
16
  1
Color_7
330
0
 90
       10
 62
     7
370
    -3
331
16
  1
Color_7
330
0
 90
       10
 62
     7
370
    -3
331
16
  1
Color_7
330
0
 90
        2
 62
     7
370
    -3
331
16
  1
Color_7
330
0
 90
       10
 62
     7
370
    -3
331
16
  1
Color_7
330
0
 90
       10
 62
     7
370
    -3
331
16
  1
Color_7
330
0
 90
        2
 62
     7
370
    -3
331
16
  1
Color_7
330
0
 90
       10
 62
     7
370
    -3
331
16
  1
Color_7
330
0
 90
       10
 62
     7
370
    -3
331
16
  1
Color_7
330
0
 90
        2
 62
     7
370
    -3
331
16
  1
Color_7
330
0
 90
       10
 62
     7
370
    -3
331
16
  1
Color_7
330
0
 90
       10
 62
     7
370
    -3
331
16
  1
Color_7
330
0
 90
        2
 62
     7
370
    -3
331
16
  1
Color_7
330
0
 90
       10
 62
     7
370
    -3
331
16
  1
Color_7
330
0
 90
       10
 62
     7
370
    -3
331
16
  1
Color_7
330
0
 90
        2
 62
     7
370
    -3
331
16
  1
Color_7
330
0
 90
       10
 62
     7
370
    -3
331
16
  1
Color_7
330
0
 90
       10
 62
     7
370
    -3
331
16
  1
Color_7
330
0
 90
        2
 62
     7
370
    -3
331
16
  1
Color_7
330
0
 90
       10
 62
     7
370
    -3
331
16
  1
Color_7
330
0
 90
       10
 62
     7
370
    -3
331
16
  1
Color_7
330
0
 90
        2
 62
     7
370
    -3
331
16
  1
Color_7
330
0
 90
       10
 62
     7
370
    -3
331
16
  1
Color_7
330
0
 90
       10
 62
     7
370
    -3
331
16
  1
Color_7
330
0
 90
        2
 62
     7
370
    -3
331
16
  1
Color_7
330
0
 90
       10
 62
     7
370
    -3
331
16
  1
Color_7
330
0
 90
       10
 62
     7
370
    -3
331
16
  1
Color_7
330
0
 90
        2
 62
     7
370
    -3
331
16
  1
Color_7
330
0
 90
       10
 62
     7
370
    -3
331
16
  1
Color_7
330
0
 90
       10
 62
     7
370
    -3
331
16
  1
Color_7
330
0
 90
        2
 62
     7
370
    -3
331
16
  1
Color_7
330
0
 90
       10
 62
     7
370
    -3
331
16
  1
Color_7
330
0
 90
       10
 62
     7
370
    -3
331
16
  1
Color_7
330
0
 90
        2
 62
     7
370
    -3
331
16
  1
Color_7
330
0
 90
       10
 62
     7
370
    -3
331
16
  1
Color_7
330
0
 90
       10
 62
     7
370
    -3
331
16
  1
Color_7
330
0
 90
        2
 62
     7
370
    -3
331
16
  1
Color_7
330
0
 90
       10
 62
     7
370
    -3
331
16
  1
Color_7
330
0
 90
       10
 62
     7
370
    -3
331
16
  1
Color_7
330
0
 90
        2
 62
     7
370
    -3
331
16
  1
Color_7
330
0
 90
       10
 62
     7
370
    -3
331
16
  1
Color_7
330
0
 90
       10
 62
     7
370
    -3
331
16
  1
Color_7
330
0
 90
        2
 62
     7
370
    -3
331
16
  1
Color_7
330
0
 90
       10
 62
     7
370
    -3
331
16
  1
Color_7
330
0
 90
       10
 62
     7
370
    -3
331
16
  1
Color_7
330
0
 90
        2
 62
     7
370
    -3
331
16
  1
Color_7
330
0
 90
       10
 62
     7
370
    -3
331
16
  1
Color_7
330
0
 90
       10
 62
     7
370
    -3
331
16
  1
Color_7
330
0
 90
        2
 62
     7
370
    -3
331
16
  1
Color_7
330
0
 90
       10
 62
     7
370
    -3
331
16
  1
Color_7
330
0
 90
       10
 62
     7
370
    -3
331
16
  1
Color_7
330
0
 90
        2
 62
     7
370
    -3
331
16
  1
Color_7
330
0
 90
       10
 62
     7
370
    -3
331
16
  1
Color_7
330
0
 90
       10
 62
     7
370
    -3
331
16
  1
Color_7
330
0
 90
        2
 62
     7
370
    -3
331
16
  1
Color_7
330
0
 90
       10
 62
     7
370
    -3
331
16
  1
Color_7
330
0
 90
       10
 62
     7
370
    -3
331
16
  1
Color_7
330
0
 90
        2
 62
     7
370
    -3
331
16
  1
Color_7
330
0
 90
       10
 62
     7
370
    -3
331
16
  1
Color_7
330
0
 90
       10
 62
     7
370
    -3
331
16
  1
Color_7
330
0
 90
        2
 62
     7
370
    -3
331
16
  1
Color_7
330
0
 90
       10
 62
     7
370
    -3
331
16
  1
Color_7
330
0
 90
       10
 62
     7
370
    -3
331
16
  1
Color_7
330
0
 90
        2
 62
     7
370
    -3
331
16
  1
Color_7
330
0
 90
       10
 62
     7
370
    -3
331
16
  1
Color_7
330
0
 90
       10
 62
     7
370
    -3
331
16
  1
Color_7
330
0
 90
        2
 62
     7
370
    -3
331
16
  1
Color_7
330
0
 90
       10
 62
     7
370
    -3
331
16
  1
Color_7
330
0
 90
       10
 62
     7
370
    -3
331
16
  1
Color_7
330
0
 90
        2
 62
     7
370
    -3
331
16
  1
Color_7
330
0
 90
       10
 62
     7
370
    -3
331
16
  1
Color_7
330
0
 90
       10
 62
     7
370
    -3
331
16
  1
Color_7
330
0
 90
        2
 62
     7
370
    -3
331
16
  1
Color_7
330
0
 90
       10
 62
     7
370
    -3
331
16
  1
Color_7
330
0
 90
       10
 62
     7
370
    -3
331
16
  1
Color_7
330
0
 90
        2
 62
     7
370
    -3
331
16
  1
Color_7
330
0
 90
       10
 62
     7
370
    -3
331
16
  1
Color_7
330
0
 90
       10
 62
     7
370
    -3
331
16
  1
Color_7
330
0
 90
        2
 62
     7
370
    -3
331
16
  1
Color_7
330
0
 90
       10
 62
     7
370
    -3
331
16
  1
Color_7
330
0
 90
       10
 62
     7
370
    -3
331
16
  1
Color_7
330
0
 90
        2
 62
     7
370
    -3
331
16
  1
Color_7
330
0
 90
       10
 62
     7
370
    -3
331
16
  1
Color_7
330
0
 90
       10
 62
     7
370
    -3
331
16
  1
Color_7
330
0
 90
        2
 62
     7
370
    -3
331
16
  1
Color_7
330
0
 90
       10
 62
     7
370
    -3
331
16
  1
Color_7
330
0
 90
       10
 62
     7
370
    -3
331
16
  1
Color_7
330
0
 90
        2
 62
     7
370
    -3
331
16
  1
Color_7
330
0
 90
       10
 62
     7
370
    -3
331
16
  1
Color_7
330
0
 90
       10
 62
     7
370
    -3
331
16
  1
Color_7
330
0
 90
        2
 62
     7
370
    -3
331
16
  1
Color_7
330
0
 90
       10
 62
     7
370
    -3
331
16
  1
Color_7
330
0
 90
       10
 62
     7
370
    -3
331
16
  1
Color_7
330
0
 90
        2
 62
     7
370
    -3
331
16
  1
Color_7
330
0
 90
       10
 62
     7
370
    -3
331
16
  1
Color_7
330
0
 90
       10
 62
     7
370
    -3
331
16
  1
Color_7
330
0
 90
        2
 62
     7
370
    -3
331
16
  1
Color_7
330
0
 90
       10
 62
     7
370
    -3
331
16
  1
Color_7
330
0
 90
       10
 62
     7
370
    -3
331
16
  1
Color_7
  0
XRECORD
  5
3D8B
102
{ACAD_XDICTIONARY
360
3D8C
102
}
102
{ACAD_REACTORS
330
290
102
}
330
290
100
AcDbXrecord
280
     1
 91
      514
301

290
     0
302
0
330
0
 90
       10
 62
     7
370
    -3
331
16
  1
Color_7
330
0
 90
       10
 62
     7
370
    -3
331
16
  1
Color_7
330
0
 90
       10
 62
     7
370
    -3
331
16
  1
Color_7
330
0
 90
        2
 62
    30
370
    -3
331
16
  1
Color_30
330
0
 90
       10
 62
   252
370
    -3
331
16
  1
Color_252
330
0
 90
       10
 62
     3
370
    30
331
16
  1
Color_3
330
0
 90
       10
 62
   253
370
    -3
331
16
  1
Color_253
330
0
 90
       10
 62
     1
370
    -3
331
16
  1
Color_1
330
0
 90
        2
 62
     5
370
    -3
331
16
  1
Color_5
330
0
 90
       10
 62
     2
370
    -3
331
16
  1
Color_2
330
0
 90
        2
 62
   178
370
    -3
331
16
  1
Color_178
 92
-1039794079
330
0
 90
       10
 62
     7
370
    -3
331
16
  1
Color_7
330
0
 90
       10
 62
     7
370
    -3
331
16
  1
Color_7
330
0
 90
       10
 62
     7
370
    -3
331
16
  1
Color_7
330
0
 90
       10
 62
     7
370
    -3
331
16
  1
Color_7
330
0
 90
       10
 62
     7
370
    -3
331
16
  1
Color_7
330
0
 90
        2
 62
     4
370
    -3
331
16
  1
Color_4
330
0
 90
        2
 62
     7
370
    -3
331
16
  1
Color_7
330
10
 90
        8
 62
     7
370
    -3
331
16
  1
Color_7
330
37D
 90
        0
 62
     7
370
    -3
331
16
  1
Color_7
330
0
 90
       10
 62
     7
370
    -3
331
16
  1
Color_7
330
0
 90
       10
 62
     7
370
    -3
331
16
  1
Color_7
330
0
 90
       10
 62
     7
370
    -3
331
16
  1
Color_7
330
0
 90
       10
 62
     7
370
    -3
331
16
  1
Color_7
330
0
 90
       10
 62
     7
370
    -3
331
16
  1
Color_7
330
0
 90
       10
 62
     7
370
    -3
331
16
  1
Color_7
330
0
 90
       10
 62
     7
370
    -3
331
16
  1
Color_7
330
0
 90
       10
 62
     7
370
    -3
331
16
  1
Color_7
330
0
 90
       10
 62
     7
370
    -3
331
16
  1
Color_7
330
0
 90
       10
 62
     7
370
    -3
331
16
  1
Color_7
330
0
 90
       10
 62
     7
370
    -3
331
16
  1
Color_7
330
0
 90
       10
 62
     7
370
    -3
331
16
  1
Color_7
330
0
 90
       10
 62
     7
370
    -3
331
16
  1
Color_7
330
0
 90
       10
 62
     7
370
    -3
331
16
  1
Color_7
330
0
 90
       10
 62
     7
370
    -3
331
16
  1
Color_7
330
0
 90
       10
 62
     7
370
    -3
331
16
  1
Color_7
330
0
 90
       10
 62
     7
370
    -3
331
16
  1
Color_7
330
0
 90
       10
 62
     7
370
    -3
331
16
  1
Color_7
330
0
 90
       10
 62
     7
370
    -3
331
16
  1
Color_7
330
0
 90
       10
 62
     7
370
    -3
331
16
  1
Color_7
330
0
 90
       10
 62
     7
370
    -3
331
16
  1
Color_7
330
0
 90
        2
 62
     7
370
    -3
331
16
  1
Color_7
330
0
 90
       10
 62
     7
370
    -3
331
16
  1
Color_7
330
0
 90
        2
 62
     7
370
    -3
331
16
  1
Color_7
330
0
 90
       10
 62
     7
370
    -3
331
16
  1
Color_7
330
0
 90
        2
 62
     7
370
    -3
331
16
  1
Color_7
330
0
 90
       10
 62
     7
370
    -3
331
16
  1
Color_7
330
0
 90
       10
 62
     7
370
    -3
331
16
  1
Color_7
330
0
 90
        2
 62
     7
370
    -3
331
16
  1
Color_7
330
0
 90
       10
 62
     7
370
    -3
331
16
  1
Color_7
330
0
 90
       10
 62
     7
370
    -3
331
16
  1
Color_7
330
0
 90
        2
 62
     7
370
    -3
331
16
  1
Color_7
330
0
 90
       10
 62
     7
370
    -3
331
16
  1
Color_7
330
0
 90
       10
 62
     7
370
    -3
331
16
  1
Color_7
330
0
 90
        2
 62
     7
370
    -3
331
16
  1
Color_7
330
0
 90
       10
 62
     7
370
    -3
331
16
  1
Color_7
330
0
 90
       10
 62
     7
370
    -3
331
16
  1
Color_7
330
0
 90
        2
 62
     7
370
    -3
331
16
  1
Color_7
330
0
 90
       10
 62
     7
370
    -3
331
16
  1
Color_7
330
0
 90
       10
 62
     7
370
    -3
331
16
  1
Color_7
330
0
 90
        2
 62
     7
370
    -3
331
16
  1
Color_7
330
0
 90
       10
 62
     7
370
    -3
331
16
  1
Color_7
330
0
 90
       10
 62
     7
370
    -3
331
16
  1
Color_7
330
0
 90
        2
 62
     7
370
    -3
331
16
  1
Color_7
330
0
 90
       10
 62
     7
370
    -3
331
16
  1
Color_7
330
0
 90
       10
 62
     7
370
    -3
331
16
  1
Color_7
330
0
 90
        2
 62
     7
370
    -3
331
16
  1
Color_7
330
0
 90
       10
 62
     7
370
    -3
331
16
  1
Color_7
330
0
 90
       10
 62
     7
370
    -3
331
16
  1
Color_7
330
0
 90
        2
 62
     7
370
    -3
331
16
  1
Color_7
330
0
 90
       10
 62
     7
370
    -3
331
16
  1
Color_7
330
0
 90
       10
 62
     7
370
    -3
331
16
  1
Color_7
330
0
 90
        2
 62
     7
370
    -3
331
16
  1
Color_7
330
0
 90
       10
 62
     7
370
    -3
331
16
  1
Color_7
330
0
 90
       10
 62
     7
370
    -3
331
16
  1
Color_7
330
0
 90
        2
 62
     7
370
    -3
331
16
  1
Color_7
330
0
 90
       10
 62
     7
370
    -3
331
16
  1
Color_7
330
0
 90
       10
 62
     7
370
    -3
331
16
  1
Color_7
330
0
 90
        2
 62
     7
370
    -3
331
16
  1
Color_7
330
0
 90
       10
 62
     7
370
    -3
331
16
  1
Color_7
330
0
 90
       10
 62
     7
370
    -3
331
16
  1
Color_7
330
0
 90
        2
 62
     7
370
    -3
331
16
  1
Color_7
330
0
 90
       10
 62
     7
370
    -3
331
16
  1
Color_7
330
0
 90
       10
 62
     7
370
    -3
331
16
  1
Color_7
330
0
 90
        2
 62
     7
370
    -3
331
16
  1
Color_7
330
0
 90
       10
 62
     7
370
    -3
331
16
  1
Color_7
330
0
 90
       10
 62
     7
370
    -3
331
16
  1
Color_7
330
0
 90
        2
 62
     7
370
    -3
331
16
  1
Color_7
330
0
 90
       10
 62
     7
370
    -3
331
16
  1
Color_7
330
0
 90
       10
 62
     7
370
    -3
331
16
  1
Color_7
330
0
 90
        2
 62
     7
370
    -3
331
16
  1
Color_7
330
0
 90
       10
 62
     7
370
    -3
331
16
  1
Color_7
330
0
 90
       10
 62
     7
370
    -3
331
16
  1
Color_7
330
0
 90
        2
 62
     7
370
    -3
331
16
  1
Color_7
330
0
 90
       10
 62
     7
370
    -3
331
16
  1
Color_7
330
0
 90
       10
 62
     7
370
    -3
331
16
  1
Color_7
330
0
 90
        2
 62
     7
370
    -3
331
16
  1
Color_7
330
0
 90
       10
 62
     7
370
    -3
331
16
  1
Color_7
330
0
 90
       10
 62
     7
370
    -3
331
16
  1
Color_7
330
0
 90
        2
 62
     7
370
    -3
331
16
  1
Color_7
330
0
 90
       10
 62
     7
370
    -3
331
16
  1
Color_7
330
0
 90
       10
 62
     7
370
    -3
331
16
  1
Color_7
330
0
 90
        2
 62
     7
370
    -3
331
16
  1
Color_7
330
0
 90
       10
 62
     7
370
    -3
331
16
  1
Color_7
330
0
 90
       10
 62
     7
370
    -3
331
16
  1
Color_7
330
0
 90
        2
 62
     7
370
    -3
331
16
  1
Color_7
330
0
 90
       10
 62
     7
370
    -3
331
16
  1
Color_7
330
0
 90
       10
 62
     7
370
    -3
331
16
  1
Color_7
330
0
 90
        2
 62
     7
370
    -3
331
16
  1
Color_7
330
0
 90
       10
 62
     7
370
    -3
331
16
  1
Color_7
330
0
 90
       10
 62
     7
370
    -3
331
16
  1
Color_7
330
0
 90
        2
 62
     7
370
    -3
331
16
  1
Color_7
330
0
 90
       10
 62
     7
370
    -3
331
16
  1
Color_7
330
0
 90
       10
 62
     7
370
    -3
331
16
  1
Color_7
330
0
 90
        2
 62
     7
370
    -3
331
16
  1
Color_7
330
0
 90
       10
 62
     7
370
    -3
331
16
  1
Color_7
330
0
 90
       10
 62
     7
370
    -3
331
16
  1
Color_7
330
0
 90
        2
 62
     7
370
    -3
331
16
  1
Color_7
330
0
 90
       10
 62
     7
370
    -3
331
16
  1
Color_7
330
0
 90
       10
 62
     7
370
    -3
331
16
  1
Color_7
330
0
 90
        2
 62
     7
370
    -3
331
16
  1
Color_7
330
0
 90
       10
 62
     7
370
    -3
331
16
  1
Color_7
330
0
 90
       10
 62
     7
370
    -3
331
16
  1
Color_7
330
0
 90
        2
 62
     7
370
    -3
331
16
  1
Color_7
330
0
 90
       10
 62
     7
370
    -3
331
16
  1
Color_7
330
0
 90
       10
 62
     7
370
    -3
331
16
  1
Color_7
330
0
 90
        2
 62
     7
370
    -3
331
16
  1
Color_7
330
0
 90
       10
 62
     7
370
    -3
331
16
  1
Color_7
330
0
 90
       10
 62
     7
370
    -3
331
16
  1
Color_7
330
0
 90
        2
 62
     7
370
    -3
331
16
  1
Color_7
330
0
 90
       10
 62
     7
370
    -3
331
16
  1
Color_7
330
0
 90
       10
 62
     7
370
    -3
331
16
  1
Color_7
330
0
 90
        2
 62
     7
370
    -3
331
16
  1
Color_7
330
0
 90
       10
 62
     7
370
    -3
331
16
  1
Color_7
330
0
 90
       10
 62
     7
370
    -3
331
16
  1
Color_7
330
0
 90
        2
 62
     7
370
    -3
331
16
  1
Color_7
330
0
 90
       10
 62
     7
370
    -3
331
16
  1
Color_7
330
0
 90
       10
 62
     7
370
    -3
331
16
  1
Color_7
330
0
 90
        2
 62
     7
370
    -3
331
16
  1
Color_7
330
0
 90
       10
 62
     7
370
    -3
331
16
  1
Color_7
330
0
 90
       10
 62
     7
370
    -3
331
16
  1
Color_7
330
0
 90
        2
 62
     7
370
    -3
331
16
  1
Color_7
330
0
 90
       10
 62
     7
370
    -3
331
16
  1
Color_7
330
0
 90
       10
 62
     7
370
    -3
331
16
  1
Color_7
330
0
 90
        2
 62
     7
370
    -3
331
16
  1
Color_7
330
0
 90
       10
 62
     7
370
    -3
331
16
  1
Color_7
330
0
 90
       10
 62
     7
370
    -3
331
16
  1
Color_7
  0
XRECORD
  5
B73C
102
{ACAD_XDICTIONARY
360
B73D
102
}
102
{ACAD_REACTORS
330
290
102
}
330
290
100
AcDbXrecord
280
     1
 91
      514
301

290
     0
302
0
330
0
 90
        8
 62
     7
370
    -3
  6
Continuous
  1
Color_7
330
0
 90
        8
 62
     7
370
    -3
  6
Continuous
  1
Color_7
330
0
 90
        8
 62
     7
370
    -3
  6
Continuous
  1
Color_7
330
0
 90
        0
 62
    30
370
    -3
  6
Continuous
  1
Color_30
330
0
 90
        8
 62
   252
370
    -3
  6
Continuous
  1
Color_252
330
0
 90
        8
 62
     3
370
    30
  6
Continuous
  1
Color_3
330
0
 90
        8
 62
   253
370
    -3
  6
Continuous
  1
Color_253
330
0
 90
        8
 62
     1
370
    -3
  6
Continuous
  1
Color_1
330
0
 90
        0
 62
     5
370
    -3
  6
Continuous
  1
Color_5
330
0
 90
        8
 62
     2
370
    -3
  6
Continuous
  1
Color_2
330
0
 90
        0
 62
   178
370
    -3
  6
Continuous
  1
Color_178
 92
-1039794079
330
0
 90
        8
 62
     7
370
    -3
  6
Continuous
  1
Color_7
330
0
 90
        8
 62
     7
370
    -3
  6
Continuous
  1
Color_7
330
0
 90
        8
 62
     7
370
    -3
  6
Continuous
  1
Color_7
330
0
 90
        8
 62
     7
370
    -3
  6
Continuous
  1
Color_7
330
0
 90
        8
 62
     7
370
    -3
  6
Continuous
  1
Color_7
330
0
 90
        0
 62
     4
370
    -3
  6
Continuous
  1
Color_4
330
0
 90
        0
 62
     7
370
    -3
  6
Continuous
  1
Color_7
  8
defpoints
 90
        0
 62
     7
370
    -3
  6
Continuous
  1
Color_7
  8
0
 90
        8
 62
     7
370
    -3
  6
Continuous
  1
Color_7
330
0
 90
       10
 62
     7
370
    -3
  6
Continuous
  1
Color_7
330
0
 90
       10
 62
     7
370
    -3
  6
Continuous
  1
Color_7
330
0
 90
       10
 62
     7
370
    -3
  6
Continuous
  1
Color_7
330
0
 90
       10
 62
     7
370
    -3
  6
Continuous
  1
Color_7
330
0
 90
       10
 62
     7
370
    -3
  6
Continuous
  1
Color_7
330
0
 90
       10
 62
     7
370
    -3
  6
Continuous
  1
Color_7
330
0
 90
       10
 62
     7
370
    -3
  6
Continuous
  1
Color_7
330
0
 90
       10
 62
     7
370
    -3
  6
Continuous
  1
Color_7
330
0
 90
       10
 62
     7
370
    -3
  6
Continuous
  1
Color_7
330
0
 90
       10
 62
     7
370
    -3
  6
Continuous
  1
Color_7
330
0
 90
        2
 62
     7
370
    -3
  6
Continuous
  1
Color_7
330
0
 90
       10
 62
     7
370
    -3
  6
Continuous
  1
Color_7
330
0
 90
        2
 62
     7
370
    -3
  6
Continuous
  1
Color_7
330
0
 90
       10
 62
     7
370
    -3
  6
Continuous
  1
Color_7
330
0
 90
        2
 62
     7
370
    -3
  6
Continuous
  1
Color_7
330
0
 90
       10
 62
     7
370
    -3
  6
Continuous
  1
Color_7
330
0
 90
        2
 62
     7
370
    -3
  6
Continuous
  1
Color_7
330
0
 90
       10
 62
     7
370
    -3
  6
Continuous
  1
Color_7
330
0
 90
        2
 62
     7
370
    -3
  6
Continuous
  1
Color_7
330
0
 90
       10
 62
     7
370
    -3
  6
Continuous
  1
Color_7
330
0
 90
        2
 62
     7
370
    -3
  6
Continuous
  1
Color_7
330
0
 90
       10
 62
     7
370
    -3
  6
Continuous
  1
Color_7
330
0
 90
        2
 62
     7
370
    -3
  6
Continuous
  1
Color_7
  0
XRECORD
  5
B740
102
{ACAD_XDICTIONARY
360
B741
102
}
102
{ACAD_REACTORS
330
290
102
}
330
290
100
AcDbXrecord
280
     1
 91
      514
301

290
     0
302
0
330
0
 90
       10
 62
     7
370
    -3
  6
Continuous
  1
Color_7
330
0
 90
       10
 62
     7
370
    -3
  6
Continuous
  1
Color_7
330
0
 90
       10
 62
     7
370
    -3
  6
Continuous
  1
Color_7
330
0
 90
        2
 62
    30
370
    -3
  6
Continuous
  1
Color_30
330
0
 90
       10
 62
   252
370
    -3
  6
Continuous
  1
Color_252
330
0
 90
       10
 62
     3
370
    30
  6
Continuous
  1
Color_3
330
0
 90
       10
 62
   253
370
    -3
  6
Continuous
  1
Color_253
330
0
 90
       10
 62
     1
370
    -3
  6
Continuous
  1
Color_1
330
0
 90
        2
 62
     5
370
    -3
  6
Continuous
  1
Color_5
330
0
 90
       10
 62
     2
370
    -3
  6
Continuous
  1
Color_2
330
0
 90
        2
 62
   178
370
    -3
  6
Continuous
  1
Color_178
 92
-1039794079
330
0
 90
       10
 62
     7
370
    -3
  6
Continuous
  1
Color_7
330
0
 90
       10
 62
     7
370
    -3
  6
Continuous
  1
Color_7
330
0
 90
       10
 62
     7
370
    -3
  6
Continuous
  1
Color_7
330
0
 90
       10
 62
     7
370
    -3
  6
Continuous
  1
Color_7
330
0
 90
       10
 62
     7
370
    -3
  6
Continuous
  1
Color_7
330
0
 90
        2
 62
     4
370
    -3
  6
Continuous
  1
Color_4
330
0
 90
        2
 62
     7
370
    -3
  6
Continuous
  1
Color_7
  8
0
 90
        8
 62
     7
370
    -3
  6
Continuous
  1
Color_7
  8
defpoints
 90
        0
 62
     7
370
    -3
  6
Continuous
  1
Color_7
330
0
 90
       10
 62
     7
370
    -3
  6
Continuous
  1
Color_7
330
0
 90
       10
 62
     7
370
    -3
  6
Continuous
  1
Color_7
330
0
 90
       10
 62
     7
370
    -3
  6
Continuous
  1
Color_7
330
0
 90
       10
 62
     7
370
    -3
  6
Continuous
  1
Color_7
330
0
 90
       10
 62
     7
370
    -3
  6
Continuous
  1
Color_7
330
0
 90
       10
 62
     7
370
    -3
  6
Continuous
  1
Color_7
330
0
 90
       10
 62
     7
370
    -3
  6
Continuous
  1
Color_7
330
0
 90
       10
 62
     7
370
    -3
  6
Continuous
  1
Color_7
330
0
 90
       10
 62
     7
370
    -3
  6
Continuous
  1
Color_7
330
0
 90
       10
 62
     7
370
    -3
  6
Continuous
  1
Color_7
330
0
 90
        2
 62
     7
370
    -3
  6
Continuous
  1
Color_7
330
0
 90
       10
 62
     7
370
    -3
  6
Continuous
  1
Color_7
330
0
 90
        2
 62
     7
370
    -3
  6
Continuous
  1
Color_7
330
0
 90
       10
 62
     7
370
    -3
  6
Continuous
  1
Color_7
330
0
 90
        2
 62
     7
370
    -3
  6
Continuous
  1
Color_7
330
0
 90
       10
 62
     7
370
    -3
  6
Continuous
  1
Color_7
330
0
 90
        2
 62
     7
370
    -3
  6
Continuous
  1
Color_7
330
0
 90
       10
 62
     7
370
    -3
  6
Continuous
  1
Color_7
330
0
 90
        2
 62
     7
370
    -3
  6
Continuous
  1
Color_7
330
0
 90
       10
 62
     7
370
    -3
  6
Continuous
  1
Color_7
330
0
 90
        2
 62
     7
370
    -3
  6
Continuous
  1
Color_7
330
0
 90
       10
 62
     7
370
    -3
  6
Continuous
  1
Color_7
330
0
 90
        2
 62
     7
370
    -3
  6
Continuous
  1
Color_7
  0
XRECORD
  5
B743
102
{ACAD_XDICTIONARY
360
B744
102
}
102
{ACAD_REACTORS
330
290
102
}
330
290
100
AcDbXrecord
280
     1
 91
      514
301

290
     0
302
0
330
0
 90
        8
 62
     7
370
    -3
  6
Continuous
  1
Color_7
330
0
 90
        8
 62
     7
370
    -3
  6
Continuous
  1
Color_7
330
0
 90
        8
 62
     7
370
    -3
  6
Continuous
  1
Color_7
330
0
 90
        0
 62
    30
370
    -3
  6
Continuous
  1
Color_30
330
0
 90
        8
 62
   252
370
    -3
  6
Continuous
  1
Color_252
330
0
 90
        8
 62
     3
370
    30
  6
Continuous
  1
Color_3
330
0
 90
        8
 62
   253
370
    -3
  6
Continuous
  1
Color_253
330
0
 90
        8
 62
     1
370
    -3
  6
Continuous
  1
Color_1
330
0
 90
        0
 62
     5
370
    -3
  6
Continuous
  1
Color_5
330
0
 90
        8
 62
     2
370
    -3
  6
Continuous
  1
Color_2
330
0
 90
        0
 62
   178
370
    -3
  6
Continuous
  1
Color_178
 92
-1039794079
330
0
 90
        8
 62
     7
370
    -3
  6
Continuous
  1
Color_7
330
0
 90
        8
 62
     7
370
    -3
  6
Continuous
  1
Color_7
330
0
 90
        8
 62
     7
370
    -3
  6
Continuous
  1
Color_7
330
0
 90
        8
 62
     7
370
    -3
  6
Continuous
  1
Color_7
330
0
 90
        8
 62
     7
370
    -3
  6
Continuous
  1
Color_7
330
0
 90
        0
 62
     4
370
    -3
  6
Continuous
  1
Color_4
330
0
 90
        0
 62
     7
370
    -3
  6
Continuous
  1
Color_7
  8
defpoints
 90
        0
 62
     7
370
    -3
  6
Continuous
  1
Color_7
  8
0
 90
        8
 62
     7
370
    -3
  6
Continuous
  1
Color_7
330
0
 90
       10
 62
     7
370
    -3
  6
Continuous
  1
Color_7
330
0
 90
       10
 62
     7
370
    -3
  6
Continuous
  1
Color_7
330
0
 90
       10
 62
     7
370
    -3
  6
Continuous
  1
Color_7
330
0
 90
       10
 62
     7
370
    -3
  6
Continuous
  1
Color_7
330
0
 90
       10
 62
     7
370
    -3
  6
Continuous
  1
Color_7
330
0
 90
       10
 62
     7
370
    -3
  6
Continuous
  1
Color_7
330
0
 90
       10
 62
     7
370
    -3
  6
Continuous
  1
Color_7
  0
XRECORD
  5
B746
102
{ACAD_XDICTIONARY
360
B747
102
}
102
{ACAD_REACTORS
330
290
102
}
330
290
100
AcDbXrecord
280
     1
 91
      514
301

290
     0
302
0
330
0
 90
       10
 62
     7
370
    -3
  6
Continuous
  1
Color_7
330
0
 90
       10
 62
     7
370
    -3
  6
Continuous
  1
Color_7
330
0
 90
       10
 62
     7
370
    -3
  6
Continuous
  1
Color_7
330
0
 90
        2
 62
    30
370
    -3
  6
Continuous
  1
Color_30
330
0
 90
       10
 62
   252
370
    -3
  6
Continuous
  1
Color_252
330
0
 90
       10
 62
     3
370
    30
  6
Continuous
  1
Color_3
330
0
 90
       10
 62
   253
370
    -3
  6
Continuous
  1
Color_253
330
0
 90
       10
 62
     1
370
    -3
  6
Continuous
  1
Color_1
330
0
 90
        2
 62
     5
370
    -3
  6
Continuous
  1
Color_5
330
0
 90
       10
 62
     2
370
    -3
  6
Continuous
  1
Color_2
330
0
 90
        2
 62
   178
370
    -3
  6
Continuous
  1
Color_178
 92
-1039794079
330
0
 90
       10
 62
     7
370
    -3
  6
Continuous
  1
Color_7
330
0
 90
       10
 62
     7
370
    -3
  6
Continuous
  1
Color_7
330
0
 90
       10
 62
     7
370
    -3
  6
Continuous
  1
Color_7
330
0
 90
       10
 62
     7
370
    -3
  6
Continuous
  1
Color_7
330
0
 90
       10
 62
     7
370
    -3
  6
Continuous
  1
Color_7
330
0
 90
        2
 62
     4
370
    -3
  6
Continuous
  1
Color_4
330
0
 90
        2
 62
     7
370
    -3
  6
Continuous
  1
Color_7
  8
0
 90
        8
 62
     7
370
    -3
  6
Continuous
  1
Color_7
  8
defpoints
 90
        0
 62
     7
370
    -3
  6
Continuous
  1
Color_7
330
0
 90
       10
 62
     7
370
    -3
  6
Continuous
  1
Color_7
330
0
 90
       10
 62
     7
370
    -3
  6
Continuous
  1
Color_7
330
0
 90
       10
 62
     7
370
    -3
  6
Continuous
  1
Color_7
330
0
 90
       10
 62
     7
370
    -3
  6
Continuous
  1
Color_7
330
0
 90
       10
 62
     7
370
    -3
  6
Continuous
  1
Color_7
330
0
 90
       10
 62
     7
370
    -3
  6
Continuous
  1
Color_7
330
0
 90
       10
 62
     7
370
    -3
  6
Continuous
  1
Color_7
  0
BLOCKLINEARPARAMETER
  5
72B1
330
72B0
100
AcDbEvalExpr
 90
        1
 98
       27
 99
       53
100
AcDbBlockElement
300
Linear
 98
       27
 99
       53
1071
        0
100
AcDbBlockParameter
280
     1
281
     0
100
AcDbBlock2PtParameter
1010
0.0
1020
0.0
1030
0.0
1011
0.0
1021
27.85219326595689
1031
0.0
170
     4
 91
        0
 91
        2
 91
        0
 91
        0
171
     0
172
     0
173
     1
 94
        2
303
DisplacementX
174
     1
 95
        2
304
DisplacementY
177
     0
100
AcDbBlockLinearParameter
305
Distance
306

140
-6.180622679414226
307

 96
        1
141
0.0
142
0.0
143
0.0
175
     0
  0
BLOCKLINEARGRIP
  5
72B2
330
72B0
100
AcDbEvalExpr
 90
        2
 98
       27
 99
       53
100
AcDbBlockElement
300
End Grip
 98
       27
 99
       53
1071
        0
100
AcDbBlockGrip
 91
        3
 92
        4
1010
0.0
1020
27.85219326595689
1030
0.0
280
     1
 93
       -1
100
AcDbBlockLinearGrip
140
0.0
141
27.85219326595689
142
0.0
  0
BLOCKGRIPLOCATIONCOMPONENT
  5
72B3
330
72B0
100
AcDbEvalExpr
 90
        3
 98
       27
 99
       53
  1

 70
    40
140
1.797693134862313E+99
100
AcDbBlockGripExpr
 91
        1
300
UpdatedEndX
  0
BLOCKGRIPLOCATIONCOMPONENT
  5
72B4
330
72B0
100
AcDbEvalExpr
 90
        4
 98
       27
 99
       53
  1

 70
    40
140
1.797693134862313E+99
100
AcDbBlockGripExpr
 91
        1
300
UpdatedEndY
  0
BLOCKSTRETCHACTION
  5
72B5
330
72B0
100
AcDbEvalExpr
 90
        8
 98
       27
 99
       53
100
AcDbBlockElement
300
Stretch
 98
       27
 99
       53
1071
        0
100
AcDbBlockAction
 70
     0
 71
     2
330
72B2
330
72B8
1010
0.0
1020
27.85219326595689
1030
0.0
100
AcDbBlockStretchAction
 92
        1
301
EndXDelta
 93
        1
302
EndYDelta
 72
     2
1011
13.21978034439962
1021
31.68534425474627
1011
-6.652819483715574
1021
22.2909530023162
 73
     1
331
72B8
 74
     1
 94
        1
 75
     0
140
1.0
141
0.0
280
     0
  0
DICTIONARY
  5
A02F
102
{ACAD_REACTORS
330
A02E
102
}
330
A02E
100
AcDbDictionary
281
     1
  0
DICTIONARY
  5
170C
330
16BA
100
AcDbDictionary
280
     1
281
     1
  0
DICTIONARY
  5
4377
330
22
100
AcDbDictionary
280
     1
281
     1
  0
DICTIONARY
  5
B754
330
B753
100
AcDbDictionary
280
     1
281
     1
  3
ACAD_ROUNDTRIP_2008_TABLESTYLE_CELLSTYLEMAP
360
B98E
  0
DICTIONARY
  5
B7E1
330
B7E0
100
AcDbDictionary
280
     1
281
     1
  3
ACAD_ROUNDTRIP_2008_TABLESTYLE_CELLSTYLEMAP
360
B98F
  0
DICTIONARY
  5
30E
330
22C
100
AcDbDictionary
280
     1
281
     1
  3
ACAD_ROUNDTRIP_2008_TABLESTYLE_CELLSTYLEMAP
360
B988
  0
DICTIONARY
  5
811
330
223
100
AcDbDictionary
280
     1
281
     1
  3
LightingQuality
360
812
  0
XRECORD
  5
A38
102
{ACAD_REACTORS
330
A22
102
}
330
A22
100
AcDbXrecord
280
     1
1000
AIA Version 3
  0
BINRECORD
  5
A23
102
{ACAD_REACTORS
330
A22
102
}
330
A22
100
AcAecBinRecord
 90
        0
 91
    19403
 70
     0
310
0100FFFEFF0D4100490041002000560065007200730069006F006E00200033000500FFFF01001C004163416563556B4C6179657244657363726970746976654669656C64FFFEFF154400690073006300690070006C0069006E0065002000440065007300690067006E00610074006F0072000102000000007B333637354541
310
46100100002100000070BA406CD0EA76040B00FFFEFF001500FFFEFF01440002000000FFFEFF07500072006F0063006500730073000E00FFFEFF01440002000000FFFEFF12500072006F0063006500730073002000440065006D006F006C006900740069006F006E00000000000000FFFEFF01560002000000FFFEFF0E5000
310
72006F0063006500730073002000560061006300750075006D00000000000000FFFEFF01450002000000FFFEFF12500072006F006300650073007300200045006C0065006300740072006900630061006C00000000000000FFFEFF01570002000000FFFEFF0E500072006F0063006500730073002000570061007400650072
310
007300000000000000FFFEFF01580002000000FFFEFF0F500072006F00630065007300730020004500780068006100750073007400000000000000FFFEFF01470002000000FFFEFF0D500072006F006300650073007300200047006100730065007300000000000000FFFEFF014F0002000000FFFEFF0B500072006F006300
310
65007300730020004F0069006C00000000000000FFFEFF01500002000000FFFEFF0E500072006F006300650073007300200050006900700069006E006700000000000000FFFEFF01510002000000FFFEFF11500072006F0063006500730073002000450071007500690070006D0065006E007400000000000000FFFEFF0152
310
0002000000FFFEFF19500072006F006300650073007300200044007200610069006E0073002000260020005200650063006C00610069006D007300000000000000FFFEFF01410002000000FFFEFF0C500072006F00630065007300730020004100690072007300000000000000FFFEFF01530002000000FFFEFF0C50007200
310
6F00630065007300730020005300690074006500000000000000FFFEFF01540002000000FFFEFF18500072006F006300650073007300200045006E0074007200610069006E0065006400200053006F006C00690064007300000000000000FFFEFF01430002000000FFFEFF11500072006F0063006500730073002000430068
310
0065006D006900630061006C00730000000000000000000000FFFEFF01560002000000FFFEFF1053007500720076006500790020002F0020004D0061007000700069006E0067000500FFFEFF01460002000000FFFEFF0C4600690065006C0064002000530075007200760065007900000000000000FFFEFF01490002000000
310
FFFEFF0E4400690067006900740061006C002000530075007200760065007900000000000000FFFEFF014A0002000000FFFEFF1F53007500720076006500790020002F0020004D0061007000700069006E006700200028005500730065007200200044006500660069006E00650064002900000000000000FFFEFF014B0002
310
000000FFFEFF1F53007500720076006500790020002F0020004D0061007000700069006E006700200028005500730065007200200044006500660069006E00650064002900000000000000FFFEFF01410002000000FFFEFF0D410065007200690061006C00200053007500720076006500790000000000000000000000FFFE
310
FF01450002000000FFFEFF0A45006C0065006300740072006900630061006C000900FFFEFF01440002000000FFFEFF1545006C0065006300740072006900630061006C002000440065006D006F006C006900740069006F006E00000000000000FFFEFF01590002000000FFFEFF1C45006C0065006300740072006900630061
310
006C00200041007500780069006C0069006100720079002000530079007300740065006D007300000000000000FFFEFF01490002000000FFFEFF1A45006C0065006300740072006900630061006C00200049006E0073007400720075006D0065006E0074006100740069006F006E00000000000000FFFEFF014A0002000000
310
FFFEFF1945006C0065006300740072006900630061006C00200028005500730065007200200044006500660069006E00650064002900000000000000FFFEFF014B0002000000FFFEFF1945006C0065006300740072006900630061006C00200028005500730065007200200044006500660069006E00650064002900000000
310
000000FFFEFF014C0002000000FFFEFF1345006C0065006300740072006900630061006C0020004C00690067006800740069006E006700000000000000FFFEFF01500002000000FFFEFF1045006C0065006300740072006900630061006C00200050006F00770065007200000000000000FFFEFF01530002000000FFFEFF0F
310
45006C0065006300740072006900630061006C0020005300690074006500000000000000FFFEFF01540002000000FFFEFF1D45006C0065006300740072006900630061006C002000540065006C00650063006F006D006D0075006E00690063006100740069006F006E00730000000000000000000000FFFEFF015700020000
310
00FFFEFF0B43006900760069006C00200057006F0072006B0073000200FFFEFF014A0002000000FFFEFF1A43006900760069006C00200057006F0072006B007300200028005500730065007200200044006500660069006E00650064002900000000000000FFFEFF014B0002000000FFFEFF1A43006900760069006C002000
310
57006F0072006B007300200028005500730065007200200044006500660069006E0065006400290000000000000000000000FFFEFF01460002000000FFFEFF0F46006900720065002000500072006F00740065006300740069006F006E000400FFFEFF014A0002000000FFFEFF134600690072006500200028005500730065
310
007200200044006500660069006E00650064002900000000000000FFFEFF014B0002000000FFFEFF134600690072006500200028005500730065007200200044006500660069006E00650064002900000000000000FFFEFF01410002000000FFFEFF184600690072006500200044006500740065006300740069006F006E00
310
200061006E006400200041006C00610072006D00000000000000FFFEFF01530002000000FFFEFF10460069007200650020005300750070007000720065007300730069006F006E0000000000000000000000FFFEFF01470002000000FFFEFF07470065006E006500720061006C000500FFFEFF01490002000000FFFEFF1347
310
0065006E006500720061006C00200049006E0066006F0072006D006100740069006F006E00000000000000FFFEFF014A0002000000FFFEFF16470065006E006500720061006C00200028005500730065007200200044006500660069006E00650064002900000000000000FFFEFF014B0002000000FFFEFF16470065006E00
310
6500720061006C00200028005500730065007200200044006500660069006E00650064002900000000000000FFFEFF01520002000000FFFEFF10470065006E006500720061006C0020005200650073006F007500720063006500000000000000FFFEFF01430002000000FFFEFF13470065006E006500720061006C00200043
310
006F006E0074007200610063007400750061006C0000000000000000000000FFFEFF01580002000000FFFEFF114F00740068006500720020004400690073006300690070006C0069006E00650073000200FFFEFF014A0002000000FFFEFF204F00740068006500720020004400690073006300690070006C0069006E006500
310
7300200028005500730065007200200044006500660069006E00650064002900000000000000FFFEFF014B0002000000FFFEFF204F00740068006500720020004400690073006300690070006C0069006E0065007300200028005500730065007200200044006500660069006E0065006400290000000000000000000000FF
310
FEFF01480002000000FFFEFF13480061007A006100720064006F007500730020004D006100740065007200690061006C0073000700FFFEFF014A0002000000FFFEFF22480061007A006100720064006F007500730020004D006100740065007200690061006C00730020002800550073006500720020004400650066006900
310
6E00650064002900000000000000FFFEFF014B0002000000FFFEFF22480061007A006100720064006F007500730020004D006100740065007200690061006C007300200028005500730065007200200044006500660069006E00650064002900000000000000FFFEFF014C0002000000FFFEFF044C00650061006400000000
310
000000FFFEFF01500002000000FFFEFF03500043004200000000000000FFFEFF01520002000000FFFEFF0C5200650066007200690067006500720061006E0074007300000000000000FFFEFF01410002000000FFFEFF084100730062006500730074006F007300000000000000FFFEFF01430002000000FFFEFF0943006800
310
65006D006900630061006C00730000000000000000000000FFFEFF01490002000000FFFEFF0949006E0074006500720069006F00720073000600FFFEFF01440002000000FFFEFF1349006E0074006500720069006F0072002000440065006D006F006C006900740069006F006E00000000000000FFFEFF01460002000000FF
310
FEFF1149006E0074006500720069006F0072002000460069006E0069007300680065007300000000000000FFFEFF01470002000000FFFEFF1249006E0074006500720069006F0072007300200047007200610070006800690063007300000000000000FFFEFF014A0002000000FFFEFF1849006E0074006500720069006F00
310
72007300200028005500730065007200200044006500660069006E00650064002900000000000000FFFEFF014B0002000000FFFEFF1849006E0074006500720069006F0072007300200028005500730065007200200044006500660069006E00650064002900000000000000FFFEFF014E0002000000FFFEFF0F49006E0074
310
006500720069006F0072002000440065007300690067006E0000000000000000000000FFFEFF015A0002000000FFFEFF1A43006F006E00740072006100630074006F00720020002F002000530068006F0070002000440072006100770069006E00670073000200FFFEFF014A0002000000FFFEFF2943006F006E0074007200
310
6100630074006F00720020002F002000530068006F0070002000440072006100770069006E0067007300200028005500730065007200200044006500660069006E00650064002900000000000000FFFEFF014B0002000000FFFEFF2943006F006E00740072006100630074006F00720020002F002000530068006F00700020
310
00440072006100770069006E0067007300200028005500730065007200200044006500660069006E0065006400290000000000000000000000FFFEFF014C0002000000FFFEFF094C0061006E006400730063006100700065000500FFFEFF01440002000000FFFEFF144C0061006E0064007300630061007000650020004400
310
65006D006F006C006900740069006F006E00000000000000FFFEFF01490002000000FFFEFF144C0061006E006400730063006100700065002000490072007200690067006100740069006F006E00000000000000FFFEFF014A0002000000FFFEFF184C0061006E006400730063006100700065002000280055007300650072
310
00200044006500660069006E00650064002900000000000000FFFEFF014B0002000000FFFEFF184C0061006E00640073006300610070006500200028005500730065007200200044006500660069006E00650064002900000000000000FFFEFF01500002000000FFFEFF124C0061006E006400730063006100700065002000
310
50006C0061006E00740069006E00670000000000000000000000FFFEFF014D0002000000FFFEFF0A4D0065006300680061006E006900630061006C000700FFFEFF01440002000000FFFEFF154D0065006300680061006E006900630061006C002000440065006D006F006C006900740069006F006E00000000000000FFFEFF
310
01480002000000FFFEFF0F4D0065006300680061006E006900630061006C0020004800560041004300000000000000FFFEFF01490002000000FFFEFF1A4D0065006300680061006E006900630061006C00200049006E0073007400720075006D0065006E0074006100740069006F006E00000000000000FFFEFF014A000200
310
0000FFFEFF194D0065006300680061006E006900630061006C00200028005500730065007200200044006500660069006E00650064002900000000000000FFFEFF014B0002000000FFFEFF194D0065006300680061006E006900630061006C00200028005500730065007200200044006500660069006E0065006400290000
310
0000000000FFFEFF01500002000000FFFEFF114D0065006300680061006E006900630061006C00200050006900700069006E006700000000000000FFFEFF01530002000000FFFEFF0F4D0065006300680061006E006900630061006C002000530069007400650000000000000000000000FFFEFF014F0002000000FFFEFF0A
310
4F007000650072006100740069006F006E0073000200FFFEFF014A0002000000FFFEFF194F007000650072006100740069006F006E007300200028005500730065007200200044006500660069006E00650064002900000000000000FFFEFF014B0002000000FFFEFF194F007000650072006100740069006F006E00730020
310
0028005500730065007200200044006500660069006E0065006400290000000000000000000000FFFEFF01500002000000FFFEFF0850006C0075006D00620069006E0067000600FFFEFF01440002000000FFFEFF1350006C0075006D00620069006E0067002000440065006D006F006C006900740069006F006E0000000000
310
0000FFFEFF014A0002000000FFFEFF1750006C0075006D00620069006E006700200028005500730065007200200044006500660069006E00650064002900000000000000FFFEFF014B0002000000FFFEFF1750006C0075006D00620069006E006700200028005500730065007200200044006500660069006E006500640029
310
00000000000000FFFEFF01500002000000FFFEFF0F50006C0075006D00620069006E006700200050006900700069006E006700000000000000FFFEFF01510002000000FFFEFF1250006C0075006D00620069006E0067002000450071007500690070006D0065006E007400000000000000FFFEFF01530002000000FFFEFF0D
310
50006C0075006D00620069006E0067002000530069007400650000000000000000000000FFFEFF01510002000000FFFEFF09450071007500690070006D0065006E0074001100FFFEFF01440002000000FFFEFF1344006500740065006E00740069006F006E002000450071007500690070006D0065006E0074000000000000
310
00FFFEFF01560002000000FFFEFF1C56006900640065006F002F00500068006F0074006F0067007200610070006800690063002000450071007500690070006D0065006E007400000000000000FFFEFF01450002000000FFFEFF1545006400750063006100740069006F006E0061006C002000450071007500690070006D00
310
65006E007400000000000000FFFEFF01460002000000FFFEFF1646006F006F006400200053006500720076006900630065002000450071007500690070006D0065006E007400000000000000FFFEFF01590002000000FFFEFF12530065006300750072006900740079002000450071007500690070006D0065006E00740000
310
0000000000FFFEFF01480002000000FFFEFF1248006F00730070006900740061006C002000450071007500690070006D0065006E007400000000000000FFFEFF014A0002000000FFFEFF18450071007500690070006D0065006E007400200028005500730065007200200044006500660069006E0065006400290000000000
310
0000FFFEFF014B0002000000FFFEFF18450071007500690070006D0065006E007400200028005500730065007200200044006500660069006E00650064002900000000000000FFFEFF014C0002000000FFFEFF144C00610062006F007200610074006F00720079002000450071007500690070006D0065006E007400000000
310
000000FFFEFF014D0002000000FFFEFF154D00610069006E00740065006E0061006E00630065002000450071007500690070006D0065006E007400000000000000FFFEFF01500002000000FFFEFF155000610072006B0069006E00670020004C006F0074002000450071007500690070006D0065006E007400000000000000
310
FFFEFF01520002000000FFFEFF10520065007400610069006C002000450071007500690070006D0065006E007400000000000000FFFEFF01410002000000FFFEFF124100740068006C0065007400690063002000450071007500690070006D0065006E007400000000000000FFFEFF01530002000000FFFEFF0E5300690074
310
0065002000450071007500690070006D0065006E007400000000000000FFFEFF01420002000000FFFEFF0E420061006E006B002000450071007500690070006D0065006E007400000000000000FFFEFF01540002000000FFFEFF145400680065006100740072006900630061006C002000450071007500690070006D006500
310
6E007400000000000000FFFEFF01430002000000FFFEFF16440072007900200043006C00650061006E0069006E0067002000450071007500690070006D0065006E00740000000000000000000000FFFEFF01410002000000FFFEFF0D4100720063006800690074006500630074007500720061006C000A00FFFEFF01440002
310
000000FFFEFF184100720063006800690074006500630074007500720061006C002000440065006D006F006C006900740069006F006E00000000000000FFFEFF01450002000000FFFEFF164100720063006800690074006500630074007500720061006C00200045006C0065006D0065006E0074007300000000000000FFFE
310
FF01460002000000FFFEFF164100720063006800690074006500630074007500720061006C002000460069006E0069007300680065007300000000000000FFFEFF01470002000000FFFEFF164100720063006800690074006500630074007500720061006C00200047007200610070006800690063007300000000000000FF
310
FEFF01490002000000FFFEFF164100720063006800690074006500630074007500720061006C00200049006E0074006500720069006F007200000000000000FFFEFF014A0002000000FFFEFF1C4100720063006800690074006500630074007500720061006C00200028005500730065007200200044006500660069006E00
310
650064002900000000000000FFFEFF014B0002000000FFFEFF1C4100720063006800690074006500630074007500720061006C00200028005500730065007200200044006500660069006E00650064002900000000000000FFFEFF01500002000000FFFEFF144100720063006800690074006500630074007500720061006C
310
00200050006100760069006E006700000000000000FFFEFF01530002000000FFFEFF124100720063006800690074006500630074007500720061006C0020005300690074006500000000000000FFFEFF01540002000000FFFEFF1C4100720063006800690074006500630074007500720061006C0020005400720061006E00
310
730070006F00720074006100740069006F006E0000000000000001000000FFFEFF01520002000000FFFEFF085200650073006F0075007200630065000700FFFEFF01450002000000FFFEFF135200650073006F007500720063006500200045006C0065006300740072006900630061006C00000000000000FFFEFF014A0002
310
000000FFFEFF175200650073006F007500720063006500200028005500730065007200200044006500660069006E00650064002900000000000000FFFEFF014B0002000000FFFEFF175200650073006F007500720063006500200028005500730065007200200044006500660069006E00650064002900000000000000FFFE
310
FF014D0002000000FFFEFF135200650073006F00750072006300650020004D0065006300680061006E006900630061006C00000000000000FFFEFF01410002000000FFFEFF165200650073006F00750072006300650020004100720063006800690074006500630074007500720061006C00000000000000FFFEFF01530002
310
000000FFFEFF135200650073006F00750072006300650020005300740072007500630074007500720061006C00000000000000FFFEFF01430002000000FFFEFF0E5200650073006F007500720063006500200043006900760069006C0000000000000000000000FFFEFF01420002000000FFFEFF0C470065006F0074006500
310
630068006E006900630061006C000200FFFEFF014A0002000000FFFEFF1B470065006F0074006500630068006E006900630061006C00200028005500730065007200200044006500660069006E00650064002900000000000000FFFEFF014B0002000000FFFEFF1B470065006F0074006500630068006E006900630061006C
310
00200028005500730065007200200044006500660069006E0065006400290000000000000000000000FFFEFF01530002000000FFFEFF0A5300740072007500630074007500720061006C000600FFFEFF01440002000000FFFEFF155300740072007500630074007500720061006C002000440065006D006F006C0069007400
310
69006F006E00000000000000FFFEFF01460002000000FFFEFF125300740072007500630074007500720061006C0020004600720061006D0069006E006700000000000000FFFEFF014A0002000000FFFEFF195300740072007500630074007500720061006C00200028005500730065007200200044006500660069006E0065
310
0064002900000000000000FFFEFF014B0002000000FFFEFF195300740072007500630074007500720061006C00200028005500730065007200200044006500660069006E00650064002900000000000000FFFEFF01530002000000FFFEFF0F5300740072007500630074007500720061006C00200053006900740065000000
310
00000000FFFEFF01420002000000FFFEFF175300740072007500630074007500720061006C00200053007500620073007400720075006300740075007200650000000000000000000000FFFEFF01430002000000FFFEFF0543006900760069006C000900FFFEFF01440002000000FFFEFF1043006900760069006C00200044
310
0065006D006F006C006900740069006F006E00000000000000FFFEFF01550002000000FFFEFF0F43006900760069006C0020005500740069006C0069007400690065007300000000000000FFFEFF01470002000000FFFEFF0D43006900760069006C002000470072006100640069006E006700000000000000FFFEFF014900
310
02000000FFFEFF1243006900760069006C00200049006D00700072006F00760065006D0065006E0074007300000000000000FFFEFF014A0002000000FFFEFF1443006900760069006C00200028005500730065007200200044006500660069006E00650064002900000000000000FFFEFF014B0002000000FFFEFF14430069
310
00760069006C00200028005500730065007200200044006500660069006E00650064002900000000000000FFFEFF01500002000000FFFEFF0C43006900760069006C00200050006100760069006E006700000000000000FFFEFF01530002000000FFFEFF0A43006900760069006C0020005300690074006500000000000000
310
FFFEFF01540002000000FFFEFF1443006900760069006C0020005400720061006E00730070006F00720074006100740069006F006E0000000000000000000000FFFEFF01540002000000FFFEFF12540065006C00650063006F006D006D0075006E00690063006100740069006F006E0073000900FFFEFF01590002000000FF
310
FEFF0853006500630075007200690074007900000000000000FFFEFF01490002000000FFFEFF0849006E0074006500720063006F006D00000000000000FFFEFF014A0002000000FFFEFF21540065006C00650063006F006D006D0075006E00690063006100740069006F006E00730020002800550073006500720020004400
310
6500660069006E00650064002900000000000000FFFEFF014B0002000000FFFEFF21540065006C00650063006F006D006D0075006E00690063006100740069006F006E007300200028005500730065007200200044006500660069006E00650064002900000000000000FFFEFF014D0002000000FFFEFF0A4D006F006E0069
310
0074006F00720069006E006700000000000000FFFEFF014E0002000000FFFEFF0D440061007400610020004E006500740077006F0072006B007300000000000000FFFEFF01410002000000FFFEFF0E41007500640069006F0020002F002000560069007300750061006C00000000000000FFFEFF01540002000000FFFEFF09
310
540065006C006500700068006F006E006500000000000000FFFEFF01430002000000FFFEFF1143006C006F0063006B00200061006E0064002000500072006F006700720061006D00000000000000000000000180FFFEFF054D0061006A006F0072000300000000000000000000000000000000000000000000000000000000
310
000000FFFEFF002300FFFEFF052D0046006C006F00720002000000FFFEFF0546006C006F006F007200000000000000FFFEFF052D004500710070006D0002000000FFFEFF09450071007500690070006D0065006E007400000000000000FFFEFF052D00530069007400650002000000FFFEFF09530069007400650020007000
310
6C0061006E00000000000000FFFEFF052D0050006C0061006E0002000000FFFEFF154B0065007900200070006C0061006E002000280066006C006F006F007200200070006C0061006E002900000000000000FFFEFF052D004400650074006C0002000000FFFEFF06440065007400610069006C00000000000000FFFEFF052D
310
0054006F0070006F0002000000FFFEFF0A54006F0070006F00670072006100700068007900000000000000FFFEFF052D004300740072006C0002000000FFFEFF0E43006F006E00740072006F006C00200050006F0069006E0074007300000000000000FFFEFF052D004600750072006E0002000000FFFEFF0B460075007200
310
6E0069007300680069006E0067007300000000000000FFFEFF052D0053006C006100620002000000FFFEFF0553006C00610062007300000000000000FFFEFF052D0050006F006C00790002000000FFFEFF0850006F006C00790067006F006E007300000000000000FFFEFF052D0043006F006D006D0002000000FFFEFF1254
310
0065006C00650063006F006D006D0075006E00690063006100740069006F006E007300000000000000FFFEFF052D00570061006C006C0002000000FFFEFF05570061006C006C007300000000000000FFFEFF052D0047006C0061007A0002000000FFFEFF0747006C0061007A0069006E006700000000000000FFFEFF052D00
310
410072006500610002000000FFFEFF044100720065006100000000000000FFFEFF052D0043006F006400650002000000FFFEFF1443006F0064006500200063006F006D0070006C00690061006E0063006500200070006C0061006E00000000000000FFFEFF052D005300740072006D0002000000FFFEFF0844007200610069
310
006E00610067006500000000000000FFFEFF052D0044006F006F00720002000000FFFEFF0544006F006F0072007300000000000000FFFEFF052D0041006E006E006F0002000000FFFEFF0A41006E006E006F0074006100740069006F006E00000000000000FFFEFF052D004200650061006D0002000000FFFEFF0542006500
310
61006D007300000000000000FFFEFF052D004C0069007400650002000000FFFEFF114C00690067006800740069006E006700200066006900780074007500720065007300000000000000FFFEFF052D00480056004100430002000000FFFEFF044800560041004300000000000000FFFEFF052D004100630063007300020000
310
00FFFEFF0B410063006300650073007300200070006C0061006E00000000000000FFFEFF052D0043006F006C00730002000000FFFEFF0743006F006C0075006D006E007300000000000000FFFEFF052D0043006C006E00670002000000FFFEFF074300650069006C0069006E006700000000000000FFFEFF052D0045007600
310
6100630002000000FFFEFF0F450076006100630075006100740069006F006E00200070006C0061006E00000000000000FFFEFF052D0043006F006E00760002000000FFFEFF1143006F006E0076006500790069006E0067002000730079007300740065006D007300000000000000FFFEFF052D005300650063007400020000
310
00FFFEFF07530065006300740069006F006E00000000000000FFFEFF052D00500072006F00700002000000FFFEFF08500072006F0070006500720074007900000000000000FFFEFF052D0052006F006F00660002000000FFFEFF0452006F006F006600000000000000FFFEFF052D0045006C006500630002000000FFFEFF0A
310
45006C0065006300740072006900630061006C00000000000000FFFEFF052D00470072006900640002000000FFFEFF0A470072006900640020006C0069006E0065007300000000000000FFFEFF052D00540069006E006E0002000000FFFEFF1E54007200690061006E00670075006C00610074006500640020006900720072
310
006500670075006C006100720020006E006500740077006F0072006B00000000000000FFFEFF052D00500072006F00740002000000FFFEFF1646006900720065002000700072006F00740065006300740069006F006E002000730079007300740065006D00000000000000FFFEFF052D00460069007200650002000000FFFE
310
FF1446006900720065002000700072006F00740065006300740069006F006E00200070006C0061006E00000000000000FFFEFF052D0045006C006500760002000000FFFEFF0945006C00650076006100740069006F006E000000000000000180FFFEFF074D0069006E006F00720020003100040000000000000000F00E7704
310
00000000000000000000000000000000F00000FFFEFF006A00FFFEFF052D00410062006F00760002000000FFFEFF0E45006C0065006D0065006E00740073002000610062006F0076006500000000000000FFFEFF052D005400610062006C0002000000FFFEFF0B440061007400610020007400610062006C00650073000000
310
00000000FFFEFF052D00420064007200790002000000FFFEFF0842006F0075006E006400610072007900000000000000FFFEFF052D004500710070006D0002000000FFFEFF09450071007500690070006D0065006E007400000000000000FFFEFF052D0043006E007400720002000000FFFEFF0A430065006E007400650072
310
006C0069006E006500000000000000FFFEFF052D0057006B007300660002000000FFFEFF1E530079007300740065006D00200077006F0072006B0020007300750072006600610063006500200063006F006D0070006F006E0065006E0074007300000000000000FFFEFF052D00420072006E00670002000000FFFEFF1A4200
310
65006100720069006E0067007300200026002000640069007300740061006E006300650020006C006100620065006C007300000000000000FFFEFF052D00530077006300680002000000FFFEFF0853007700690074006300680065007300000000000000FFFEFF052D005400680069006E0002000000FFFEFF195400680069
310
006E0020007700650069006700680074002000670072006100700068006900630020006C0069006E0065007300000000000000FFFEFF052D00520061006900730002000000FFFEFF06520061006900730065006400000000000000FFFEFF052D004F00700065006E0002000000FFFEFF084F00700065006E0069006E006700
310
7300000000000000FFFEFF052D004E0070006C00740002000000FFFEFF204E006F006E002D0070006C006F007400740069006E00670020006700720061007000680069006300200069006E0066006F0072006D006100740069006F006E00000000000000FFFEFF052D00500072006F00660002000000FFFEFF08500072006F
310
00660069006C0065007300000000000000FFFEFF052D005200650066006C0002000000FFFEFF0E5200650066006C0065006300740065006400200050006C0061006E00000000000000FFFEFF052D00460069006E00650002000000FFFEFF19460069006E006500200077006500690067006800740020006700720061007000
310
68006900630020006C0069006E0065007300000000000000FFFEFF052D004100700070006C0002000000FFFEFF0A4100700070006C00690061006E00630065007300000000000000FFFEFF052D00440069006D00730002000000FFFEFF0A440069006D0065006E00730069006F006E007300000000000000FFFEFF052D0050
310
006F007700720002000000FFFEFF0550006F00770065007200000000000000FFFEFF052D0053006C006100620002000000FFFEFF0553006C00610062007300000000000000FFFEFF052D0043006F006E006E0002000000FFFEFF0B43006F006E006E0065006300740069006F006E007300000000000000FFFEFF052D005700
310
61006C006C0002000000FFFEFF05570061006C006C007300000000000000FFFEFF052D004100730073006D0002000000FFFEFF0A41007300730065006D0062006C00690065007300000000000000FFFEFF052D005600680063006C0002000000FFFEFF08560065006800690063006C0065007300000000000000FFFEFF052D
310
0043006F006D006D0002000000FFFEFF1A540065006C006500700068006F006E0065002C00200063006F006D006D0075006E00690063006100740069006F006E0073002000000000000000FFFEFF052D00460072006500650002000000FFFEFF0C46007200650065007300740061006E00640069006E006700000000000000
310
FFFEFF052D00530079006D00620002000000FFFEFF07530079006D0062006F006C007300000000000000FFFEFF052D00520064006D00650002000000FFFEFF1B52006500610064002D006D00650020006C006100790065007200200028006E006F007400200070006C006F0074007400650064002900000000000000FFFEFF
310
052D0053006C006300650002000000FFFEFF0653006C006900630065007300000000000000FFFEFF052D00460061007300630002000000FFFEFF074600610073006300690061007300000000000000FFFEFF052D00460069006C00650002000000FFFEFF0D460069006C006500200063006100620069006E00650074007300
310
000000000000FFFEFF052D004D00610073006B0002000000FFFEFF1241004400540020004D00610073006B0069006E00670020004F0062006A00650063007400000000000000FFFEFF052D004A0061006D00620002000000FFFEFF1544006F006F007200200061006E0064002000770069006E0064006F00770020006A0061
310
006D0062007300000000000000FFFEFF052D005300690067006E0002000000FFFEFF055300690067006E007300000000000000FFFEFF052D0046006E007300680002000000FFFEFF08460069006E0069007300680065007300000000000000FFFEFF052D00530063006800640002000000FFFEFF0953006300680065006400
310
75006C0065007300000000000000FFFEFF052D00500072006800740002000000FFFEFF0E5000610072007400690061006C002000680065006900670068007400000000000000FFFEFF052D00470072007000730002000000FFFEFF06470072006F00750070007300000000000000FFFEFF052D00540068006C006400020000
310
00FFFEFF0A5400680072006500730068006F006C0064007300000000000000FFFEFF052D005300630072006E0002000000FFFEFF14530063007200650065006E006500640020004200610063006B00670072006F0075006E0064007300000000000000FFFEFF052D0043006F006D00700002000000FFFEFF1349006E007400
310
650072006E0061006C00200063006F006D0070006F006E0065006E0074007300000000000000FFFEFF052D005400690074006C0002000000FFFEFF18440072006100770069006E00670020006F0072002000640065007400610069006C0020007400690074006C0065007300000000000000FFFEFF052D0054006500780074
310
0002000000FFFEFF045400650078007400000000000000FFFEFF052D004D00610072006B0002000000FFFEFF1D4D00610072006B006500720073002C00200062007200650061006B0020006D00610072006B0073002C0020006C00650061006400650072007300000000000000FFFEFF052D00460075006C006C0002000000
310
FFFEFF0B460075006C006C002D00680065006900670068007400000000000000FFFEFF052D00450076007400720002000000FFFEFF1B45006C0065007600610074006F00720020006300610072007300200061006E0064002000650071007500690070006D0065006E007400000000000000FFFEFF052D0053007000630065
310
0002000000FFFEFF0553007000610063006500000000000000FFFEFF052D00530075007300700002000000FFFEFF12530075007300700065006E00640065006400200065006C0065006D0065006E0074007300000000000000FFFEFF052D00540065006500730002000000FFFEFF094D00610069006E002000740065006500
310
7300000000000000FFFEFF052D00460069007800740002000000FFFEFF1170006C0075006D00620069006E006700200066006900780074007500720065007300000000000000FFFEFF052D00520065006600720002000000FFFEFF195200650066006500720065006E00630065002C002000650078007400650072006E0061
310
006C002000660069006C0065007300000000000000FFFEFF052D004C00610062006C0002000000FFFEFF064C006100620065006C007300000000000000FFFEFF052D004C0069007400650002000000FFFEFF084C00690067006800740069006E006700000000000000FFFEFF052D00480065007600790002000000FFFEFF1A
310
4800650061007600790020007700650069006700680074002000670072006100700068006900630020006C0069006E0065007300000000000000FFFEFF052D00480065006100640002000000FFFEFF1744006F006F007200200061006E0064002000770069006E0064006F0077002000680065006100640065007200730000
310
0000000000FFFEFF052D004C00650067006E0002000000FFFEFF144C006500670065006E00640073002C002000530079006D0062006F006C0020006B00650079007300000000000000FFFEFF052D004B00650079006E0002000000FFFEFF084B00650079006E006F00740065007300000000000000FFFEFF052D0046006900
310
7800640002000000FFFEFF0F460069007800650064002000650071007500690070006D0065006E007400000000000000FFFEFF052D004C00650076006C0002000000FFFEFF274C006500760065006C0020006300680061006E006700650073002C002000720061006D00700073002C00200070006900740073002C00200064
310
0065007000720065007300730069006F006E007300000000000000FFFEFF052D004D00650064006D0002000000FFFEFF1B4D0065006400690075006D0020007700650069006700680074002000670072006100700068006900630020006C0069006E0065007300000000000000FFFEFF052D0042006C006F00770002000000
310
FFFEFF0E45006C0065006D0065006E00740073002000620065006C006F007700000000000000FFFEFF052D00410063006300730002000000FFFEFF06410063006300650073007300000000000000FFFEFF052D004F0063006300700002000000FFFEFF1A4F00630063007500700061006E00740020006F007200200065006D
310
0070006C006F0079006500650020006E0061006D0065007300000000000000FFFEFF052D00430061007300650002000000FFFEFF08430061007300650077006F0072006B00000000000000FFFEFF052D00520065007600730002000000FFFEFF095200650076006900730069006F006E007300000000000000FFFEFF052D00
310
420072006300650002000000FFFEFF06420072006100630065007300000000000000FFFEFF052D00480069006400650002000000FFFEFF0E480069006400640065006E0020006F0062006A006500630074007300000000000000FFFEFF052D0043006C006E00670002000000FFFEFF074300650069006C0069006E00670000
310
0000000000FFFEFF052D005500740069006C0002000000FFFEFF095500740069006C0069007400690065007300000000000000FFFEFF052D00500061007400740002000000FFFEFF19540065007800740075007200650020006F00720020006800610074006300680020007000610074007400650072006E00730000000000
310
0000FFFEFF052D00430061007600690002000000FFFEFF06430061007600690074007900000000000000FFFEFF052D0050006C006E00740002000000FFFEFF0650006C0061006E0074007300000000000000FFFEFF052D00530074007200730002000000FFFEFF215300740061006900720020007400720065006100640073
310
002C00200065007300630061006C00610074006F00720073002C0020006C00610064006400650072007300000000000000FFFEFF052D00520065007600630002000000FFFEFF0F5200650076006900730069006F006E00200063006C006F00750064007300000000000000FFFEFF052D004D006F007600650002000000FFFE
310
FF124D006F0076006500610062006C0065002000650071007500690070006D0065006E007400000000000000FFFEFF052D005000650070006C0002000000FFFEFF06500065006F0070006C006500000000000000FFFEFF052D00440065006D006F0002000000FFFEFF0A440065006D006F006C006900740069006F006E0000
310
0000000000FFFEFF052D00430075007200740002000000FFFEFF0C4300750072007400610069006E002000570061006C006C00000000000000FFFEFF052D005700640077006B0002000000FFFEFF164100720063006800690074006500630074007500720061006C00200077006F006F00640077006F0072006B0000000000
310
0000FFFEFF052D004E006F007400650002000000FFFEFF054E006F00740065007300000000000000FFFEFF052D004F0076006800640002000000FFFEFF084F007600650072006800650061006400000000000000FFFEFF052D00530075006200740002000000FFFEFF14530075006200740072006100630074006900760065
310
00200065006C0065006D0065006E0074007300000000000000FFFEFF052D00530044004600460002000000FFFEFF1053007500700070006C0079002000640069006600660075007300650072007300000000000000FFFEFF052D00530074006F00720002000000FFFEFF19530079007300740065006D002000730074006F00
310
7200610067006500200063006F006D0070006F006E0065006E0074007300000000000000FFFEFF052D004900640065006E0002000000FFFEFF134900640065006E00740069006600690063006100740069006F006E0020005400610067007300000000000000FFFEFF052D004800720061006C0002000000FFFEFF16480061
310
006E0064007200610069006C0073002C0020006700750061007200640020007200610069006C007300000000000000FFFEFF052D00570069006400650002000000FFFEFF19570069006400650020007700650069006700680074002000670072006100700068006900630020006C0069006E0065007300000000000000FFFE
310
FF052D004D0061007300730002000000FFFEFF104D0061007300730069006E006700200045006C0065006D0065006E0074007300000000000000FFFEFF052D004C0069006E00650002000000FFFEFF0D44006500660069006E0069006E00670020004C0069006E006500000000000000FFFEFF052D00560069006500770002
310
000000FFFEFF13560069006500770070006F0072007400200044006500660069006E006900740069006F006E00000000000000FFFEFF052D0050006B006E00670002000000FFFEFF075000610072006B0069006E006700000000000000FFFEFF052D00520044004600460002000000FFFEFF14520065007400750072006E00
310
20006100690072002000640069006600660075007300650072007300000000000000FFFEFF052D00530065006100740002000000FFFEFF07530065006100740069006E006700000000000000FFFEFF052D0050006E006C00730002000000FFFEFF0D530079007300740065006D002000700061006E0065006C007300000000
310
000000FFFEFF052D004D0061007400630002000000FFFEFF0B4D00610074006300680020006C0069006E0065007300000000000000FFFEFF052D00410064007400760002000000FFFEFF1141006400640069007400690076006500200065006C0065006D0065006E0074007300000000000000FFFEFF052D00430068006100
310
730002000000FFFEFF0543006800610073006500000000000000FFFEFF052D005300700063006C0002000000FFFEFF0B5300700065006300690061006C007400690065007300000000000000FFFEFF052D00470072006900640002000000FFFEFF044700720069006400000000000000FFFEFF052D004E00690063006E0002
310
000000FFFEFF0F4E006F007400200069006E00200063006F006E0074007200610063007400000000000000FFFEFF052D004D0063007500740002000000FFFEFF164D00610069006E00200063007500740020006C0069006E006500200065006C0065006D0065006E0074007300000000000000FFFEFF052D00460069007200
310
650002000000FFFEFF0A46006900720065002000770061006C006C007300000000000000FFFEFF052D00530069006C006C0002000000FFFEFF0C570069006E0064006F0077002000730069006C006C007300000000000000FFFEFF052D005400700074006E0002000000FFFEFF1154006F0069006C00650074002000700061
310
00720074006900740069006F006E007300000000000000FFFEFF052D00520069007300720002000000FFFEFF0C530074006100690072002000720069007300650072007300000000000000FFFEFF052D004F0074006C006E0002000000FFFEFF074F00750074006C0069006E006500000000000000FFFEFF052D0054007400
310
6C00620002000000FFFEFF1642006F007200640065007200200061006E00640020007400690074006C006500200062006C006F0063006B000000000000000180FFFEFF074D0069006E006F0072002000320005000000004164642062656C6F77207468652073656C6563746564206974656DFFFEFF001600FFFEFF052D0041
310
0062006F00760002000000FFFEFF0E45006C0065006D0065006E00740073002000610062006F0076006500000000000000FFFEFF052D00420064007200790002000000FFFEFF0D4500640067006500200062006F0075006E006400610072007900000000000000FFFEFF052D005400680069006E0002000000FFFEFF0E4D00
310
69006E006F00720020006C0069006E00650077006F0072006B00000000000000FFFEFF052D004E0070006C00740002000000FFFEFF154E006F006E002D0070006C006F007400740069006E006700200065006C0065006D0065006E0074007300000000000000FFFEFF052D005200650066006C0002000000FFFEFF0F520065
310
0066006C0065006300740065006400200050006C0061006E007300000000000000FFFEFF052D00440069006D00730002000000FFFEFF0A440069006D0065006E00730069006F006E007300000000000000FFFEFF052D005300630061006C0002000000FFFEFF10470072006100700068006900630061006C00200053006300
310
61006C0065007300000000000000FFFEFF052D0053006C006300650002000000FFFEFF0653006C006900630065007300000000000000FFFEFF052D0047006C0061007A0002000000FFFEFF0747006C0061007A0069006E006700000000000000FFFEFF052D00460061007300630002000000FFFEFF06460061007300630069
310
006100000000000000FFFEFF052D00470072007000730002000000FFFEFF06470072006F00750070007300000000000000FFFEFF052D005400690074006C0002000000FFFEFF065400690074006C0065007300000000000000FFFEFF052D00530066006900740002000000FFFEFF0653006F00660066006900740000000000
310
0000FFFEFF052D00500061007400740002000000FFFEFF0E4800610074006300680020007000610074007400650072006E007300000000000000FFFEFF052D00480069006400650002000000FFFEFF0F480069006400640065006E00200065006C0065006D0065006E0074007300000000000000FFFEFF052D004E006F0074
310
00650002000000FFFEFF16470065006E006500720061006C0020005400650078007400200061006E00640020004E006F00740065007300000000000000FFFEFF052D0055006E006900740002000000FFFEFF0455006E0069007400000000000000FFFEFF052D004900640065006E0002000000FFFEFF0A4900640065006E00
310
740069006600690065007200000000000000FFFEFF052D004C0069006E00650002000000FFFEFF10470065006E006500720061006C0020006C0069006E00650077006F0072006B00000000000000FFFEFF052D00530069006C006C0002000000FFFEFF05530069006C006C007300000000000000FFFEFF052D005200690073
310
00720002000000FFFEFF06520069007300650072007300000000000000FFFEFF052D004F0074006C006E0002000000FFFEFF074F00750074006C0069006E0065000000000000000180FFFEFF06530074006100740075007300060000000000000000A434770470040000B10000005073770400000000050000FFFEFF000F00
310
FFFEFF022D00310002000000FFFEFF075000680061007300650020003100000000000000FFFEFF022D00320002000000FFFEFF075000680061007300650020003200000000000000FFFEFF022D00540002000000FFFEFF0E540065006D0070006F007200610072007900200077006F0072006B00000000000000FFFEFF022D
310
00330002000000FFFEFF075000680061007300650020003300000000000000FFFEFF022D00440002000000FFFEFF144500780069007300740069006E006700200074006F002000640065006D006F006C00690073006800000000000000FFFEFF022D00340002000000FFFEFF07500068006100730065002000340000000000
310
0000FFFEFF022D00450002000000FFFEFF124500780069007300740069006E006700200074006F002000720065006D00610069006E00000000000000FFFEFF022D00350002000000FFFEFF075000680061007300650020003500000000000000FFFEFF022D00460002000000FFFEFF0B460075007400750072006500200077
310
006F0072006B00000000000000FFFEFF022D00360002000000FFFEFF075000680061007300650020003600000000000000FFFEFF022D00370002000000FFFEFF075000680061007300650020003700000000000000FFFEFF022D00380002000000FFFEFF075000680061007300650020003800000000000000FFFEFF022D00
310
390002000000FFFEFF075000680061007300650020003900000000000000FFFEFF022D004D0002000000FFFEFF114900740065006D007300200074006F0020006200650020006D006F00760065006400000000000000FFFEFF022D004E0002000000FFFEFF084E0065007700200077006F0072006B000000000000000600FF
310
FF04001A004163416563556B4C61796572436F6D706F6E656E744669656C64FFFEFF174400690073006300690070006C0069006E0065002000440065007300690067006E00610074006F0072002000310001000000FFFEFF0440002C0040004000000000000100000000FFFEFF014100000000000780FFFEFF174400690073
310
006300690070006C0069006E0065002000440065007300690067006E00610074006F0072002000320001000000FFFEFF0440002C0040004000010000000100000000FFFEFF014400000000000780FFFEFF054D0061006A006F00720005000000FFFEFF052D00400040004000400000000000010000002DFFFEFF052D005700
310
61006C006C00000000000780FFFEFF064D0069006E006F007200310005000000FFFEFF022D002A0001000000010000002DFFFEFF052D004900640065006E00000000000780FFFEFF064D0069006E006F007200320005000000FFFEFF022D002A0001000000010000002DFFFEFF052D005400650078007400000000000780FF
310
FEFF0653007400610074007500730002000000FFFEFF022D002A0001000000010000002DFFFEFF022D004E0000000000050000010203040500FFFEFF00FFFEFF0320002D002000FFFEFF022C002000FFFEFF012000FFFEFF0320002D002000FFFEFF00
  0
DICTIONARY
  5
3D98
330
3D97
100
AcDbDictionary
280
     1
281
     1
  3
AcadLayerStateAnnoScale
360
3D99
  0
DICTIONARY
  5
3D8C
330
3D8B
100
AcDbDictionary
280
     1
281
     1
  3
AcadLayerStateAnnoScale
360
3D8D
  0
DICTIONARY
  5
B73D
330
B73C
100
AcDbDictionary
280
     1
281
     1
  3
AcadLayerStateAnnoScale
360
B73E
  0
DICTIONARY
  5
B741
330
B740
100
AcDbDictionary
280
     1
281
     1
  3
AcadLayerStateAnnoScale
360
B742
  0
DICTIONARY
  5
B744
330
B743
100
AcDbDictionary
280
     1
281
     1
  3
AcadLayerStateAnnoScale
360
B745
  0
DICTIONARY
  5
B747
330
B746
100
AcDbDictionary
280
     1
281
     1
  3
AcadLayerStateAnnoScale
360
B748
  0
CELLSTYLEMAP
  5
B98E
102
{ACAD_REACTORS
330
B754
102
}
330
B754
100
AcDbCellStyleMap
 90
        3
300
CELLSTYLE
  1
TABLEFORMAT_BEGIN
 90
        5
170
     1
 91
        0
 92
    32768
 62
   257
 93
        1
300
CONTENTFORMAT
  1
CONTENTFORMAT_BEGIN
 90
        0
 91
        0
 92
      512
 93
        0
300

 40
0.0
140
1.0
 94
        5
 62
     0
340
B755
144
0.25
309
CONTENTFORMAT_END
171
     1
301
MARGIN
  1
CELLMARGIN_BEGIN
 40
0.06
 40
0.06
 40
0.06
 40
0.06
 40
0.18
 40
0.18
309
CELLMARGIN_END
 94
        6
 95
        1
302
GRIDFORMAT
  1
GRIDFORMAT_BEGIN
 90
        0
 91
        1
 62
     0
 92
       -2
340
0
 93
        0
 40
0.045
309
GRIDFORMAT_END
 95
        2
302
GRIDFORMAT
  1
GRIDFORMAT_BEGIN
 90
        0
 91
        1
 62
     0
 92
       -2
340
0
 93
        0
 40
0.045
309
GRIDFORMAT_END
 95
        4
302
GRIDFORMAT
  1
GRIDFORMAT_BEGIN
 90
        0
 91
        1
 62
     0
 92
       -2
340
0
 93
        0
 40
0.045
309
GRIDFORMAT_END
 95
        8
302
GRIDFORMAT
  1
GRIDFORMAT_BEGIN
 90
        0
 91
        1
 62
     0
 92
       -2
340
0
 93
        0
 40
0.045
309
GRIDFORMAT_END
 95
       16
302
GRIDFORMAT
  1
GRIDFORMAT_BEGIN
 90
        0
 91
        1
 62
     0
 92
       -2
340
0
 93
        0
 40
0.045
309
GRIDFORMAT_END
 95
       32
302
GRIDFORMAT
  1
GRIDFORMAT_BEGIN
 90
        0
 91
        1
 62
     0
 92
       -2
340
0
 93
        0
 40
0.045
309
GRIDFORMAT_END
309
TABLEFORMAT_END
  1
CELLSTYLE_BEGIN
 90
        1
 91
        1
300
_TITLE
309
CELLSTYLE_END
300
CELLSTYLE
  1
TABLEFORMAT_BEGIN
 90
        5
170
     1
 91
        0
 92
        0
 62
   257
 93
        1
300
CONTENTFORMAT
  1
CONTENTFORMAT_BEGIN
 90
        0
 91
        0
 92
      512
 93
        0
300

 40
0.0
140
1.0
 94
        5
 62
     0
340
B755
144
0.18
309
CONTENTFORMAT_END
171
     1
301
MARGIN
  1
CELLMARGIN_BEGIN
 40
0.06
 40
0.06
 40
0.06
 40
0.06
 40
0.18
 40
0.18
309
CELLMARGIN_END
 94
        6
 95
        1
302
GRIDFORMAT
  1
GRIDFORMAT_BEGIN
 90
        0
 91
        1
 62
     0
 92
       -2
340
0
 93
        0
 40
0.045
309
GRIDFORMAT_END
 95
        2
302
GRIDFORMAT
  1
GRIDFORMAT_BEGIN
 90
        0
 91
        1
 62
     0
 92
       -2
340
0
 93
        0
 40
0.045
309
GRIDFORMAT_END
 95
        4
302
GRIDFORMAT
  1
GRIDFORMAT_BEGIN
 90
        0
 91
        1
 62
     0
 92
       -2
340
0
 93
        0
 40
0.045
309
GRIDFORMAT_END
 95
        8
302
GRIDFORMAT
  1
GRIDFORMAT_BEGIN
 90
        0
 91
        1
 62
     0
 92
       -2
340
0
 93
        0
 40
0.045
309
GRIDFORMAT_END
 95
       16
302
GRIDFORMAT
  1
GRIDFORMAT_BEGIN
 90
        0
 91
        1
 62
     0
 92
       -2
340
0
 93
        0
 40
0.045
309
GRIDFORMAT_END
 95
       32
302
GRIDFORMAT
  1
GRIDFORMAT_BEGIN
 90
        0
 91
        1
 62
     0
 92
       -2
340
0
 93
        0
 40
0.045
309
GRIDFORMAT_END
309
TABLEFORMAT_END
  1
CELLSTYLE_BEGIN
 90
        2
 91
        1
300
_HEADER
309
CELLSTYLE_END
300
CELLSTYLE
  1
TABLEFORMAT_BEGIN
 90
        5
170
     1
 91
        0
 92
        0
 62
   257
 93
        1
300
CONTENTFORMAT
  1
CONTENTFORMAT_BEGIN
 90
        0
 91
        0
 92
      512
 93
        0
300

 40
0.0
140
1.0
 94
        2
 62
     0
340
B755
144
0.18
309
CONTENTFORMAT_END
171
     1
301
MARGIN
  1
CELLMARGIN_BEGIN
 40
0.06
 40
0.06
 40
0.06
 40
0.06
 40
0.18
 40
0.18
309
CELLMARGIN_END
 94
        6
 95
        1
302
GRIDFORMAT
  1
GRIDFORMAT_BEGIN
 90
        0
 91
        1
 62
     0
 92
       -2
340
0
 93
        0
 40
0.045
309
GRIDFORMAT_END
 95
        2
302
GRIDFORMAT
  1
GRIDFORMAT_BEGIN
 90
        0
 91
        1
 62
     0
 92
       -2
340
0
 93
        0
 40
0.045
309
GRIDFORMAT_END
 95
        4
302
GRIDFORMAT
  1
GRIDFORMAT_BEGIN
 90
        0
 91
        1
 62
     0
 92
       -2
340
0
 93
        0
 40
0.045
309
GRIDFORMAT_END
 95
        8
302
GRIDFORMAT
  1
GRIDFORMAT_BEGIN
 90
        0
 91
        1
 62
     0
 92
       -2
340
0
 93
        0
 40
0.045
309
GRIDFORMAT_END
 95
       16
302
GRIDFORMAT
  1
GRIDFORMAT_BEGIN
 90
        0
 91
        1
 62
     0
 92
       -2
340
0
 93
        0
 40
0.045
309
GRIDFORMAT_END
 95
       32
302
GRIDFORMAT
  1
GRIDFORMAT_BEGIN
 90
        0
 91
        1
 62
     0
 92
       -2
340
0
 93
        0
 40
0.045
309
GRIDFORMAT_END
309
TABLEFORMAT_END
  1
CELLSTYLE_BEGIN
 90
        3
 91
        2
300
_DATA
309
CELLSTYLE_END
  0
CELLSTYLEMAP
  5
B98F
102
{ACAD_REACTORS
330
B7E1
102
}
330
B7E1
100
AcDbCellStyleMap
 90
        3
300
CELLSTYLE
  1
TABLEFORMAT_BEGIN
 90
        5
170
     1
 91
        0
 92
    32768
 62
   257
 93
        1
300
CONTENTFORMAT
  1
CONTENTFORMAT_BEGIN
 90
        0
 91
        0
 92
      512
 93
        0
300

 40
0.0
140
1.0
 94
        5
 62
     0
340
B7E2
144
0.25
309
CONTENTFORMAT_END
171
     1
301
MARGIN
  1
CELLMARGIN_BEGIN
 40
0.06
 40
0.06
 40
0.06
 40
0.06
 40
0.18
 40
0.18
309
CELLMARGIN_END
 94
        6
 95
        1
302
GRIDFORMAT
  1
GRIDFORMAT_BEGIN
 90
        0
 91
        1
 62
     0
 92
       -2
340
0
 93
        0
 40
0.045
309
GRIDFORMAT_END
 95
        2
302
GRIDFORMAT
  1
GRIDFORMAT_BEGIN
 90
        0
 91
        1
 62
     0
 92
       -2
340
0
 93
        0
 40
0.045
309
GRIDFORMAT_END
 95
        4
302
GRIDFORMAT
  1
GRIDFORMAT_BEGIN
 90
        0
 91
        1
 62
     0
 92
       -2
340
0
 93
        0
 40
0.045
309
GRIDFORMAT_END
 95
        8
302
GRIDFORMAT
  1
GRIDFORMAT_BEGIN
 90
        0
 91
        1
 62
     0
 92
       -2
340
0
 93
        0
 40
0.045
309
GRIDFORMAT_END
 95
       16
302
GRIDFORMAT
  1
GRIDFORMAT_BEGIN
 90
        0
 91
        1
 62
     0
 92
       -2
340
0
 93
        0
 40
0.045
309
GRIDFORMAT_END
 95
       32
302
GRIDFORMAT
  1
GRIDFORMAT_BEGIN
 90
        0
 91
        1
 62
     0
 92
       -2
340
0
 93
        0
 40
0.045
309
GRIDFORMAT_END
309
TABLEFORMAT_END
  1
CELLSTYLE_BEGIN
 90
        1
 91
        1
300
_TITLE
309
CELLSTYLE_END
300
CELLSTYLE
  1
TABLEFORMAT_BEGIN
 90
        5
170
     1
 91
        0
 92
        0
 62
   257
 93
        1
300
CONTENTFORMAT
  1
CONTENTFORMAT_BEGIN
 90
        0
 91
        0
 92
      512
 93
        0
300

 40
0.0
140
1.0
 94
        5
 62
     0
340
B7E2
144
0.18
309
CONTENTFORMAT_END
171
     1
301
MARGIN
  1
CELLMARGIN_BEGIN
 40
0.06
 40
0.06
 40
0.06
 40
0.06
 40
0.18
 40
0.18
309
CELLMARGIN_END
 94
        6
 95
        1
302
GRIDFORMAT
  1
GRIDFORMAT_BEGIN
 90
        0
 91
        1
 62
     0
 92
       -2
340
0
 93
        0
 40
0.045
309
GRIDFORMAT_END
 95
        2
302
GRIDFORMAT
  1
GRIDFORMAT_BEGIN
 90
        0
 91
        1
 62
     0
 92
       -2
340
0
 93
        0
 40
0.045
309
GRIDFORMAT_END
 95
        4
302
GRIDFORMAT
  1
GRIDFORMAT_BEGIN
 90
        0
 91
        1
 62
     0
 92
       -2
340
0
 93
        0
 40
0.045
309
GRIDFORMAT_END
 95
        8
302
GRIDFORMAT
  1
GRIDFORMAT_BEGIN
 90
        0
 91
        1
 62
     0
 92
       -2
340
0
 93
        0
 40
0.045
309
GRIDFORMAT_END
 95
       16
302
GRIDFORMAT
  1
GRIDFORMAT_BEGIN
 90
        0
 91
        1
 62
     0
 92
       -2
340
0
 93
        0
 40
0.045
309
GRIDFORMAT_END
 95
       32
302
GRIDFORMAT
  1
GRIDFORMAT_BEGIN
 90
        0
 91
        1
 62
     0
 92
       -2
340
0
 93
        0
 40
0.045
309
GRIDFORMAT_END
309
TABLEFORMAT_END
  1
CELLSTYLE_BEGIN
 90
        2
 91
        1
300
_HEADER
309
CELLSTYLE_END
300
CELLSTYLE
  1
TABLEFORMAT_BEGIN
 90
        5
170
     1
 91
        0
 92
        0
 62
   257
 93
        1
300
CONTENTFORMAT
  1
CONTENTFORMAT_BEGIN
 90
        0
 91
        0
 92
      512
 93
        0
300

 40
0.0
140
1.0
 94
        2
 62
     0
340
B7E2
144
0.18
309
CONTENTFORMAT_END
171
     1
301
MARGIN
  1
CELLMARGIN_BEGIN
 40
0.06
 40
0.06
 40
0.06
 40
0.06
 40
0.18
 40
0.18
309
CELLMARGIN_END
 94
        6
 95
        1
302
GRIDFORMAT
  1
GRIDFORMAT_BEGIN
 90
        0
 91
        1
 62
     0
 92
       -2
340
0
 93
        0
 40
0.045
309
GRIDFORMAT_END
 95
        2
302
GRIDFORMAT
  1
GRIDFORMAT_BEGIN
 90
        0
 91
        1
 62
     0
 92
       -2
340
0
 93
        0
 40
0.045
309
GRIDFORMAT_END
 95
        4
302
GRIDFORMAT
  1
GRIDFORMAT_BEGIN
 90
        0
 91
        1
 62
     0
 92
       -2
340
0
 93
        0
 40
0.045
309
GRIDFORMAT_END
 95
        8
302
GRIDFORMAT
  1
GRIDFORMAT_BEGIN
 90
        0
 91
        1
 62
     0
 92
       -2
340
0
 93
        0
 40
0.045
309
GRIDFORMAT_END
 95
       16
302
GRIDFORMAT
  1
GRIDFORMAT_BEGIN
 90
        0
 91
        1
 62
     0
 92
       -2
340
0
 93
        0
 40
0.045
309
GRIDFORMAT_END
 95
       32
302
GRIDFORMAT
  1
GRIDFORMAT_BEGIN
 90
        0
 91
        1
 62
     0
 92
       -2
340
0
 93
        0
 40
0.045
309
GRIDFORMAT_END
309
TABLEFORMAT_END
  1
CELLSTYLE_BEGIN
 90
        3
 91
        2
300
_DATA
309
CELLSTYLE_END
  0
CELLSTYLEMAP
  5
B988
102
{ACAD_REACTORS
330
30E
102
}
330
30E
100
AcDbCellStyleMap
 90
        3
300
CELLSTYLE
  1
TABLEFORMAT_BEGIN
 90
        5
170
     1
 91
        0
 92
    32768
 62
   257
 93
        1
300
CONTENTFORMAT
  1
CONTENTFORMAT_BEGIN
 90
        0
 91
        0
 92
      512
 93
        0
300

 40
0.0
140
1.0
 94
        5
 62
     0
340
11
144
0.25
309
CONTENTFORMAT_END
171
     1
301
MARGIN
  1
CELLMARGIN_BEGIN
 40
0.06
 40
0.06
 40
0.06
 40
0.06
 40
0.18
 40
0.18
309
CELLMARGIN_END
 94
        6
 95
        1
302
GRIDFORMAT
  1
GRIDFORMAT_BEGIN
 90
        0
 91
        1
 62
     0
 92
       -2
340
0
 93
        0
 40
0.045
309
GRIDFORMAT_END
 95
        2
302
GRIDFORMAT
  1
GRIDFORMAT_BEGIN
 90
        0
 91
        1
 62
     0
 92
       -2
340
0
 93
        0
 40
0.045
309
GRIDFORMAT_END
 95
        4
302
GRIDFORMAT
  1
GRIDFORMAT_BEGIN
 90
        0
 91
        1
 62
     0
 92
       -2
340
0
 93
        0
 40
0.045
309
GRIDFORMAT_END
 95
        8
302
GRIDFORMAT
  1
GRIDFORMAT_BEGIN
 90
        0
 91
        1
 62
     0
 92
       -2
340
0
 93
        0
 40
0.045
309
GRIDFORMAT_END
 95
       16
302
GRIDFORMAT
  1
GRIDFORMAT_BEGIN
 90
        0
 91
        1
 62
     0
 92
       -2
340
0
 93
        0
 40
0.045
309
GRIDFORMAT_END
 95
       32
302
GRIDFORMAT
  1
GRIDFORMAT_BEGIN
 90
        0
 91
        1
 62
     0
 92
       -2
340
0
 93
        0
 40
0.045
309
GRIDFORMAT_END
309
TABLEFORMAT_END
  1
CELLSTYLE_BEGIN
 90
        1
 91
        1
300
_TITLE
309
CELLSTYLE_END
300
CELLSTYLE
  1
TABLEFORMAT_BEGIN
 90
        5
170
     1
 91
        0
 92
        0
 62
   257
 93
        1
300
CONTENTFORMAT
  1
CONTENTFORMAT_BEGIN
 90
        0
 91
        0
 92
      512
 93
        0
300

 40
0.0
140
1.0
 94
        5
 62
     0
340
11
144
0.18
309
CONTENTFORMAT_END
171
     1
301
MARGIN
  1
CELLMARGIN_BEGIN
 40
0.06
 40
0.06
 40
0.06
 40
0.06
 40
0.18
 40
0.18
309
CELLMARGIN_END
 94
        6
 95
        1
302
GRIDFORMAT
  1
GRIDFORMAT_BEGIN
 90
        0
 91
        1
 62
     0
 92
       -2
340
0
 93
        0
 40
0.045
309
GRIDFORMAT_END
 95
        2
302
GRIDFORMAT
  1
GRIDFORMAT_BEGIN
 90
        0
 91
        1
 62
     0
 92
       -2
340
0
 93
        0
 40
0.045
309
GRIDFORMAT_END
 95
        4
302
GRIDFORMAT
  1
GRIDFORMAT_BEGIN
 90
        0
 91
        1
 62
     0
 92
       -2
340
0
 93
        0
 40
0.045
309
GRIDFORMAT_END
 95
        8
302
GRIDFORMAT
  1
GRIDFORMAT_BEGIN
 90
        0
 91
        1
 62
     0
 92
       -2
340
0
 93
        0
 40
0.045
309
GRIDFORMAT_END
 95
       16
302
GRIDFORMAT
  1
GRIDFORMAT_BEGIN
 90
        0
 91
        1
 62
     0
 92
       -2
340
0
 93
        0
 40
0.045
309
GRIDFORMAT_END
 95
       32
302
GRIDFORMAT
  1
GRIDFORMAT_BEGIN
 90
        0
 91
        1
 62
     0
 92
       -2
340
0
 93
        0
 40
0.045
309
GRIDFORMAT_END
309
TABLEFORMAT_END
  1
CELLSTYLE_BEGIN
 90
        2
 91
        1
300
_HEADER
309
CELLSTYLE_END
300
CELLSTYLE
  1
TABLEFORMAT_BEGIN
 90
        5
170
     1
 91
        0
 92
        0
 62
   257
 93
        1
300
CONTENTFORMAT
  1
CONTENTFORMAT_BEGIN
 90
        0
 91
        0
 92
      512
 93
        0
300

 40
0.0
140
1.0
 94
        2
 62
     0
340
11
144
0.18
309
CONTENTFORMAT_END
171
     1
301
MARGIN
  1
CELLMARGIN_BEGIN
 40
0.06
 40
0.06
 40
0.06
 40
0.06
 40
0.18
 40
0.18
309
CELLMARGIN_END
 94
        6
 95
        1
302
GRIDFORMAT
  1
GRIDFORMAT_BEGIN
 90
        0
 91
        1
 62
     0
 92
       -2
340
0
 93
        0
 40
0.045
309
GRIDFORMAT_END
 95
        2
302
GRIDFORMAT
  1
GRIDFORMAT_BEGIN
 90
        0
 91
        1
 62
     0
 92
       -2
340
0
 93
        0
 40
0.045
309
GRIDFORMAT_END
 95
        4
302
GRIDFORMAT
  1
GRIDFORMAT_BEGIN
 90
        0
 91
        1
 62
     0
 92
       -2
340
0
 93
        0
 40
0.045
309
GRIDFORMAT_END
 95
        8
302
GRIDFORMAT
  1
GRIDFORMAT_BEGIN
 90
        0
 91
        1
 62
     0
 92
       -2
340
0
 93
        0
 40
0.045
309
GRIDFORMAT_END
 95
       16
302
GRIDFORMAT
  1
GRIDFORMAT_BEGIN
 90
        0
 91
        1
 62
     0
 92
       -2
340
0
 93
        0
 40
0.045
309
GRIDFORMAT_END
 95
       32
302
GRIDFORMAT
  1
GRIDFORMAT_BEGIN
 90
        0
 91
        1
 62
     0
 92
       -2
340
0
 93
        0
 40
0.045
309
GRIDFORMAT_END
309
TABLEFORMAT_END
  1
CELLSTYLE_BEGIN
 90
        3
 91
        2
300
_DATA
309
CELLSTYLE_END
  0
XRECORD
  5
812
102
{ACAD_REACTORS
330
811
102
}
330
811
100
AcDbXrecord
280
     1
 90
        2
  0
XRECORD
  5
3D99
102
{ACAD_REACTORS
330
3D98
102
}
330
3D98
100
AcDbXrecord
280
     1
330
2A2
  0
XRECORD
  5
3D8D
102
{ACAD_REACTORS
330
3D8C
102
}
330
3D8C
100
AcDbXrecord
280
     1
330
2A2
  0
XRECORD
  5
B73E
102
{ACAD_REACTORS
330
B73D
102
}
330
B73D
100
AcDbXrecord
280
     1
330
2A2
  0
XRECORD
  5
B742
102
{ACAD_REACTORS
330
B741
102
}
330
B741
100
AcDbXrecord
280
     1
330
2A2
  0
XRECORD
  5
B745
102
{ACAD_REACTORS
330
B744
102
}
330
B744
100
AcDbXrecord
280
     1
330
2A2
  0
XRECORD
  5
B748
102
{ACAD_REACTORS
330
B747
102
}
330
B747
100
AcDbXrecord
280
     1
330
2A2
  0
ENDSEC
  0
EOF
