  0
SECTION
  2
HEADER
  9
$ACADVER
  1
AC1015
  9
$ACADMAINTVER
 70
     6
  9
$DWGCODEPAGE
  3
ANSI_1252
  9
$INSBASE
 10
0.0
 20
0.0
 30
0.0
  9
$EXTMIN
 10
0.0
 20
0.0
 30
0.0
  9
$EXTMAX
 10
210.0
 20
297.0
 30
0.0
  9
$LIMMIN
 10
0.0
 20
0.0
  9
$LIMMAX
 10
210.0
 20
297.0
  9
$ORTHOMODE
 70
     0
  9
$REGENMODE
 70
     1
  9
$FILLMODE
 70
     1
  9
$QTEXTMODE
 70
     0
  9
$MIRRTEXT
 70
     1
  9
$LTSCALE
 40
1.0
  9
$ATTMODE
 70
     1
  9
$TEXTSIZE
 40
3.5
  9
$TRACEWID
 40
1.0
  9
$TEXTSTYLE
  7
Standard
  9
$CLAYER
  8
0
  9
$CELTYPE
  6
ByLayer
  9
$CECOLOR
 62
   256
  9
$CELTSCALE
 40
1.0
  9
$DISPSILH
 70
     0
  9
$DIMSCALE
 40
1.0
  9
$DIMASZ
 40
3.302
  9
$DIMEXO
 40
1.0
  9
$DIMDLI
 40
3.75
  9
$DIMRND
 40
0.0
  9
$DIMDLE
 40
0.0
  9
$DIMEXE
 40
1.0
  9
$DIMTP
 40
0.0
  9
$DIMTM
 40
0.0
  9
$DIMTXT
 40
3.5
  9
$DIMCEN
 40
2.5
  9
$DIMTSZ
 40
0.0
  9
$DIMTOL
 70
     0
  9
$DIMLIM
 70
     0
  9
$DIMTIH
 70
     1
  9
$DIMTOH
 70
     1
  9
$DIMSE1
 70
     0
  9
$DIMSE2
 70
     0
  9
$DIMTAD
 70
     1
  9
$DIMZIN
 70
     0
  9
$DIMBLK
  1

  9
$DIMASO
 70
     1
  9
$DIMSHO
 70
     1
  9
$DIMPOST
  1

  9
$DIMAPOST
  1

  9
$DIMALT
 70
     0
  9
$DIMALTD
 70
     3
  9
$DIMALTF
 40
0.0393700787
  9
$DIMLFAC
 40
5.0
  9
$DIMTOFL
 70
     1
  9
$DIMTVP
 40
0.0
  9
$DIMTIX
 70
     0
  9
$DIMSOXD
 70
     0
  9
$DIMSAH
 70
     0
  9
$DIMBLK1
  1

  9
$DIMBLK2
  1

  9
$DIMSTYLE
  2
ISO-25
  9
$DIMCLRD
 70
     0
  9
$DIMCLRE
 70
     0
  9
$DIMCLRT
 70
     0
  9
$DIMTFAC
 40
1.0
  9
$DIMGAP
 40
1.524
  9
$DIMJUST
 70
     0
  9
$DIMSD1
 70
     0
  9
$DIMSD2
 70
     0
  9
$DIMTOLJ
 70
     0
  9
$DIMTZIN
 70
     0
  9
$DIMALTZ
 70
     0
  9
$DIMALTTZ
 70
     0
  9
$DIMUPT
 70
     0
  9
$DIMDEC
 70
     2
  9
$DIMTDEC
 70
     2
  9
$DIMALTU
 70
     2
  9
$DIMALTTD
 70
     3
  9
$DIMTXSTY
  7
Standard
  9
$DIMAUNIT
 70
     0
  9
$DIMADEC
 70
     2
  9
$DIMALTRND
 40
0.0
  9
$DIMAZIN
 70
     0
  9
$DIMDSEP
 70
    44
  9
$DIMATFIT
 70
     3
  9
$DIMFRAC
 70
     0
  9
$DIMLDRBLK
  1

  9
$DIMLUNIT
 70
     2
  9
$DIMLWD
 70
    -2
  9
$DIMLWE
 70
    -2
  9
$DIMTMOVE
 70
     0
  9
$LUNITS
 70
     2
  9
$LUPREC
 70
     2
  9
$SKETCHINC
 40
1.0
  9
$FILLETRAD
 40
10.0
  9
$AUNITS
 70
     0
  9
$AUPREC
 70
     2
  9
$MENU
  1
.
  9
$ELEVATION
 40
0.0
  9
$PELEVATION
 40
0.0
  9
$THICKNESS
 40
0.0
  9
$LIMCHECK
 70
     0
  9
$CHAMFERA
 40
10.0
  9
$CHAMFERB
 40
10.0
  9
$CHAMFERC
 40
20.0
  9
$CHAMFERD
 40
0.0
  9
$SKPOLY
 70
     0
  9
$TDCREATE
 40
2455748.571164688
  9
$TDUCREATE
 40
2455748.071164688
  9
$TDUPDATE
 40
2455748.571164699
  9
$TDUUPDATE
 40
2455748.071164699
  9
$TDINDWG
 40
0.0000000116
  9
$TDUSRTIMER
 40
0.0000000116
  9
$USRTIMER
 70
     1
  9
$ANGBASE
 50
0.0
  9
$ANGDIR
 70
     0
  9
$PDMODE
 70
     0
  9
$PDSIZE
 40
-1.0
  9
$PLINEWID
 40
0.0
  9
$SPLFRAME
 70
     0
  9
$SPLINETYPE
 70
     6
  9
$SPLINESEGS
 70
     8
  9
$HANDSEED
  5
314
  9
$SURFTAB1
 70
     6
  9
$SURFTAB2
 70
     6
  9
$SURFTYPE
 70
     6
  9
$SURFU
 70
     6
  9
$SURFV
 70
     6
  9
$UCSBASE
  2

  9
$UCSNAME
  2

  9
$UCSORG
 10
0.0
 20
0.0
 30
0.0
  9
$UCSXDIR
 10
1.0
 20
0.0
 30
0.0
  9
$UCSYDIR
 10
0.0
 20
1.0
 30
0.0
  9
$UCSORTHOREF
  2

  9
$UCSORTHOVIEW
 70
     0
  9
$UCSORGTOP
 10
0.0
 20
0.0
 30
0.0
  9
$UCSORGBOTTOM
 10
0.0
 20
0.0
 30
0.0
  9
$UCSORGLEFT
 10
0.0
 20
0.0
 30
0.0
  9
$UCSORGRIGHT
 10
0.0
 20
0.0
 30
0.0
  9
$UCSORGFRONT
 10
0.0
 20
0.0
 30
0.0
  9
$UCSORGBACK
 10
0.0
 20
0.0
 30
0.0
  9
$PUCSBASE
  2

  9
$PUCSNAME
  2

  9
$PUCSORG
 10
0.0
 20
0.0
 30
0.0
  9
$PUCSXDIR
 10
1.0
 20
0.0
 30
0.0
  9
$PUCSYDIR
 10
0.0
 20
1.0
 30
0.0
  9
$PUCSORTHOREF
  2

  9
$PUCSORTHOVIEW
 70
     0
  9
$PUCSORGTOP
 10
0.0
 20
0.0
 30
0.0
  9
$PUCSORGBOTTOM
 10
0.0
 20
0.0
 30
0.0
  9
$PUCSORGLEFT
 10
0.0
 20
0.0
 30
0.0
  9
$PUCSORGRIGHT
 10
0.0
 20
0.0
 30
0.0
  9
$PUCSORGFRONT
 10
0.0
 20
0.0
 30
0.0
  9
$PUCSORGBACK
 10
0.0
 20
0.0
 30
0.0
  9
$USERI1
 70
     0
  9
$USERI2
 70
     0
  9
$USERI3
 70
     0
  9
$USERI4
 70
     0
  9
$USERI5
 70
     0
  9
$USERR1
 40
0.0
  9
$USERR2
 40
0.0
  9
$USERR3
 40
0.0
  9
$USERR4
 40
0.0
  9
$USERR5
 40
0.0
  9
$WORLDVIEW
 70
     1
  9
$SHADEDGE
 70
     3
  9
$SHADEDIF
 70
    70
  9
$TILEMODE
 70
     1
  9
$MAXACTVP
 70
    64
  9
$PINSBASE
 10
0.0
 20
0.0
 30
0.0
  9
$PLIMCHECK
 70
     0
  9
$PEXTMIN
 10
1.0000000000E+20
 20
1.0000000000E+20
 30
1.0000000000E+20
  9
$PEXTMAX
 10
-1.0000000000E+20
 20
-1.0000000000E+20
 30
-1.0000000000E+20
  9
$PLIMMIN
 10
0.0
 20
0.0
  9
$PLIMMAX
 10
420.0
 20
297.0
  9
$UNITMODE
 70
     0
  9
$VISRETAIN
 70
     1
  9
$PLINEGEN
 70
     0
  9
$PSLTSCALE
 70
     1
  9
$TREEDEPTH
 70
  3020
  9
$CMLSTYLE
  2
Standard
  9
$CMLJUST
 70
     0
  9
$CMLSCALE
 40
20.0
  9
$PROXYGRAPHICS
 70
     1
  9
$MEASUREMENT
 70
     1
  9
$CELWEIGHT
370
    -1
  9
$ENDCAPS
280
     0
  9
$JOINSTYLE
280
     0
  9
$LWDISPLAY
290
     1
  9
$INSUNITS
 70
     4
  9
$HYPERLINKBASE
  1

  9
$STYLESHEET
  1

  9
$XEDIT
290
     1
  9
$CEPSNTYPE
380
     0
  9
$PSTYLEMODE
290
     1
  9
$FINGERPRINTGUID
  2
{A49432EA-CDFB-4EEF-B6B2-A0D72AD0ACDC}
  9
$VERSIONGUID
  2
{FAEB1C32-E019-11D5-929B-00C0DF256EC4}
  9
$EXTNAMES
290
     1
  9
$PSVPSCALE
 40
0.0
  9
$OLESTARTUP
290
     0
  0
ENDSEC
  0
SECTION
  2
CLASSES
  0
CLASS
  1
ACDBDICTIONARYWDFLT
  2
AcDbDictionaryWithDefault
  3
ObjectDBX Classes
 90
        0
280
     0
281
     0
  0
CLASS
  1
VISUALSTYLE
  2
AcDbVisualStyle
  3
ObjectDBX Classes
 90
     4095
280
     0
281
     0
  0
CLASS
  1
MATERIAL
  2
AcDbMaterial
  3
ObjectDBX Classes
 90
     1153
280
     0
281
     0
  0
CLASS
  1
IMAGEDEF
  2
AcDbRasterImageDef
  3
ISM
 90
        0
280
     0
281
     0
  0
CLASS
  1
IMAGE
  2
AcDbRasterImage
  3
ISM
 90
      127
280
     0
281
     1
  0
CLASS
  1
IMAGEDEF_REACTOR
  2
AcDbRasterImageDefReactor
  3
ISM
 90
        1
280
     0
281
     0
  0
CLASS
  1
SCALE
  2
AcDbScale
  3
ObjectDBX Classes
 90
     1153
280
     0
281
     0
  0
CLASS
  1
DICTIONARYVAR
  2
AcDbDictionaryVar
  3
ObjectDBX Classes
 90
        0
280
     0
281
     0
  0
CLASS
  1
ACDBPLACEHOLDER
  2
AcDbPlaceHolder
  3
ObjectDBX Classes
 90
        0
280
     0
281
     0
  0
CLASS
  1
LAYOUT
  2
AcDbLayout
  3
ObjectDBX Classes
 90
        0
280
     0
281
     0
  0
ENDSEC
  0
SECTION
  2
TABLES
  0
TABLE
  2
VPORT
  5
8
330
0
100
AcDbSymbolTable
 70
     1
  0
VPORT
  5
29
330
8
100
AcDbSymbolTableRecord
100
AcDbViewportTableRecord
  2
*Active
 70
     0
 10
0.0
 20
0.0
 11
1.0
 21
1.0
 12
105.0
 22
148.5
 13
0.0
 23
0.0
 14
10.0
 24
10.0
 15
10.0
 25
10.0
 16
0.0
 26
0.0
 36
1.0
 17
0.0
 27
0.0
 37
0.0
 40
297.0
 41
0.7070707071
 42
50.0
 43
0.0
 44
0.0
 50
0.0
 51
0.0
 71
     0
 72
  2000
 73
     1
 74
     3
 75
     0
 76
     0
 77
     0
 78
     0
281
     0
 65
     1
110
0.0
120
0.0
130
0.0
111
1.0
121
0.0
131
0.0
112
0.0
122
1.0
132
0.0
 79
     0
146
0.0
  0
ENDTAB
  0
TABLE
  2
LTYPE
  5
5
330
0
100
AcDbSymbolTable
 70
     6
  0
LTYPE
  5
14
330
5
100
AcDbSymbolTableRecord
100
AcDbLinetypeTableRecord
  2
ByBlock
 70
     0
  3

 72
    65
 73
     0
 40
0.0
  0
LTYPE
  5
15
330
5
100
AcDbSymbolTableRecord
100
AcDbLinetypeTableRecord
  2
ByLayer
 70
     0
  3

 72
    65
 73
     0
 40
0.0
  0
LTYPE
  5
16
330
5
100
AcDbSymbolTableRecord
100
AcDbLinetypeTableRecord
  2
Continuous
 70
     0
  3
Solid line
 72
    65
 73
     0
 40
0.0
  0
LTYPE
  5
3F
330
5
100
AcDbSymbolTableRecord
100
AcDbLinetypeTableRecord
  2
HIDDEN
 70
     0
  3
Hidden __ __ __ __ __ __ __ __ __ __ __ __ __ __
 72
    65
 73
     2
 40
1.905
 49
1.27
 74
     0
 49
-0.635
 74
     0
  0
LTYPE
  5
40
330
5
100
AcDbSymbolTableRecord
100
AcDbLinetypeTableRecord
  2
PHANTOM
 70
     0
  3
Phantom ______  __  __  ______  __  __  ______
 72
    65
 73
     6
 40
12.7
 49
6.35
 74
     0
 49
-1.27
 74
     0
 49
1.27
 74
     0
 49
-1.27
 74
     0
 49
1.27
 74
     0
 49
-1.27
 74
     0
  0
LTYPE
  5
41
330
5
100
AcDbSymbolTableRecord
100
AcDbLinetypeTableRecord
  2
CENTER
 70
     0
  3
Center ____ _ ____ _ ____ _ ____ _ ____ _ ____
 72
    65
 73
     4
 40
10.16
 49
6.35
 74
     0
 49
-1.27
 74
     0
 49
1.27
 74
     0
 49
-1.27
 74
     0
  0
LTYPE
  5
42
330
5
100
AcDbSymbolTableRecord
100
AcDbLinetypeTableRecord
  2
CENTERX2
 70
     0
  3
Center (2x) ________  __  ________  __  _____
 72
    65
 73
     4
 40
20.32
 49
12.7
 74
     0
 49
-2.54
 74
     0
 49
2.54
 74
     0
 49
-2.54
 74
     0
  0
LTYPE
  5
43
330
5
100
AcDbSymbolTableRecord
100
AcDbLinetypeTableRecord
  2
DOT2
 70
     0
  3
Dot (.5x) ........................................
 72
    65
 73
     2
 40
0.635
 49
0.0
 74
     0
 49
-0.635
 74
     0
  0
ENDTAB
  0
TABLE
  2
LAYER
  5
2
330
0
100
AcDbSymbolTable
 70
     2
  0
LAYER
  5
10
330
2
100
AcDbSymbolTableRecord
100
AcDbLayerTableRecord
  2
0
 70
     0
 62
     7
  6
Continuous
370
    -3
390
F
  0
LAYER
  5
44
330
2
100
AcDbSymbolTableRecord
100
AcDbLayerTableRecord
  2
FORMAT
 70
     0
 62
     7
  6
Continuous
370
    -3
390
F
  0
ENDTAB
  0
TABLE
  2
STYLE
  5
3
330
0
100
AcDbSymbolTable
 70
     4
  0
STYLE
  5
11
330
3
100
AcDbSymbolTableRecord
100
AcDbTextStyleTableRecord
  2
Standard
 70
     0
 40
0.0
 41
1.0
 50
0.0
 71
     0
 42
2.5
  3
txt
  4

  0
STYLE
  5
5D
330
3
100
AcDbSymbolTableRecord
100
AcDbTextStyleTableRecord
  2
SLDTEXTSTYLE0
 70
     0
 40
0.0
 41
0.75
 50
0.0
 71
     0
 42
0.2
  3
TXT
  4

  0
STYLE
  5
81
330
3
100
AcDbSymbolTableRecord
100
AcDbTextStyleTableRecord
  2
SLDTEXTSTYLE1
 70
     0
 40
0.0
 41
0.6875
 50
0.0
 71
     0
 42
0.2
  3
TXT
  4

  0
STYLE
  5
88
330
3
100
AcDbSymbolTableRecord
100
AcDbTextStyleTableRecord
  2
SLDTEXTSTYLE2
 70
     0
 40
0.0
 41
0.605
 50
0.0
 71
     0
 42
0.2
  3
TXT
  4

  0
ENDTAB
  0
TABLE
  2
VIEW
  5
6
330
0
100
AcDbSymbolTable
 70
     0
  0
ENDTAB
  0
TABLE
  2
UCS
  5
7
330
0
100
AcDbSymbolTable
 70
     0
  0
ENDTAB
  0
TABLE
  2
APPID
  5
9
330
0
100
AcDbSymbolTable
 70
     1
  0
APPID
  5
12
330
9
100
AcDbSymbolTableRecord
100
AcDbRegAppTableRecord
  2
ACAD
 70
     0
  0
ENDTAB
  0
TABLE
  2
DIMSTYLE
  5
A
330
0
100
AcDbSymbolTable
 70
     1
100
AcDbDimStyleTable
  0
DIMSTYLE
105
27
330
A
100
AcDbSymbolTableRecord
100
AcDbDimStyleTableRecord
  2
ISO-25
 70
     0
 41
2.5
 42
0.625
 43
3.75
 44
1.25
 73
     0
 74
     0
 77
     1
 78
     8
140
2.5
141
2.5
143
0.0393700787
147
0.625
171
     3
172
     1
271
     2
272
     2
274
     3
278
    44
283
     0
284
     8
340
11
  0
ENDTAB
  0
TABLE
  2
BLOCK_RECORD
  5
1
330
0
100
AcDbSymbolTable
 70
     3
  0
BLOCK_RECORD
  5
1F
330
1
100
AcDbSymbolTableRecord
100
AcDbBlockTableRecord
  2
*Model_Space
340
22
  0
BLOCK_RECORD
  5
1B
330
1
100
AcDbSymbolTableRecord
100
AcDbBlockTableRecord
  2
*Paper_Space
340
1E
  0
BLOCK_RECORD
  5
23
330
1
100
AcDbSymbolTableRecord
100
AcDbBlockTableRecord
  2
*Paper_Space0
340
26
  0
BLOCK_RECORD
  5
85
330
1
100
AcDbSymbolTableRecord
100
AcDbBlockTableRecord
  2
SW_NOTE_0
340
0
102
{BLKREFS
331
8B
102
}
  0
BLOCK_RECORD
  5
8C
330
1
100
AcDbSymbolTableRecord
100
AcDbBlockTableRecord
  2
SW_NOTE_1
340
0
102
{BLKREFS
331
91
102
}
  0
ENDTAB
  0
ENDSEC
  0
SECTION
  2
BLOCKS
  0
BLOCK
  5
20
330
1F
100
AcDbEntity
  8
0
100
AcDbBlockBegin
  2
*Model_Space
 70
     0
 10
0.0
 20
0.0
 30
0.0
  3
*Model_Space
  1

  0
ENDBLK
  5
21
330
1F
100
AcDbEntity
  8
0
100
AcDbBlockEnd
  0
BLOCK
  5
1C
330
1B
100
AcDbEntity
 67
     1
  8
0
100
AcDbBlockBegin
  2
*Paper_Space
 70
     0
 10
0.0
 20
0.0
 30
0.0
  3
*Paper_Space
  1

  0
ENDBLK
  5
1D
330
1B
100
AcDbEntity
 67
     1
  8
0
100
AcDbBlockEnd
  0
BLOCK
  5
24
330
23
100
AcDbEntity
  8
0
100
AcDbBlockBegin
  2
*Paper_Space0
 70
     0
 10
0.0
 20
0.0
 30
0.0
  3
*Paper_Space0
  1

  0
ENDBLK
  5
25
330
23
100
AcDbEntity
  8
0
100
AcDbBlockEnd
  0
BLOCK
  5
86
330
85
100
AcDbEntity
  8
0
100
AcDbBlockBegin
  2
SW_NOTE_0
 70
     0
 10
0.0
 20
0.0
 30
0.0
  3
SW_NOTE_0
  1

  0
MTEXT
  5
89
330
85
100
AcDbEntity
  8
0
  6
Continuous
 62
     0
370
     0
100
AcDbMText
 10
0.0
 20
1.9336016097
 30
0.0
 40
1.5
 41
0.0
 71
     1
 72
     1
  1
Disclaimer: This information is intended solely as a guide for use fo Marley NZ products. Before using you should ensure that the product is suitable for use in the specific application. 
  7
SLDTEXTSTYLE2
 73
     1
 44
1.0
  0
MTEXT
  5
8A
330
85
100
AcDbEntity
  8
0
  6
Continuous
 62
     0
370
     0
100
AcDbMText
 10
0.0
 20
-0.5663983345
 30
0.0
 40
1.5
 41
0.0
 71
     1
 72
     1
  1
Marley NZ makes no warranty regarding the use of this information with non-Marley NZ products. This drawing is the property of Marley NZ Ltd.
  7
SLDTEXTSTYLE2
 73
     1
 44
1.0
  0
ENDBLK
  5
87
330
85
100
AcDbEntity
  8
0
100
AcDbBlockEnd
  0
BLOCK
  5
8D
330
8C
100
AcDbEntity
  8
0
100
AcDbBlockBegin
  2
SW_NOTE_1
 70
     0
 10
0.0
 20
0.0
 30
0.0
  3
SW_NOTE_1
  1

  0
MTEXT
  5
8F
330
8C
100
AcDbEntity
  8
0
  6
Continuous
 62
     0
370
     0
100
AcDbMText
 10
0.0
 20
3.0695925553
 30
0.0
 40
2.38125
 41
0.0
 71
     1
 72
     1
  1
0800 MARLEY
  7
SLDTEXTSTYLE2
 73
     1
 44
1.0
  0
MTEXT
  5
90
330
8C
100
AcDbEntity
  8
0
  6
Continuous
 62
     0
370
     0
100
AcDbMText
 10
-2.0973738283
 20
-0.1054074063
 30
0.0
 40
2.38125
 41
0.0
 71
     1
 72
     1
  1
www.marley.co.nz
  7
SLDTEXTSTYLE2
 73
     1
 44
1.0
  0
ENDBLK
  5
8E
330
8C
100
AcDbEntity
  8
0
100
AcDbBlockEnd
  0
ENDSEC
  0
SECTION
  2
ENTITIES
  0
IMAGE
  5
47
330
1F
100
AcDbEntity
  8
0
 92
      140
310
8C00000001000000840000000600000005000000921C683CA6232740D257A264CEE03B4000000000000000007F530CD800865340D257A264CEE03B4000000000000000007F530CD8008653401D9A86485C5A43400000000000000000921C683CA62327401D9A86485C5A43400000000000000000921C683CA6232740D257A2
310
64CEE03B400000000000000000
100
AcDbRasterImage
 90
        0
 10
11.5696276548
 20
27.8781493088
 30
0.0
 11
0.07416295858990078
 21
0.0
 31
0.0
 12
0.0
 22
0.0741629585899007
 32
0.0
 13
897.0
 23
146.0
340
46
 70
     7
280
     0
281
    50
282
    50
283
     0
360
48
 71
     1
 91
        2
 14
-0.5
 24
-0.5
 14
896.5
 24
145.5
  0
LINE
  5
49
330
1F
100
AcDbEntity
  8
0
  6
Continuous
 62
     7
370
    40
100
AcDbLine
 10
10.0788435654
 20
5.2147801566
 30
0.0
 11
205.0788435654
 21
5.2147801566
 31
0.0
  0
LINE
  5
4A
330
1F
100
AcDbEntity
  8
0
  6
Continuous
 62
     7
370
    40
100
AcDbLine
 10
0.0788435654
 20
0.2147801566
 30
0.0
 11
210.0788435654
 21
0.2147801566
 31
0.0
  0
LINE
  5
4B
330
1F
100
AcDbEntity
  8
0
  6
Continuous
 62
     7
370
    40
100
AcDbLine
 10
0.0788435654
 20
0.2147801566
 30
0.0
 11
0.0788435654
 21
297.2147801566
 31
0.0
  0
LINE
  5
4C
330
1F
100
AcDbEntity
  8
0
  6
Continuous
 62
     7
370
    40
100
AcDbLine
 10
0.0788435654
 20
297.2147801566
 30
0.0
 11
210.0788435654
 21
297.2147801566
 31
0.0
  0
LINE
  5
4D
330
1F
100
AcDbEntity
  8
0
  6
Continuous
 62
     7
370
    40
100
AcDbLine
 10
210.0788435654
 20
0.2147801566
 30
0.0
 11
210.0788435654
 21
297.2147801566
 31
0.0
  0
LINE
  5
4E
330
1F
100
AcDbEntity
  8
0
  6
Continuous
 62
     7
370
    40
100
AcDbLine
 10
205.0788435654
 20
35.066192565
 30
0.0
 11
116.9116953245
 21
35.066192565
 31
0.0
  0
LINE
  5
4F
330
1F
100
AcDbEntity
  8
0
  6
Continuous
 62
     7
370
    40
100
AcDbLine
 10
10.0788435654
 20
292.2147801566
 30
0.0
 11
205.0788435654
 21
292.2147801566
 31
0.0
  0
LINE
  5
50
330
1F
100
AcDbEntity
  8
0
  6
Continuous
 62
     7
370
    40
100
AcDbLine
 10
205.0788435654
 20
5.2147801566
 30
0.0
 11
180.9883118484
 21
5.2147801566
 31
0.0
  0
LINE
  5
51
330
1F
100
AcDbEntity
  8
0
  6
Continuous
 62
     7
370
    40
100
AcDbLine
 10
10.0788435654
 20
5.2147801566
 30
0.0
 11
10.0788435654
 21
292.2147801566
 31
0.0
  0
LINE
  5
52
330
1F
100
AcDbEntity
  8
0
  6
Continuous
 62
     7
370
    40
100
AcDbLine
 10
10.0788435654
 20
11.2357498601
 30
0.0
 11
205.0788435654
 21
11.2357498601
 31
0.0
  0
LINE
  5
53
330
1F
100
AcDbEntity
  8
0
  6
Continuous
 62
     7
370
    40
100
AcDbLine
 10
205.0788435654
 20
43.3709272577
 30
0.0
 11
10.1108209117
 21
43.3709272577
 31
0.0
  0
LINE
  5
54
330
1F
100
AcDbEntity
  8
0
  6
Continuous
 62
     7
370
    40
100
AcDbLine
 10
210.0788435654
 20
292.2147801566
 30
0.0
 11
210.0788435654
 21
297.2147801566
 31
0.0
  0
LINE
  5
55
330
1F
100
AcDbEntity
  8
0
  6
Continuous
 62
     7
370
    40
100
AcDbLine
 10
79.7554204619
 20
22.1812450349
 30
0.0
 11
79.7554204619
 21
43.3709272577
 31
0.0
  0
LINE
  5
56
330
1F
100
AcDbEntity
  8
0
  6
Continuous
 62
     7
370
    40
100
AcDbLine
 10
10.1108209117
 20
60.3709272577
 30
0.0
 11
10.1108209117
 21
5.1209272577
 31
0.0
  0
LINE
  5
57
330
1F
100
AcDbEntity
  8
0
  6
Continuous
 62
     7
370
    40
100
AcDbLine
 10
10.0788435654
 20
22.2147801566
 30
0.0
 11
205.0788435654
 21
22.1209272577
 31
0.0
  0
LINE
  5
58
330
1F
100
AcDbEntity
  8
0
  6
Continuous
 62
     7
370
    40
100
AcDbLine
 10
116.9080516189
 20
43.3709272577
 30
0.0
 11
116.9173564476
 21
22.1633591097
 31
0.0
  0
LINE
  5
59
330
1F
100
AcDbEntity
  8
0
  6
Continuous
 62
     7
370
    40
100
AcDbLine
 10
160.8788435654
 20
5.2147801566
 30
0.0
 11
160.8788435654
 21
11.2357498601
 31
0.0
  0
LINE
  5
5A
330
1F
100
AcDbEntity
  8
0
  6
Continuous
 62
     7
370
    40
100
AcDbLine
 10
192.0788435654
 20
11.2357498601
 30
0.0
 11
192.0788435654
 21
22.2147801566
 31
0.0
  0
LINE
  5
5B
330
1F
100
AcDbEntity
  8
0
  6
Continuous
 62
     7
370
    40
100
AcDbLine
 10
205.0788435654
 20
13.7147801566
 30
0.0
 11
192.0788435654
 21
13.7147801566
 31
0.0
  0
LINE
  5
5C
330
1F
100
AcDbEntity
  8
0
  6
Continuous
 62
     7
370
    40
100
AcDbLine
 10
205.0788435654
 20
5.2147801566
 30
0.0
 11
205.0788435654
 21
292.2147801566
 31
0.0
  0
MTEXT
  5
80
330
1F
100
AcDbEntity
  8
0
  6
Continuous
 62
     7
370
     0
100
AcDbMText
 10
195.9998284117
 20
19.5152246096
 30
0.0
 40
2.9104166667
 41
0.0
 71
     1
 72
     1
  1
A4
  7
SLDTEXTSTYLE0
 73
     1
 44
1.0
  0
MTEXT
  5
82
330
1F
100
AcDbEntity
  8
0
  6
Continuous
 62
     7
370
     0
100
AcDbMText
 10
164.0281072696
 20
8.8743991533
 30
0.0
 40
1.5
 41
0.0
 71
     1
 72
     1
  1
SHEET 1 OF 1
  7
SLDTEXTSTYLE1
 73
     1
 44
1.0
  0
MTEXT
  5
83
330
1F
100
AcDbEntity
  8
0
  6
Continuous
 62
     7
370
     0
100
AcDbMText
 10
14.3797311356
 20
8.8743991533
 30
0.0
 40
1.5
 41
0.0
 71
     1
 72
     1
  1
SCALE:
  7
SLDTEXTSTYLE0
 73
     1
 44
1.0
  0
MTEXT
  5
84
330
1F
100
AcDbEntity
  8
0
  6
Continuous
 62
     7
370
     0
100
AcDbMText
 10
92.7036146979
 20
40.4845312273
 30
0.0
 40
1.5
 41
0.0
 71
     1
 72
     1
  1
CONTACT:
  7
SLDTEXTSTYLE0
 73
     1
 44
1.0
  0
INSERT
  5
8B
330
1F
100
AcDbEntity
  8
0
  6
Continuous
 62
     7
370
     0
100
AcDbBlockReference
  2
SW_NOTE_0
 10
12.3050601837
 20
16.8389604502
 30
0.0
  0
INSERT
  5
91
330
1F
100
AcDbEntity
  8
0
  6
Continuous
 62
     7
370
     0
100
AcDbBlockReference
  2
SW_NOTE_1
 10
87.196611182
 20
32.8969357155
 30
0.0
  0
MTEXT
  5
92
330
1F
100
AcDbEntity
  8
0
  6
Continuous
 62
     7
370
     0
100
AcDbMText
 10
23.5366971372
 20
9.4862686747
 30
0.0
 40
2.1166666667
 41
0.0
 71
     1
 72
     1
  1
1:2
  7
SLDTEXTSTYLE2
 73
     1
 44
1.0
  0
MTEXT
  5
93
330
1F
100
AcDbEntity
  8
0
  6
Continuous
 62
     7
370
     0
100
AcDbMText
 10
122.1441575388
 20
39.1302418531
 30
0.0
 40
1.5
 41
0.0
 71
     1
 72
     1
  1
DWG NO.
  7
SLDTEXTSTYLE0
 73
     1
 44
1.0
  0
MTEXT
  5
94
330
1F
100
AcDbEntity
  8
0
  6
Continuous
 62
     7
370
     0
100
AcDbMText
 10
121.6266647804
 20
30.4463685999
 30
0.0
 40
2.6458333333
 41
0.0
 71
     1
 72
     1
  1
RP80 Downpipe with 80mm Pipe Clip Saddle
  7
SLDTEXTSTYLE2
 73
     1
 44
1.0
  0
MTEXT
  5
95
330
1F
100
AcDbEntity
  8
0
  6
Continuous
 62
     7
370
     0
100
AcDbMText
 10
128.9875122993
 20
8.8245626669
 30
0.0
 40
1.5
 41
0.0
 71
     1
 72
     1
  1
DATE: 30/06/11
  7
SLDTEXTSTYLE0
 73
     1
 44
1.0
  0
MTEXT
  5
96
330
1F
100
AcDbEntity
  8
0
  6
Continuous
 62
     7
370
     0
100
AcDbMText
 10
137.5368823189
 20
40.8065136599
 30
0.0
 40
3.175
 41
0.0
 71
     1
 72
     1
  1
RP80 with Saddle Clip
  7
SLDTEXTSTYLE2
 73
     1
 44
1.0
  0
LINE
  5
97
330
1F
100
AcDbEntity
  8
0
  6
Continuous
 62
     7
370
    15
100
AcDbLine
 10
163.6255096499
 20
121.9488800001
 30
0.0
 11
163.6255096499
 21
133.0988800001
 31
0.0
  0
LINE
  5
98
330
1F
100
AcDbEntity
  8
0
  6
Continuous
 62
     7
370
    15
100
AcDbLine
 10
121.0755096499
 20
133.0988800001
 30
0.0
 11
121.0755096499
 21
121.9488800001
 31
0.0
  0
LINE
  5
99
330
1F
100
AcDbEntity
  8
0
  6
Continuous
 62
     7
370
    15
100
AcDbLine
 10
140.4870767408
 20
133.1832550001
 30
0.0
 11
140.4870767408
 21
133.0988800001
 31
0.0
  0
LINE
  5
9A
330
1F
100
AcDbEntity
  8
0
  6
Continuous
 62
     7
370
    15
100
AcDbLine
 10
138.2530702125
 20
133.1832550001
 30
0.0
 11
138.2530702125
 21
133.0988800001
 31
0.0
  0
LINE
  5
9B
330
1F
100
AcDbEntity
  8
0
  6
Continuous
 62
     7
370
    15
100
AcDbLine
 10
144.3731726205
 20
133.1832550001
 30
0.0
 11
144.3731726205
 21
133.0988800001
 31
0.0
  0
LINE
  5
9C
330
1F
100
AcDbEntity
  8
0
  6
Continuous
 62
     7
370
    15
100
AcDbLine
 10
140.350295321
 20
133.0988800001
 30
0.0
 11
140.350295321
 21
133.1832550001
 31
0.0
  0
LINE
  5
9D
330
1F
100
AcDbEntity
  8
0
  6
Continuous
 62
     7
370
    15
100
AcDbLine
 10
138.8566568949
 20
133.0988800001
 30
0.0
 11
138.8566568949
 21
133.1832550001
 31
0.0
  0
LINE
  5
9E
330
1F
100
AcDbEntity
  8
0
  6
Continuous
 62
     7
370
    15
100
AcDbLine
 10
162.2088797987
 20
62.8156328804
 30
0.0
 11
162.2088797987
 21
121.9488800001
 31
0.0
  0
LINE
  5
9F
330
1F
100
AcDbEntity
  8
0
  6
Continuous
 62
     7
370
    15
100
AcDbLine
 10
162.2088797987
 20
133.0988800001
 30
0.0
 11
162.2088797987
 21
187.8156328804
 31
0.0
  0
LINE
  5
A0
330
1F
100
AcDbEntity
  8
0
  6
Continuous
 62
     7
370
    15
100
AcDbLine
 10
122.4338797987
 20
187.8156328804
 30
0.0
 11
122.4338797987
 21
133.0988800001
 31
0.0
  0
LINE
  5
A1
330
1F
100
AcDbEntity
  8
0
  6
Continuous
 62
     7
370
    15
100
AcDbLine
 10
122.4338797987
 20
121.9488800001
 30
0.0
 11
122.4338797987
 21
62.8156328804
 31
0.0
  0
LINE
  5
A2
330
1F
100
AcDbEntity
  8
0
  6
Continuous
 62
     7
370
    15
100
AcDbLine
 10
121.0755096499
 20
121.9488800001
 30
0.0
 11
163.6255096499
 21
121.9488800001
 31
0.0
  0
LINE
  5
A3
330
1F
100
AcDbEntity
  8
0
  6
Continuous
 62
     7
370
    15
100
AcDbLine
 10
121.0755096499
 20
133.0988800001
 30
0.0
 11
163.6255096499
 21
133.0988800001
 31
0.0
  0
LINE
  5
A4
330
1F
100
AcDbEntity
  8
0
  6
Continuous
 62
     7
370
    15
100
AcDbLine
 10
142.1176771101
 20
133.1738800001
 30
0.0
 11
141.9875934365
 21
133.1738800001
 31
0.0
  0
LINE
  5
A5
330
1F
100
AcDbEntity
  8
0
  6
Continuous
 62
     7
370
    15
100
AcDbLine
 10
142.1176771101
 20
133.1738800001
 30
0.0
 11
142.1176771101
 21
133.0988800001
 31
0.0
  0
LINE
  5
A6
330
1F
100
AcDbEntity
  8
0
  6
Continuous
 62
     7
370
    15
100
AcDbLine
 10
141.9875934365
 20
133.1738800001
 30
0.0
 11
141.9875934365
 21
133.0988800001
 31
0.0
  0
LINE
  5
A7
330
1F
100
AcDbEntity
  8
0
  6
Continuous
 62
     7
370
    15
100
AcDbLine
 10
142.2811155719
 20
133.1738800001
 30
0.0
 11
142.1176771101
 21
133.1738800001
 31
0.0
  0
LINE
  5
A8
330
1F
100
AcDbEntity
  8
0
  6
Continuous
 62
     7
370
    15
100
AcDbLine
 10
142.6263376289
 20
133.1738800001
 30
0.0
 11
142.6263376289
 21
133.0988800001
 31
0.0
  0
LINE
  5
A9
330
1F
100
AcDbEntity
  8
0
  6
Continuous
 62
     7
370
    15
100
AcDbLine
 10
142.6263376289
 20
133.1738800001
 30
0.0
 11
142.4597721557
 21
133.1738800001
 31
0.0
  0
LINE
  5
AA
330
1F
100
AcDbEntity
  8
0
  6
Continuous
 62
     7
370
    15
100
AcDbLine
 10
142.7628837927
 20
133.1738800001
 30
0.0
 11
142.7628837927
 21
133.0988800001
 31
0.0
  0
LINE
  5
AB
330
1F
100
AcDbEntity
  8
0
  6
Continuous
 62
     7
370
    15
100
AcDbLine
 10
142.7628837927
 20
133.1738800001
 30
0.0
 11
142.6263376289
 21
133.1738800001
 31
0.0
  0
LINE
  5
AC
330
1F
100
AcDbEntity
  8
0
  6
Continuous
 62
     7
370
    15
100
AcDbLine
 10
142.8825371166
 20
133.1738800001
 30
0.0
 11
142.8825371166
 21
133.0988800001
 31
0.0
  0
LINE
  5
AD
330
1F
100
AcDbEntity
  8
0
  6
Continuous
 62
     7
370
    15
100
AcDbLine
 10
142.8873318674
 20
133.1738800001
 30
0.0
 11
142.8825371166
 21
133.1738800001
 31
0.0
  0
LINE
  5
AE
330
1F
100
AcDbEntity
  8
0
  6
Continuous
 62
     7
370
    15
100
AcDbLine
 10
142.8873318674
 20
133.1738800001
 30
0.0
 11
142.8873318674
 21
133.0988800001
 31
0.0
  0
LINE
  5
AF
330
1F
100
AcDbEntity
  8
0
  6
Continuous
 62
     7
370
    15
100
AcDbLine
 10
143.498766827
 20
133.1738800001
 30
0.0
 11
142.8873318674
 21
133.1738800001
 31
0.0
  0
LINE
  5
B0
330
1F
100
AcDbEntity
  8
0
  6
Continuous
 62
     7
370
    15
100
AcDbLine
 10
143.498766827
 20
133.1738800001
 30
0.0
 11
143.498766827
 21
133.0988800001
 31
0.0
  0
LINE
  5
B1
330
1F
100
AcDbEntity
  8
0
  6
Continuous
 62
     7
370
    15
100
AcDbLine
 10
141.1438432859
 20
133.1738800001
 30
0.0
 11
141.1438432859
 21
133.0988800001
 31
0.0
  0
LINE
  5
B2
330
1F
100
AcDbEntity
  8
0
  6
Continuous
 62
     7
370
    15
100
AcDbLine
 10
141.2195169614
 20
133.1738800001
 30
0.0
 11
141.1438432859
 21
133.1738800001
 31
0.0
  0
LINE
  5
B3
330
1F
100
AcDbEntity
  8
0
  6
Continuous
 62
     7
370
    15
100
AcDbLine
 10
141.2195169614
 20
133.1738800001
 30
0.0
 11
141.2195169614
 21
133.0988800001
 31
0.0
  0
LINE
  5
B4
330
1F
100
AcDbEntity
  8
0
  6
Continuous
 62
     7
370
    15
100
AcDbLine
 10
141.1438432859
 20
133.1738800001
 30
0.0
 11
140.768810387
 21
133.1738800001
 31
0.0
  0
LINE
  5
B5
330
1F
100
AcDbEntity
  8
0
  6
Continuous
 62
     7
370
    15
100
AcDbLine
 10
144.0150249094
 20
133.1738800001
 30
0.0
 11
144.0150249094
 21
133.0988800001
 31
0.0
  0
LINE
  5
B6
330
1F
100
AcDbEntity
  8
0
  6
Continuous
 62
     7
370
    15
100
AcDbLine
 10
144.0850699644
 20
133.1738800001
 30
0.0
 11
144.0850699644
 21
133.0988800001
 31
0.0
  0
LINE
  5
B7
330
1F
100
AcDbEntity
  8
0
  6
Continuous
 62
     7
370
    15
100
AcDbLine
 10
144.0850699644
 20
133.1738800001
 30
0.0
 11
144.0150249094
 21
133.1738800001
 31
0.0
  0
LINE
  5
B8
330
1F
100
AcDbEntity
  8
0
  6
Continuous
 62
     7
370
    15
100
AcDbLine
 10
144.197016972
 20
133.1738800001
 30
0.0
 11
144.197016972
 21
133.0988800001
 31
0.0
  0
LINE
  5
B9
330
1F
100
AcDbEntity
  8
0
  6
Continuous
 62
     7
370
    15
100
AcDbLine
 10
144.197016972
 20
133.1738800001
 30
0.0
 11
144.0850699644
 21
133.1738800001
 31
0.0
  0
LINE
  5
BA
330
1F
100
AcDbEntity
  8
0
  6
Continuous
 62
     7
370
    15
100
AcDbLine
 10
139.8872129885
 20
133.1738800001
 30
0.0
 11
139.8872129885
 21
133.0988800001
 31
0.0
  0
LINE
  5
BB
330
1F
100
AcDbEntity
  8
0
  6
Continuous
 62
     7
370
    15
100
AcDbLine
 10
140.3435481834
 20
133.1738800001
 30
0.0
 11
140.3435481834
 21
133.0988800001
 31
0.0
  0
LINE
  5
BC
330
1F
100
AcDbEntity
  8
0
  6
Continuous
 62
     7
370
    15
100
AcDbLine
 10
139.5911892439
 20
133.1738800001
 30
0.0
 11
139.5911892439
 21
133.0988800001
 31
0.0
  0
LINE
  5
BD
330
1F
100
AcDbEntity
  8
0
  6
Continuous
 62
     7
370
    15
100
AcDbLine
 10
144.3758649927
 20
133.1738800001
 30
0.0
 11
144.3758649927
 21
133.0988800001
 31
0.0
  0
LINE
  5
BE
330
1F
100
AcDbEntity
  8
0
  6
Continuous
 62
     7
370
    15
100
AcDbLine
 10
145.0775663477
 20
133.1738800001
 30
0.0
 11
145.0775663477
 21
133.0988800001
 31
0.0
  0
LINE
  5
BF
330
1F
100
AcDbEntity
  8
0
  6
Continuous
 62
     7
370
    15
100
AcDbLine
 10
145.0775663477
 20
133.1738800001
 30
0.0
 11
144.7058689277
 21
133.1738800001
 31
0.0
  0
LINE
  5
C0
330
1F
100
AcDbEntity
  8
0
  6
Continuous
 62
     7
370
    15
100
AcDbLine
 10
145.5490394256
 20
133.1738800001
 30
0.0
 11
145.5490394256
 21
133.0988800001
 31
0.0
  0
LINE
  5
C1
330
1F
100
AcDbEntity
  8
0
  6
Continuous
 62
     7
370
    15
100
AcDbLine
 10
145.6682827931
 20
133.1738800001
 30
0.0
 11
145.5490394256
 21
133.1738800001
 31
0.0
  0
LINE
  5
C2
330
1F
100
AcDbEntity
  8
0
  6
Continuous
 62
     7
370
    15
100
AcDbLine
 10
145.6682827931
 20
133.1738800001
 30
0.0
 11
145.6682827931
 21
133.0988800001
 31
0.0
  0
LINE
  5
C3
330
1F
100
AcDbEntity
  8
0
  6
Continuous
 62
     7
370
    15
100
AcDbLine
 10
145.5490394256
 20
133.1738800001
 30
0.0
 11
145.0775663477
 21
133.1738800001
 31
0.0
  0
LINE
  5
C4
330
1F
100
AcDbEntity
  8
0
  6
Continuous
 62
     7
370
    15
100
AcDbLine
 10
145.8302619829
 20
133.1738800001
 30
0.0
 11
145.8302619829
 21
133.0988800001
 31
0.0
  0
LINE
  5
C5
330
1F
100
AcDbEntity
  8
0
  6
Continuous
 62
     7
370
    15
100
AcDbLine
 10
145.8302619829
 20
133.1738800001
 30
0.0
 11
145.6682827931
 21
133.1738800001
 31
0.0
  0
LINE
  5
C6
330
1F
100
AcDbEntity
  8
0
  6
Continuous
 62
     7
370
    15
100
AcDbLine
 10
142.3730497066
 20
133.1738800001
 30
0.0
 11
142.3730497066
 21
133.0988800001
 31
0.0
  0
SPLINE
  5
C7
330
1F
100
AcDbEntity
  8
0
  6
Continuous
 62
     7
370
    15
100
AcDbSpline
210
0.0
220
0.0
230
1.0
 70
    24
 71
     3
 72
     9
 73
     5
 74
     0
 42
0.00000001
 43
0.00000001
 40
0.0
 40
0.0
 40
0.0
 40
0.0
 40
0.5599942998736998
 40
1.0
 40
1.0
 40
1.0
 40
1.0
 10
142.3730497066441
 20
133.1738800000773
 30
0.0
 10
142.3566160686447
 20
133.1738800000773
 30
0.0
 10
142.3272699877951
 20
133.1738800000773
 30
0.0
 10
142.2952184369641
 20
133.1738800000773
 30
0.0
 10
142.2811155719006
 20
133.1738800000773
 30
0.0
  0
SPLINE
  5
C8
330
1F
100
AcDbEntity
  8
0
  6
Continuous
 62
     7
370
    15
100
AcDbSpline
210
0.0
220
0.0
230
1.0
 70
    24
 71
     3
 72
     9
 73
     5
 74
     0
 42
0.00000001
 43
0.00000001
 40
0.0
 40
0.0
 40
0.0
 40
0.0
 40
0.5599954211368066
 40
1.0
 40
1.0
 40
1.0
 40
1.0
 10
142.4597721557444
 20
133.1738800000773
 30
0.0
 10
142.442747047225
 20
133.1738800000773
 30
0.0
 10
142.4123448191409
 20
133.1738800000773
 30
0.0
 10
142.3850566333437
 20
133.1738800000773
 30
0.0
 10
142.3730497066441
 20
133.1738800000773
 30
0.0
  0
LINE
  5
C9
330
1F
100
AcDbEntity
  8
0
  6
Continuous
 62
     7
370
    15
100
AcDbLine
 10
145.9174155884
 20
133.1738800001
 30
0.0
 11
145.9174155884
 21
133.0988800001
 31
0.0
  0
LINE
  5
CA
330
1F
100
AcDbEntity
  8
0
  6
Continuous
 62
     7
370
    15
100
AcDbLine
 10
146.1215051982
 20
133.1738800001
 30
0.0
 11
145.9174155884
 21
133.1738800001
 31
0.0
  0
LINE
  5
CB
330
1F
100
AcDbEntity
  8
0
  6
Continuous
 62
     7
370
    15
100
AcDbLine
 10
146.1215051982
 20
133.1738800001
 30
0.0
 11
146.1215051982
 21
133.0988800001
 31
0.0
  0
LINE
  5
CC
330
1F
100
AcDbEntity
  8
0
  6
Continuous
 62
     7
370
    15
100
AcDbLine
 10
146.269308603
 20
133.1738800001
 30
0.0
 11
146.1215051982
 21
133.1738800001
 31
0.0
  0
LINE
  5
CD
330
1F
100
AcDbEntity
  8
0
  6
Continuous
 62
     7
370
    15
100
AcDbLine
 10
146.269308603
 20
133.1738800001
 30
0.0
 11
146.269308603
 21
133.0988800001
 31
0.0
  0
LINE
  5
CE
330
1F
100
AcDbEntity
  8
0
  6
Continuous
 62
     7
370
    15
100
AcDbLine
 10
138.4511740221
 20
133.1738800001
 30
0.0
 11
138.4511740221
 21
133.0988800001
 31
0.0
  0
LINE
  5
CF
330
1F
100
AcDbEntity
  8
0
  6
Continuous
 62
     7
370
    15
100
AcDbLine
 10
138.7513671151
 20
133.1738800001
 30
0.0
 11
138.7513671151
 21
133.0988800001
 31
0.0
  0
LINE
  5
D0
330
1F
100
AcDbEntity
  8
0
  6
Continuous
 62
     7
370
    15
100
AcDbLine
 10
146.3262202103
 20
133.1738800001
 30
0.0
 11
146.269308603
 21
133.1738800001
 31
0.0
  0
LINE
  5
D1
330
1F
100
AcDbEntity
  8
0
  6
Continuous
 62
     7
370
    15
100
AcDbLine
 10
137.9223094627
 20
133.1738800001
 30
0.0
 11
137.9223094627
 21
133.0988800001
 31
0.0
  0
LINE
  5
D2
330
1F
100
AcDbEntity
  8
0
  6
Continuous
 62
     7
370
    15
100
AcDbLine
 10
138.0382173514
 20
133.1738800001
 30
0.0
 11
137.9223094627
 21
133.1738800001
 31
0.0
  0
LINE
  5
D3
330
1F
100
AcDbEntity
  8
0
  6
Continuous
 62
     7
370
    15
100
AcDbLine
 10
138.0382173514
 20
133.1738800001
 30
0.0
 11
138.0382173514
 21
133.0988800001
 31
0.0
  0
LINE
  5
D4
330
1F
100
AcDbEntity
  8
0
  6
Continuous
 62
     7
370
    15
100
AcDbLine
 10
138.0740737487
 20
133.1738800001
 30
0.0
 11
138.0382173514
 21
133.1738800001
 31
0.0
  0
LINE
  5
D5
330
1F
100
AcDbEntity
  8
0
  6
Continuous
 62
     7
370
    15
100
AcDbLine
 10
138.0740737487
 20
133.1738800001
 30
0.0
 11
138.0740737487
 21
133.0988800001
 31
0.0
  0
LINE
  5
D6
330
1F
100
AcDbEntity
  8
0
  6
Continuous
 62
     7
370
    15
100
AcDbLine
 10
146.7485752148
 20
133.1738800001
 30
0.0
 11
146.7485752148
 21
133.0988800001
 31
0.0
  0
LINE
  5
D7
330
1F
100
AcDbEntity
  8
0
  6
Continuous
 62
     7
370
    15
100
AcDbLine
 10
146.9136814159
 20
133.1738800001
 30
0.0
 11
146.9136814159
 21
133.0988800001
 31
0.0
  0
LINE
  5
D8
330
1F
100
AcDbEntity
  8
0
  6
Continuous
 62
     7
370
    15
100
AcDbLine
 10
146.9136814159
 20
133.1738800001
 30
0.0
 11
146.7485752148
 21
133.1738800001
 31
0.0
  0
LINE
  5
D9
330
1F
100
AcDbEntity
  8
0
  6
Continuous
 62
     7
370
    15
100
AcDbLine
 10
146.7485752148
 20
133.1738800001
 30
0.0
 11
146.4073140389
 21
133.1738800001
 31
0.0
  0
LINE
  5
DA
330
1F
100
AcDbEntity
  8
0
  6
Continuous
 62
     7
370
    15
100
AcDbLine
 10
137.8497627986
 20
133.1738800001
 30
0.0
 11
137.8497627986
 21
133.0988800001
 31
0.0
  0
LINE
  5
DB
330
1F
100
AcDbEntity
  8
0
  6
Continuous
 62
     7
370
    15
100
AcDbLine
 10
137.8856191958
 20
133.1738800001
 30
0.0
 11
137.8497627986
 21
133.1738800001
 31
0.0
  0
LINE
  5
DC
330
1F
100
AcDbEntity
  8
0
  6
Continuous
 62
     7
370
    15
100
AcDbLine
 10
137.8856191958
 20
133.1738800001
 30
0.0
 11
137.8856191958
 21
133.0988800001
 31
0.0
  0
LINE
  5
DD
330
1F
100
AcDbEntity
  8
0
  6
Continuous
 62
     7
370
    15
100
AcDbLine
 10
137.7336464425
 20
133.1738800001
 30
0.0
 11
137.7336464425
 21
133.0988800001
 31
0.0
  0
LINE
  5
DE
330
1F
100
AcDbEntity
  8
0
  6
Continuous
 62
     7
370
    15
100
AcDbLine
 10
137.8497627986
 20
133.1738800001
 30
0.0
 11
137.7336464425
 21
133.1738800001
 31
0.0
  0
LINE
  5
DF
330
1F
100
AcDbEntity
  8
0
  6
Continuous
 62
     7
370
    15
100
AcDbLine
 10
138.0874156639
 20
133.1738800001
 30
0.0
 11
138.0874156639
 21
133.0988800001
 31
0.0
  0
LINE
  5
E0
330
1F
100
AcDbEntity
  8
0
  6
Continuous
 62
     7
370
    15
100
AcDbLine
 10
138.0874156639
 20
133.1738800001
 30
0.0
 11
138.0740737487
 21
133.1738800001
 31
0.0
  0
LINE
  5
E1
330
1F
100
AcDbEntity
  8
0
  6
Continuous
 62
     7
370
    15
100
AcDbLine
 10
137.900420383
 20
133.1738800001
 30
0.0
 11
137.900420383
 21
133.0988800001
 31
0.0
  0
LINE
  5
E2
330
1F
100
AcDbEntity
  8
0
  6
Continuous
 62
     7
370
    15
100
AcDbLine
 10
137.900420383
 20
133.1738800001
 30
0.0
 11
137.8856191958
 21
133.1738800001
 31
0.0
  0
LINE
  5
E3
330
1F
100
AcDbEntity
  8
0
  6
Continuous
 62
     7
370
    15
100
AcDbLine
 10
140.4736205122
 20
133.1738800001
 30
0.0
 11
140.4736205122
 21
133.0988800001
 31
0.0
  0
LINE
  5
E4
330
1F
100
AcDbEntity
  8
0
  6
Continuous
 62
     7
370
    15
100
AcDbLine
 10
144.2222245
 20
133.1738800001
 30
0.0
 11
144.2222245
 21
133.0988800001
 31
0.0
  0
LINE
  5
E5
330
1F
100
AcDbEntity
  8
0
  6
Continuous
 62
     7
370
    15
100
AcDbLine
 10
144.3731726205
 20
133.1738800001
 30
0.0
 11
144.2222245
 21
133.1738800001
 31
0.0
  0
LINE
  5
E6
330
1F
100
AcDbEntity
  8
0
  6
Continuous
 62
     7
370
    15
100
AcDbLine
 10
142.8262509117
 20
133.1738800001
 30
0.0
 11
142.8262509117
 21
133.0988800001
 31
0.0
  0
LINE
  5
E7
330
1F
100
AcDbEntity
  8
0
  6
Continuous
 62
     7
370
    15
100
AcDbLine
 10
142.8312541299
 20
133.1738800001
 30
0.0
 11
142.8312541299
 21
133.0988800001
 31
0.0
  0
LINE
  5
E8
330
1F
100
AcDbEntity
  8
0
  6
Continuous
 62
     7
370
    15
100
AcDbLine
 10
142.8312541299
 20
133.1738800001
 30
0.0
 11
142.8262509117
 21
133.1738800001
 31
0.0
  0
LINE
  5
E9
330
1F
100
AcDbEntity
  8
0
  6
Continuous
 62
     7
370
    15
100
AcDbLine
 10
142.8825371166
 20
133.1738800001
 30
0.0
 11
142.8312541299
 21
133.1738800001
 31
0.0
  0
LINE
  5
EA
330
1F
100
AcDbEntity
  8
0
  6
Continuous
 62
     7
370
    15
100
AcDbLine
 10
143.5891259586
 20
133.1738800001
 30
0.0
 11
143.5891259586
 21
133.0988800001
 31
0.0
  0
LINE
  5
EB
330
1F
100
AcDbEntity
  8
0
  6
Continuous
 62
     7
370
    15
100
AcDbLine
 10
143.5985069928
 20
133.1738800001
 30
0.0
 11
143.5985069928
 21
133.0988800001
 31
0.0
  0
LINE
  5
EC
330
1F
100
AcDbEntity
  8
0
  6
Continuous
 62
     7
370
    15
100
AcDbLine
 10
143.5985069928
 20
133.1738800001
 30
0.0
 11
143.5891259586
 21
133.1738800001
 31
0.0
  0
LINE
  5
ED
330
1F
100
AcDbEntity
  8
0
  6
Continuous
 62
     7
370
    15
100
AcDbLine
 10
144.0150249094
 20
133.1738800001
 30
0.0
 11
143.5985069928
 21
133.1738800001
 31
0.0
  0
LINE
  5
EE
330
1F
100
AcDbEntity
  8
0
  6
Continuous
 62
     7
370
    15
100
AcDbLine
 10
138.8539330886
 20
133.1738800001
 30
0.0
 11
138.8539330886
 21
133.0988800001
 31
0.0
  0
LINE
  5
EF
330
1F
100
AcDbEntity
  8
0
  6
Continuous
 62
     7
370
    15
100
AcDbLine
 10
138.8539330886
 20
133.1738800001
 30
0.0
 11
138.7513671151
 21
133.1738800001
 31
0.0
  0
LINE
  5
F0
330
1F
100
AcDbEntity
  8
0
  6
Continuous
 62
     7
370
    15
100
AcDbLine
 10
146.3376859187
 20
133.1738800001
 30
0.0
 11
146.3376859187
 21
133.0988800001
 31
0.0
  0
SPLINE
  5
F1
330
1F
100
AcDbEntity
  8
0
  6
Continuous
 62
     7
370
    15
100
AcDbSpline
210
0.0
220
0.0
230
1.0
 70
    24
 71
     3
 72
     9
 73
     5
 74
     0
 42
0.00000001
 43
0.00000001
 40
0.0
 40
0.0
 40
0.0
 40
0.0
 40
0.5599959254841284
 40
1.0
 40
1.0
 40
1.0
 40
1.0
 10
146.3376859186715
 20
133.1738800000773
 30
0.0
 10
146.3356878737673
 20
133.1738800000773
 30
0.0
 10
146.3321199104781
 20
133.1738800000773
 30
0.0
 10
146.3280229080281
 20
133.1738800000773
 30
0.0
 10
146.3262202102568
 20
133.1738800000773
 30
0.0
  0
LINE
  5
F2
330
1F
100
AcDbEntity
  8
0
  6
Continuous
 62
     7
370
    15
100
AcDbLine
 10
146.4073140389
 20
133.1738800001
 30
0.0
 11
146.3376859187
 21
133.1738800001
 31
0.0
  0
LINE
  5
F3
330
1F
100
AcDbEntity
  8
0
  6
Continuous
 62
     7
370
    15
100
AcDbLine
 10
163.6255096499
 20
121.9488800001
 30
0.0
 11
164.7574901653
 21
121.9488800001
 31
0.0
  0
LINE
  5
F4
330
1F
100
AcDbEntity
  8
0
  6
Continuous
 62
     7
370
    15
100
AcDbLine
 10
163.6255096499
 20
133.0988800001
 30
0.0
 11
164.7574901653
 21
133.0988800001
 31
0.0
  0
LINE
  5
F5
330
1F
100
AcDbEntity
  8
0
  6
Continuous
 62
     7
370
    15
100
AcDbLine
 10
119.9435291346
 20
121.9488800001
 30
0.0
 11
121.0755096499
 21
121.9488800001
 31
0.0
  0
LINE
  5
F6
330
1F
100
AcDbEntity
  8
0
  6
Continuous
 62
     7
370
    15
100
AcDbLine
 10
119.9435291346
 20
133.0988800001
 30
0.0
 11
121.0755096499
 21
133.0988800001
 31
0.0
  0
LINE
  5
F7
330
1F
100
AcDbEntity
  8
0
  6
Continuous
 62
     7
370
    15
100
AcDbLine
 10
118.8828689628
 20
121.9488800001
 30
0.0
 11
119.9435291346
 21
121.9488800001
 31
0.0
  0
LINE
  5
F8
330
1F
100
AcDbEntity
  8
0
  6
Continuous
 62
     7
370
    15
100
AcDbLine
 10
118.8828689628
 20
133.0988800001
 30
0.0
 11
119.9435291346
 21
133.0988800001
 31
0.0
  0
LINE
  5
F9
330
1F
100
AcDbEntity
  8
0
  6
Continuous
 62
     7
370
    15
100
AcDbLine
 10
164.7574901653
 20
121.9488800001
 30
0.0
 11
165.818150337
 21
121.9488800001
 31
0.0
  0
LINE
  5
FA
330
1F
100
AcDbEntity
  8
0
  6
Continuous
 62
     7
370
    15
100
AcDbLine
 10
164.7574901653
 20
133.0988800001
 30
0.0
 11
165.818150337
 21
133.0988800001
 31
0.0
  0
ARC
  5
FB
330
1F
100
AcDbEntity
  8
0
  6
Continuous
 62
     7
370
    15
100
AcDbCircle
 10
112.9255096499
 20
127.4488800001
 30
0.0
 40
5.5
100
AcDbArc
 50
180.0
 51
270.0
  0
CIRCLE
  5
FC
330
1F
100
AcDbEntity
  8
0
  6
Continuous
 62
     7
370
    15
100
AcDbCircle
 10
113.7755096499
 20
127.5238800001
 30
0.0
 40
1.125
  0
ARC
  5
FD
330
1F
100
AcDbEntity
  8
0
  6
Continuous
 62
     7
370
    15
100
AcDbCircle
 10
112.9255096499
 20
127.5988800001
 30
0.0
 40
5.500000000000014
100
AcDbArc
 50
90.0
 51
180.0
  0
LINE
  5
FE
330
1F
100
AcDbEntity
  8
0
  6
Continuous
 62
     7
370
    15
100
AcDbLine
 10
107.4255096499
 20
127.5988800001
 30
0.0
 11
107.4255096499
 21
127.4488800001
 31
0.0
  0
LINE
  5
FF
330
1F
100
AcDbEntity
  8
0
  6
Continuous
 62
     7
370
    15
100
AcDbLine
 10
112.9255096499
 20
121.9488800001
 30
0.0
 11
118.8828689628
 21
121.9488800001
 31
0.0
  0
LINE
  5
100
330
1F
100
AcDbEntity
  8
0
  6
Continuous
 62
     7
370
    15
100
AcDbLine
 10
112.9255096499
 20
133.0988800001
 30
0.0
 11
118.8828689628
 21
133.0988800001
 31
0.0
  0
LINE
  5
101
330
1F
100
AcDbEntity
  8
0
  6
Continuous
 62
     7
370
    15
100
AcDbLine
 10
177.2755096499
 20
127.5988800001
 30
0.0
 11
177.2755096499
 21
127.4488800001
 31
0.0
  0
CIRCLE
  5
102
330
1F
100
AcDbEntity
  8
0
  6
Continuous
 62
     7
370
    15
100
AcDbCircle
 10
170.9255096499
 20
127.5238800001
 30
0.0
 40
1.125
  0
ARC
  5
103
330
1F
100
AcDbEntity
  8
0
  6
Continuous
 62
     7
370
    15
100
AcDbCircle
 10
171.7755096499
 20
127.4488800001
 30
0.0
 40
5.5
100
AcDbArc
 50
270.0
 51
0.0
  0
ARC
  5
104
330
1F
100
AcDbEntity
  8
0
  6
Continuous
 62
     7
370
    15
100
AcDbCircle
 10
171.7755096499
 20
127.5988800001
 30
0.0
 40
5.500000000000014
100
AcDbArc
 50
0.0
 51
90.0
  0
LINE
  5
105
330
1F
100
AcDbEntity
  8
0
  6
Continuous
 62
     7
370
    15
100
AcDbLine
 10
165.818150337
 20
121.9488800001
 30
0.0
 11
171.7755096499
 21
121.9488800001
 31
0.0
  0
LINE
  5
106
330
1F
100
AcDbEntity
  8
0
  6
Continuous
 62
     7
370
    15
100
AcDbLine
 10
165.818150337
 20
133.0988800001
 30
0.0
 11
171.7755096499
 21
133.0988800001
 31
0.0
  0
LINE
  5
107
330
1F
100
AcDbEntity
  8
0
  6
Continuous
 62
     7
370
    15
100
AcDbLine
 10
122.4338797987
 20
62.8156328804
 30
0.0
 11
162.2088797987
 21
62.8156328804
 31
0.0
  0
LINE
  5
108
330
1F
100
AcDbEntity
  8
0
  6
Continuous
 62
     7
370
    15
100
AcDbLine
 10
122.4338797987
 20
187.8156328804
 30
0.0
 11
162.2088797987
 21
187.8156328804
 31
0.0
  0
LINE
  5
109
330
1F
100
AcDbEntity
  8
0
  6
CENTERX2
 62
     7
370
     0
100
AcDbLine
 10
142.3213797987
 20
191.0981310747
 30
0.0
 11
142.3213797987
 21
59.7934021375
 31
0.0
  0
LINE
  5
10A
330
1F
100
AcDbEntity
  8
0
  6
Continuous
 62
     7
370
    15
100
AcDbLine
 10
79.8653774308
 20
121.9488800001
 30
0.0
 11
79.8653774308
 21
133.0988800001
 31
0.0
  0
LINE
  5
10B
330
1F
100
AcDbEntity
  8
0
  6
Continuous
 62
     7
370
    15
100
AcDbLine
 10
78.2496064862
 20
133.1832550001
 30
0.0
 11
78.2496064862
 21
133.0988800001
 31
0.0
  0
LINE
  5
10C
330
1F
100
AcDbEntity
  8
0
  6
Continuous
 62
     7
370
    15
100
AcDbLine
 10
79.2944991736
 20
133.0988800001
 30
0.0
 11
79.2944991736
 21
133.1832550001
 31
0.0
  0
LINE
  5
10D
330
1F
100
AcDbEntity
  8
0
  6
Continuous
 62
     7
370
    15
100
AcDbLine
 10
79.5223676489
 20
133.0988800001
 30
0.0
 11
79.5223676489
 21
133.1832550001
 31
0.0
  0
LINE
  5
10E
330
1F
100
AcDbEntity
  8
0
  6
Continuous
 62
     7
370
    15
100
AcDbLine
 10
79.5186731286
 20
133.1738800001
 30
0.0
 11
79.5186731286
 21
133.1832550001
 31
0.0
  0
LINE
  5
10F
330
1F
100
AcDbEntity
  8
0
  6
Continuous
 62
     7
370
    15
100
AcDbLine
 10
78.4194390178
 20
62.8156328804
 30
0.0
 11
78.4194390178
 21
121.9488800001
 31
0.0
  0
LINE
  5
110
330
1F
100
AcDbEntity
  8
0
  6
Continuous
 62
     7
370
    15
100
AcDbLine
 10
78.4194390178
 20
133.1738800001
 30
0.0
 11
78.4194390178
 21
187.8156328804
 31
0.0
  0
LINE
  5
111
330
1F
100
AcDbEntity
  8
0
  6
Continuous
 62
     7
370
    15
100
AcDbLine
 10
38.6444390178
 20
187.8156328804
 30
0.0
 11
38.6444390178
 21
133.0988800001
 31
0.0
  0
LINE
  5
112
330
1F
100
AcDbEntity
  8
0
  6
Continuous
 62
     7
370
    15
100
AcDbLine
 10
38.6444390178
 20
121.9488800001
 30
0.0
 11
38.6444390178
 21
62.8156328804
 31
0.0
  0
LINE
  5
113
330
1F
100
AcDbEntity
  8
0
  6
Continuous
 62
     7
370
    15
100
AcDbLine
 10
28.3403774308
 20
127.4488800001
 30
0.0
 11
28.3403774308
 21
121.9488800001
 31
0.0
  0
LINE
  5
114
330
1F
100
AcDbEntity
  8
0
  6
Continuous
 62
     7
370
    15
100
AcDbLine
 10
28.3403774308
 20
121.9488800001
 30
0.0
 11
26.8403774308
 21
121.9488800001
 31
0.0
  0
LINE
  5
115
330
1F
100
AcDbEntity
  8
0
  6
Continuous
 62
     7
370
    15
100
AcDbLine
 10
26.8403774308
 20
121.9488800001
 30
0.0
 11
26.8403774308
 21
127.4488800001
 31
0.0
  0
LINE
  5
116
330
1F
100
AcDbEntity
  8
0
  6
Continuous
 62
     7
370
    15
100
AcDbLine
 10
26.8403774308
 20
133.0988800001
 30
0.0
 11
28.3403774308
 21
133.0988800001
 31
0.0
  0
LINE
  5
117
330
1F
100
AcDbEntity
  8
0
  6
Continuous
 62
     7
370
    15
100
AcDbLine
 10
28.3403774308
 20
133.0988800001
 30
0.0
 11
28.3403774308
 21
127.5988800001
 31
0.0
  0
LINE
  5
118
330
1F
100
AcDbEntity
  8
0
  6
Continuous
 62
     7
370
    15
100
AcDbLine
 10
26.8403774308
 20
127.5988800001
 30
0.0
 11
26.8403774308
 21
133.0988800001
 31
0.0
  0
LINE
  5
119
330
1F
100
AcDbEntity
  8
0
  6
Continuous
 62
     7
370
    15
100
AcDbLine
 10
28.3403774308
 20
127.5988800001
 30
0.0
 11
28.3403774308
 21
127.4488800001
 31
0.0
  0
LINE
  5
11A
330
1F
100
AcDbEntity
  8
0
  6
Continuous
 62
     7
370
    15
100
AcDbLine
 10
26.8403774308
 20
127.5988800001
 30
0.0
 11
26.8403774308
 21
127.4488800001
 31
0.0
  0
LINE
  5
11B
330
1F
100
AcDbEntity
  8
0
  6
Continuous
 62
     7
370
    15
100
AcDbLine
 10
28.3403774308
 20
133.0988800001
 30
0.0
 11
28.779717259
 21
133.0988800001
 31
0.0
  0
LINE
  5
11C
330
1F
100
AcDbEntity
  8
0
  6
Continuous
 62
     7
370
    15
100
AcDbLine
 10
28.3403774308
 20
121.9488800001
 30
0.0
 11
28.779717259
 21
121.9488800001
 31
0.0
  0
LINE
  5
11D
330
1F
100
AcDbEntity
  8
0
  6
Continuous
 62
     7
370
    15
100
AcDbLine
 10
28.779717259
 20
133.0988800001
 30
0.0
 11
39.0022390242
 21
133.0988800001
 31
0.0
  0
LINE
  5
11E
330
1F
100
AcDbEntity
  8
0
  6
Continuous
 62
     7
370
    15
100
AcDbLine
 10
28.779717259
 20
121.9488800001
 30
0.0
 11
39.0022390242
 21
121.9488800001
 31
0.0
  0
LINE
  5
11F
330
1F
100
AcDbEntity
  8
0
  6
Continuous
 62
     7
370
    15
100
AcDbLine
 10
41.2831502323
 20
133.0988800001
 30
0.0
 11
79.8653774308
 21
133.0988800001
 31
0.0
  0
LINE
  5
120
330
1F
100
AcDbEntity
  8
0
  6
Continuous
 62
     7
370
    15
100
AcDbLine
 10
41.2831502323
 20
121.9488800001
 30
0.0
 11
79.8653774308
 21
121.9488800001
 31
0.0
  0
LINE
  5
121
330
1F
100
AcDbEntity
  8
0
  6
Continuous
 62
     7
370
    15
100
AcDbLine
 10
39.0022390242
 20
133.0988800001
 30
0.0
 11
41.2831502323
 21
133.0988800001
 31
0.0
  0
LINE
  5
122
330
1F
100
AcDbEntity
  8
0
  6
Continuous
 62
     7
370
    15
100
AcDbLine
 10
39.0022390242
 20
121.9488800001
 30
0.0
 11
41.2831502323
 21
121.9488800001
 31
0.0
  0
LINE
  5
123
330
1F
100
AcDbEntity
  8
0
  6
Continuous
 62
     7
370
    15
100
AcDbLine
 10
78.979754967
 20
133.1738800001
 30
0.0
 11
78.979754967
 21
133.0988800001
 31
0.0
  0
LINE
  5
124
330
1F
100
AcDbEntity
  8
0
  6
Continuous
 62
     7
370
    15
100
AcDbLine
 10
79.1454865704
 20
133.1738800001
 30
0.0
 11
78.979754967
 21
133.1738800001
 31
0.0
  0
LINE
  5
125
330
1F
100
AcDbEntity
  8
0
  6
Continuous
 62
     7
370
    15
100
AcDbLine
 10
79.1454865704
 20
133.1738800001
 30
0.0
 11
79.1454865704
 21
133.0988800001
 31
0.0
  0
LINE
  5
126
330
1F
100
AcDbEntity
  8
0
  6
Continuous
 62
     7
370
    15
100
AcDbLine
 10
79.1705026615
 20
133.1738800001
 30
0.0
 11
79.1705026615
 21
133.0988800001
 31
0.0
  0
LINE
  5
127
330
1F
100
AcDbEntity
  8
0
  6
Continuous
 62
     7
370
    15
100
AcDbLine
 10
79.1705026615
 20
133.1738800001
 30
0.0
 11
79.1454865704
 21
133.1738800001
 31
0.0
  0
LINE
  5
128
330
1F
100
AcDbEntity
  8
0
  6
Continuous
 62
     7
370
    15
100
AcDbLine
 10
78.7929681535
 20
133.1738800001
 30
0.0
 11
78.7929681535
 21
133.0988800001
 31
0.0
  0
LINE
  5
129
330
1F
100
AcDbEntity
  8
0
  6
Continuous
 62
     7
370
    15
100
AcDbLine
 10
78.979754967
 20
133.1738800001
 30
0.0
 11
78.7929681535
 21
133.1738800001
 31
0.0
  0
LINE
  5
12A
330
1F
100
AcDbEntity
  8
0
  6
Continuous
 62
     7
370
    15
100
AcDbLine
 10
79.1861377184
 20
133.1738800001
 30
0.0
 11
79.1705026615
 21
133.1738800001
 31
0.0
  0
LINE
  5
12B
330
1F
100
AcDbEntity
  8
0
  6
Continuous
 62
     7
370
    15
100
AcDbLine
 10
79.1861377184
 20
133.1738800001
 30
0.0
 11
79.1861377184
 21
133.0988800001
 31
0.0
  0
LINE
  5
12C
330
1F
100
AcDbEntity
  8
0
  6
Continuous
 62
     7
370
    15
100
AcDbLine
 10
79.211362277
 20
133.1738800001
 30
0.0
 11
79.211362277
 21
133.0988800001
 31
0.0
  0
LINE
  5
12D
330
1F
100
AcDbEntity
  8
0
  6
Continuous
 62
     7
370
    15
100
AcDbLine
 10
79.211362277
 20
133.1738800001
 30
0.0
 11
79.1861377184
 21
133.1738800001
 31
0.0
  0
LINE
  5
12E
330
1F
100
AcDbEntity
  8
0
  6
Continuous
 62
     7
370
    15
100
AcDbLine
 10
79.2899110673
 20
133.1738800001
 30
0.0
 11
79.2899110673
 21
133.0988800001
 31
0.0
  0
LINE
  5
12F
330
1F
100
AcDbEntity
  8
0
  6
Continuous
 62
     7
370
    15
100
AcDbLine
 10
78.5187900596
 20
133.1738800001
 30
0.0
 11
78.5187900596
 21
133.0988800001
 31
0.0
  0
LINE
  5
130
330
1F
100
AcDbEntity
  8
0
  6
Continuous
 62
     7
370
    15
100
AcDbLine
 10
79.519716503
 20
133.1738800001
 30
0.0
 11
79.519716503
 21
133.0988800001
 31
0.0
  0
LINE
  5
131
330
1F
100
AcDbEntity
  8
0
  6
Continuous
 62
     7
370
    15
100
AcDbLine
 10
79.6198976589
 20
133.1738800001
 30
0.0
 11
79.6198976589
 21
133.0988800001
 31
0.0
  0
LINE
  5
132
330
1F
100
AcDbEntity
  8
0
  6
Continuous
 62
     7
370
    15
100
AcDbLine
 10
79.6505714614
 20
133.1738800001
 30
0.0
 11
79.644492027
 21
133.1738800001
 31
0.0
  0
LINE
  5
133
330
1F
100
AcDbEntity
  8
0
  6
Continuous
 62
     7
370
    15
100
AcDbLine
 10
79.6505714614
 20
133.1738800001
 30
0.0
 11
79.6505714614
 21
133.0988800001
 31
0.0
  0
LINE
  5
134
330
1F
100
AcDbEntity
  8
0
  6
Continuous
 62
     7
370
    15
100
AcDbLine
 10
38.6444390178
 20
187.8156328804
 30
0.0
 11
78.4194390178
 21
187.8156328804
 31
0.0
  0
LINE
  5
135
330
1F
100
AcDbEntity
  8
0
  6
Continuous
 62
     7
370
    15
100
AcDbLine
 10
38.6444390178
 20
62.8156328804
 30
0.0
 11
78.4194390178
 21
62.8156328804
 31
0.0
  0
LINE
  5
136
330
1F
100
AcDbEntity
  8
0
  6
CENTERX2
 62
     7
370
     0
100
AcDbLine
 10
58.5319390178
 20
190.5128202474
 30
0.0
 11
58.5319390178
 21
60.1836093558
 31
0.0
  0
SPLINE
  5
137
330
1F
100
AcDbEntity
  8
0
  6
Continuous
 62
     7
370
    15
100
AcDbSpline
210
0.0
220
0.0
230
1.0
 70
     8
 71
     3
 72
    11
 73
     7
 74
     0
 42
0.00000001
 43
0.00000001
 40
0.0
 40
0.0
 40
0.0
 40
0.0
 40
0.2814486939014632
 40
0.5593790272765267
 40
0.779462810017726
 40
1.0
 40
1.0
 40
1.0
 40
1.0
 10
140.8246796570752
 20
212.7875503144206
 30
0.0
 10
140.7955241978594
 20
212.7892443008162
 30
0.0
 10
140.7375777487576
 20
212.7926110972616
 30
0.0
 10
140.6590671037501
 20
212.7602105509426
 30
0.0
 10
140.6143855254943
 20
212.6968556288752
 30
0.0
 10
140.6072670740446
 20
212.6515718112215
 30
0.0
 10
140.6037041858098
 20
212.6289066034461
 30
0.0
  0
SPLINE
  5
138
330
1F
100
AcDbEntity
  8
0
  6
Continuous
 62
     7
370
    15
100
AcDbSpline
210
0.0
220
0.0
230
1.0
 70
     8
 71
     3
 72
    11
 73
     7
 74
     0
 42
0.00000001
 43
0.00000001
 40
0.0
 40
0.0
 40
0.0
 40
0.0
 40
0.2800267984363466
 40
0.5584696553999753
 40
0.7788551829009901
 40
1.0
 40
1.0
 40
1.0
 40
1.0
 10
140.6037041858098
 20
212.6289066034461
 30
0.0
 10
140.6039506683572
 20
212.6023375604347
 30
0.0
 10
140.6044422392501
 20
212.5493497593467
 30
0.0
 10
140.6491378783402
 20
212.48564940527
 30
0.0
 10
140.7111227027616
 20
212.4556093941599
 30
0.0
 10
140.7521982007705
 20
212.4507884367304
 30
0.0
 10
140.7727712680704
 20
212.4483738127708
 30
0.0
  0
LINE
  5
139
330
1F
100
AcDbEntity
  8
0
  6
Continuous
 62
     7
370
    15
100
AcDbLine
 10
140.7727712681
 20
212.4483738128
 30
0.0
 11
141.0402349753
 21
212.4285694073
 31
0.0
  0
LINE
  5
13A
330
1F
100
AcDbEntity
  8
0
  6
Continuous
 62
     7
370
    15
100
AcDbLine
 10
141.0402349753
 20
212.4285694073
 30
0.0
 11
141.0652510664
 21
212.7698305832
 31
0.0
  0
LINE
  5
13B
330
1F
100
AcDbEntity
  8
0
  6
Continuous
 62
     7
370
    15
100
AcDbLine
 10
141.0652510664
 20
212.7698305832
 30
0.0
 11
140.8246796571
 21
212.7875503144
 31
0.0
  0
LINE
  5
13C
330
1F
100
AcDbEntity
  8
0
  6
Continuous
 62
     7
370
    15
100
AcDbLine
 10
141.2195169614
 20
213.3379043183
 30
0.0
 11
141.1438432859
 21
212.3064074959
 31
0.0
  0
LINE
  5
13D
330
1F
100
AcDbEntity
  8
0
  6
Continuous
 62
     7
370
    15
100
AcDbLine
 10
141.1438432859
 20
212.3064074959
 30
0.0
 11
140.768810387
 21
212.333925196
 31
0.0
  0
SPLINE
  5
13E
330
1F
100
AcDbEntity
  8
0
  6
Continuous
 62
     7
370
    15
100
AcDbSpline
210
0.0
220
0.0
230
1.0
 70
     8
 71
     3
 72
    11
 73
     7
 74
     0
 42
0.00000001
 43
0.00000001
 40
0.0
 40
0.0
 40
0.0
 40
0.0
 40
0.2814542485617944
 40
0.5583043622291881
 40
0.7789716935653331
 40
1.0
 40
1.0
 40
1.0
 40
1.0
 10
140.7688103869816
 20
212.3339251960494
 30
0.0
 10
140.7240598124935
 20
212.3373625229754
 30
0.0
 10
140.6352907103156
 20
212.3441809477355
 30
0.0
 10
140.5313153460619
 20
212.4237856435737
 30
0.0
 10
140.488040122188
 20
212.5321139408131
 30
0.0
 10
140.4881554972725
 20
212.6019045452644
 30
0.0
 10
140.4882132319597
 20
212.6368283656235
 30
0.0
  0
SPLINE
  5
13F
330
1F
100
AcDbEntity
  8
0
  6
Continuous
 62
     7
370
    15
100
AcDbSpline
210
0.0
220
0.0
230
1.0
 70
     8
 71
     3
 72
    11
 73
     7
 74
     0
 42
0.00000001
 43
0.00000001
 40
0.0
 40
0.0
 40
0.0
 40
0.0
 40
0.2802890157153256
 40
0.5592731397864265
 40
0.7793504685690251
 40
1.0
 40
1.0
 40
1.0
 40
1.0
 10
140.4882132319597
 20
212.6368283656235
 30
0.0
 10
140.493665841787
 20
212.674781337675
 30
0.0
 10
140.5045456766971
 20
212.7505105908864
 30
0.0
 10
140.5706715136528
 20
212.8389613064732
 30
0.0
 10
140.6578002802805
 20
212.8871342784824
 30
0.0
 10
140.7170496785202
 20
212.8962062511241
 30
0.0
 10
140.7467128398551
 20
212.9007481265876
 30
0.0
  0
SPLINE
  5
140
330
1F
100
AcDbEntity
  8
0
  6
Continuous
 62
     7
370
    15
100
AcDbSpline
210
0.0
220
0.0
230
1.0
 70
     8
 71
     3
 72
     9
 73
     5
 74
     0
 42
0.00000001
 43
0.00000001
 40
0.0
 40
0.0
 40
0.0
 40
0.0
 40
0.5601500235910822
 40
0.9999999999999999
 40
0.9999999999999999
 40
0.9999999999999999
 40
0.9999999999999999
 10
140.7467128398551
 20
212.9007481265876
 30
0.0
 10
140.732759371885
 20
212.910959859313
 30
0.0
 10
140.7078491382291
 20
212.9291902124243
 30
0.0
 10
140.6879305739496
 20
212.9527271607241
 30
0.0
 10
140.6791693939211
 20
212.9630798868785
 30
0.0
  0
SPLINE
  5
141
330
1F
100
AcDbEntity
  8
0
  6
Continuous
 62
     7
370
    15
100
AcDbSpline
210
0.0
220
0.0
230
1.0
 70
     8
 71
     3
 72
     9
 73
     5
 74
     0
 42
0.00000001
 43
0.00000001
 40
0.0
 40
0.0
 40
0.0
 40
0.0
 40
0.5599379039850115
 40
1.0
 40
1.0
 40
1.0
 40
1.0
 10
140.6791693939211
 20
212.9630798868785
 30
0.0
 10
140.6624567754924
 20
212.9876735735661
 30
0.0
 10
140.6326095043757
 20
213.0315957415646
 30
0.0
 10
140.6105105527999
 20
213.0798503142905
 30
0.0
 10
140.6007856418497
 20
213.1010853227066
 30
0.0
  0
LINE
  5
142
330
1F
100
AcDbEntity
  8
0
  6
Continuous
 62
     7
370
    15
100
AcDbLine
 10
140.6007856418
 20
213.1010853227
 30
0.0
 11
140.4736205122
 21
213.3927312513
 31
0.0
  0
LINE
  5
143
330
1F
100
AcDbEntity
  8
0
  6
Continuous
 62
     7
370
    15
100
AcDbLine
 10
140.4736205122
 20
213.3927312513
 30
0.0
 11
140.6143360245
 21
213.38230788
 31
0.0
  0
LINE
  5
144
330
1F
100
AcDbEntity
  8
0
  6
Continuous
 62
     7
370
    15
100
AcDbLine
 10
140.6143360245
 20
213.38230788
 30
0.0
 11
140.7110649101
 21
213.1594562019
 31
0.0
  0
SPLINE
  5
145
330
1F
100
AcDbEntity
  8
0
  6
Continuous
 62
     7
370
    15
100
AcDbSpline
210
0.0
220
0.0
230
1.0
 70
     8
 71
     3
 72
    10
 73
     6
 74
     0
 42
0.00000001
 43
0.00000001
 40
0.0
 40
0.0
 40
0.0
 40
0.0
 40
0.5615261066892819
 40
0.780270122889908
 40
1.0
 40
1.0
 40
1.0
 40
1.0
 10
140.7110649100566
 20
213.1594562019087
 30
0.0
 10
140.7366036243715
 20
213.0944413815718
 30
0.0
 10
140.7720910140396
 20
213.0040998618284
 30
0.0
 10
140.8602235737019
 20
212.9066185456257
 30
0.0
 10
140.9163980417482
 20
212.9006247508086
 30
0.0
 10
140.9445484268653
 20
212.8976211152018
 30
0.0
  0
LINE
  5
146
330
1F
100
AcDbEntity
  8
0
  6
Continuous
 62
     7
370
    15
100
AcDbLine
 10
140.9445484269
 20
212.8976211152
 30
0.0
 11
141.0740066982
 21
212.8880316136
 31
0.0
  0
LINE
  5
147
330
1F
100
AcDbEntity
  8
0
  6
Continuous
 62
     7
370
    15
100
AcDbLine
 10
141.0740066982
 20
212.8880316136
 30
0.0
 11
141.1075699538
 21
213.3460345479
 31
0.0
  0
LINE
  5
148
330
1F
100
AcDbEntity
  8
0
  6
Continuous
 62
     7
370
    15
100
AcDbLine
 10
141.1075699538
 20
213.3460345479
 30
0.0
 11
141.2195169614
 21
213.3379043183
 31
0.0
  0
LINE
  5
149
330
1F
100
AcDbEntity
  8
0
  6
Continuous
 62
     7
370
    15
100
AcDbLine
 10
146.7095918062
 20
213.7863805971
 30
0.0
 11
146.9136814159
 21
212.7740627778
 31
0.0
  0
LINE
  5
14A
330
1F
100
AcDbEntity
  8
0
  6
Continuous
 62
     7
370
    15
100
AcDbLine
 10
146.9136814159
 20
212.7740627778
 30
0.0
 11
146.7485752148
 21
212.7407079897
 31
0.0
  0
LINE
  5
14B
330
1F
100
AcDbEntity
  8
0
  6
Continuous
 62
     7
370
    15
100
AcDbLine
 10
146.7485752148
 20
212.7407079897
 30
0.0
 11
146.4073140389
 21
213.4178101884
 31
0.0
  0
LINE
  5
14C
330
1F
100
AcDbEntity
  8
0
  6
Continuous
 62
     7
370
    15
100
AcDbLine
 10
146.4073140389
 20
213.4178101884
 30
0.0
 11
146.3376859187
 21
213.5595680379
 31
0.0
  0
SPLINE
  5
14D
330
1F
100
AcDbEntity
  8
0
  6
Continuous
 62
     7
370
    15
100
AcDbSpline
210
0.0
220
0.0
230
1.0
 70
     8
 71
     3
 72
     9
 73
     5
 74
     0
 42
0.00000001
 43
0.00000001
 40
0.0
 40
0.0
 40
0.0
 40
0.0
 40
0.5599959254841284
 40
1.0
 40
1.0
 40
1.0
 40
1.0
 10
146.3376859186715
 20
213.5595680379128
 30
0.0
 10
146.3356878737673
 20
213.5276492649242
 30
0.0
 10
146.3321199104781
 20
213.4706510413014
 30
0.0
 10
146.3280229080281
 20
213.4136884993668
 30
0.0
 10
146.3262202102568
 20
213.3886247488207
 30
0.0
  0
LINE
  5
14E
330
1F
100
AcDbEntity
  8
0
  6
Continuous
 62
     7
370
    15
100
AcDbLine
 10
146.3262202103
 20
213.3886247488
 30
0.0
 11
146.269308603
 21
212.6439791041
 31
0.0
  0
LINE
  5
14F
330
1F
100
AcDbEntity
  8
0
  6
Continuous
 62
     7
370
    15
100
AcDbLine
 10
146.269308603
 20
212.6439791041
 30
0.0
 11
146.1215051982
 21
212.6141682623
 31
0.0
  0
LINE
  5
150
330
1F
100
AcDbEntity
  8
0
  6
Continuous
 62
     7
370
    15
100
AcDbLine
 10
146.1215051982
 20
212.6141682623
 30
0.0
 11
145.9174155884
 21
213.6264860816
 31
0.0
  0
LINE
  5
151
330
1F
100
AcDbEntity
  8
0
  6
Continuous
 62
     7
370
    15
100
AcDbLine
 10
145.9174155884
 20
213.6264860816
 30
0.0
 11
146.0231085733
 21
213.6479582264
 31
0.0
  0
LINE
  5
152
330
1F
100
AcDbEntity
  8
0
  6
Continuous
 62
     7
370
    15
100
AcDbLine
 10
146.0231085733
 20
213.6479582264
 30
0.0
 11
146.1938433949
 21
212.8007466083
 31
0.0
  0
LINE
  5
153
330
1F
100
AcDbEntity
  8
0
  6
Continuous
 62
     7
370
    15
100
AcDbLine
 10
146.1938433949
 20
212.8007466083
 30
0.0
 11
146.2649307871
 21
213.696739604
 31
0.0
  0
LINE
  5
154
330
1F
100
AcDbEntity
  8
0
  6
Continuous
 62
     7
370
    15
100
AcDbLine
 10
146.2649307871
 20
213.696739604
 30
0.0
 11
146.3635358795
 21
213.7165440095
 31
0.0
  0
LINE
  5
155
330
1F
100
AcDbEntity
  8
0
  6
Continuous
 62
     7
370
    15
100
AcDbLine
 10
146.3635358795
 20
213.7165440095
 30
0.0
 11
146.7775521869
 21
212.9031041143
 31
0.0
  0
LINE
  5
156
330
1F
100
AcDbEntity
  8
0
  6
Continuous
 62
     7
370
    15
100
AcDbLine
 10
146.7775521869
 20
212.9031041143
 30
0.0
 11
146.6038988213
 21
213.7649084522
 31
0.0
  0
LINE
  5
157
330
1F
100
AcDbEntity
  8
0
  6
Continuous
 62
     7
370
    15
100
AcDbLine
 10
146.6038988213
 20
213.7649084522
 30
0.0
 11
146.7095918062
 21
213.7863805971
 31
0.0
  0
LINE
  5
158
330
1F
100
AcDbEntity
  8
0
  6
Continuous
 62
     7
370
    15
100
AcDbLine
 10
139.7325301586
 20
213.1145440295
 30
0.0
 11
139.6249609669
 21
213.1616576677
 31
0.0
  0
SPLINE
  5
159
330
1F
100
AcDbEntity
  8
0
  6
Continuous
 62
     7
370
    15
100
AcDbSpline
210
0.0
220
0.0
230
1.0
 70
     8
 71
     3
 72
    11
 73
     7
 74
     0
 42
0.00000001
 43
0.00000001
 40
0.0
 40
0.0
 40
0.0
 40
0.0
 40
0.2494431220535929
 40
0.3751235445693548
 40
0.5010222502336367
 40
1.0
 40
1.0
 40
1.0
 40
1.0
 10
140.0187559340807
 20
213.4624761629959
 30
0.0
 10
140.0806312826012
 20
213.4480305815
 30
0.0
 10
140.1736821547496
 20
213.4263066803178
 30
0.0
 10
140.260832832262
 20
213.3337418855191
 30
0.0
 10
140.3498159886621
 20
213.1687905230649
 30
0.0
 10
140.3463310135247
 20
213.0095046389346
 30
0.0
 10
140.3435481833557
 20
212.8823113172114
 30
0.0
  0
SPLINE
  5
15A
330
1F
100
AcDbEntity
  8
0
  6
Continuous
 62
     7
370
    15
100
AcDbSpline
210
0.0
220
0.0
230
1.0
 70
     8
 71
     3
 72
    11
 73
     7
 74
     0
 42
0.00000001
 43
0.00000001
 40
0.0
 40
0.0
 40
0.0
 40
0.0
 40
0.2810721339728581
 40
0.5609042913349706
 40
0.7804295601055905
 40
1.0
 40
1.0
 40
1.0
 40
1.0
 10
140.3435481833557
 20
212.8823113172114
 30
0.0
 10
140.3320161253628
 20
212.813958394995
 30
0.0
 10
140.3090028841542
 20
212.6775540960184
 30
0.0
 10
140.2055813154431
 20
212.5097691570017
 30
0.0
 10
140.0516935253544
 20
212.407474605058
 30
0.0
 10
139.9420435940932
 20
212.4068839897479
 30
0.0
 10
139.8872129884501
 20
212.4065886517136
 30
0.0
  0
SPLINE
  5
15B
330
1F
100
AcDbEntity
  8
0
  6
Continuous
 62
     7
370
    15
100
AcDbSpline
210
0.0
220
0.0
230
1.0
 70
     8
 71
     3
 72
    10
 73
     6
 74
     0
 42
0.00000001
 43
0.00000001
 40
0.0
 40
0.0
 40
0.0
 40
0.0
 40
0.2803099813379182
 40
0.5605256012334116
 40
1.0
 40
1.0
 40
1.0
 40
1.0
 10
139.8872129884501
 20
212.4065886517136
 30
0.0
 10
139.8425511076562
 20
212.4166898624969
 30
0.0
 10
139.7532423807078
 20
212.4368888836679
 30
0.0
 10
139.6307288069482
 20
212.5557897835522
 30
0.0
 10
139.6061798918656
 20
212.6716688293692
 30
0.0
 10
139.5911892439248
 20
212.7424296745519
 30
0.0
  0
LINE
  5
15C
330
1F
100
AcDbEntity
  8
0
  6
Continuous
 62
     7
370
    15
100
AcDbLine
 10
139.5911892439
 20
212.7424296746
 30
0.0
 11
139.7037616538
 21
212.7614002103
 31
0.0
  0
SPLINE
  5
15D
330
1F
100
AcDbEntity
  8
0
  6
Continuous
 62
     7
370
    15
100
AcDbSpline
210
0.0
220
0.0
230
1.0
 70
     8
 71
     3
 72
    11
 73
     7
 74
     0
 42
0.00000001
 43
0.00000001
 40
0.0
 40
0.0
 40
0.0
 40
0.0
 40
0.280779237238876
 40
0.5604434773252083
 40
0.7800421799936293
 40
1.0
 40
1.0
 40
1.0
 40
1.0
 10
139.7037616538146
 20
212.7614002102926
 30
0.0
 10
139.7095661238028
 20
212.7302695304048
 30
0.0
 10
139.7211520137573
 20
212.6681317930872
 30
0.0
 10
139.7637150498963
 20
212.5890028790167
 30
0.0
 10
139.8292762332812
 20
212.5367965336505
 30
0.0
 10
139.8783107542914
 20
212.5269879194693
 30
0.0
 10
139.9028480453792
 20
212.5220796055636
 30
0.0
  0
SPLINE
  5
15E
330
1F
100
AcDbEntity
  8
0
  6
Continuous
 62
     7
370
    15
100
AcDbSpline
210
0.0
220
0.0
230
1.0
 70
     8
 71
     3
 72
    12
 73
     8
 74
     0
 42
0.00000001
 43
0.00000001
 40
0.0
 40
0.0
 40
0.0
 40
0.0
 40
0.1255359095768897
 40
0.2509392490400227
 40
0.3763253473569803
 40
0.5018866346333304
 40
1.0
 40
1.0
 40
1.0
 40
1.0
 10
139.9028480453792
 20
212.5220796055636
 30
0.0
 10
139.9261731260183
 20
212.5208066544032
 30
0.0
 10
139.9727986552321
 20
212.5182620963612
 30
0.0
 10
140.0410280509388
 20
212.538354371874
 30
0.0
 10
140.0997035682439
 20
212.5774736865278
 30
0.0
 10
140.1902427176594
 20
212.6851745488845
 30
0.0
 10
140.2119616585336
 20
212.8020773878447
 30
0.0
 10
140.22930803406
 20
212.8954447650319
 30
0.0
  0
SPLINE
  5
15F
330
1F
100
AcDbEntity
  8
0
  6
Continuous
 62
     7
370
    15
100
AcDbSpline
210
0.0
220
0.0
230
1.0
 70
     8
 71
     3
 72
    11
 73
     7
 74
     0
 42
0.00000001
 43
0.00000001
 40
0.0
 40
0.0
 40
0.0
 40
0.0
 40
0.4996889150837737
 40
0.7490097070658801
 40
0.8744431671706812
 40
1.0
 40
1.0
 40
1.0
 40
1.0
 10
140.22930803406
 20
212.8954447650319
 30
0.0
 10
140.2361375377197
 20
212.991104200413
 30
0.0
 10
140.2463746360045
 20
213.1344931040088
 30
0.0
 10
140.1574475045553
 20
213.2814580194224
 30
0.0
 10
140.0770783663202
 20
213.3331638982316
 30
0.0
 10
140.03069951658
 20
213.3419597294775
 30
0.0
 10
140.0074986930917
 20
213.3463598068687
 30
0.0
  0
SPLINE
  5
160
330
1F
100
AcDbEntity
  8
0
  6
Continuous
 62
     7
370
    15
100
AcDbSpline
210
0.0
220
0.0
230
1.0
 70
     8
 71
     3
 72
    10
 73
     6
 74
     0
 42
0.00000001
 43
0.00000001
 40
0.0
 40
0.0
 40
0.0
 40
0.0
 40
0.2794762940773692
 40
0.5594868811219403
 40
1.0
 40
1.0
 40
1.0
 40
1.0
 10
140.0074986930917
 20
213.3463598068687
 30
0.0
 10
139.9702910387715
 20
213.3455278485071
 30
0.0
 10
139.8958045978439
 20
213.3438623412752
 30
0.0
 10
139.785362951744
 20
213.2591633326366
 30
0.0
 10
139.7525756368863
 20
213.169414554611
 30
0.0
 10
139.7325301585643
 20
213.1145440294657
 30
0.0
  0
SPLINE
  5
161
330
1F
100
AcDbEntity
  8
0
  6
Continuous
 62
     7
370
    15
100
AcDbSpline
210
0.0
220
0.0
230
1.0
 70
     8
 71
     3
 72
    11
 73
     7
 74
     0
 42
0.00000001
 43
0.00000001
 40
0.0
 40
0.0
 40
0.0
 40
0.0
 40
0.2807126350400743
 40
0.560172748601051
 40
0.7799813488150502
 40
1.0
 40
1.0
 40
1.0
 40
1.0
 10
139.6249609668917
 20
213.161657667679
 30
0.0
 10
139.6434161441492
 20
213.2089402566387
 30
0.0
 10
139.6802441528664
 20
213.3032944627285
 30
0.0
 10
139.7773184630458
 20
213.4101770153289
 30
0.0
 10
139.898804251365
 20
213.4661363721513
 30
0.0
 10
139.9787593116343
 20
213.4636966211033
 30
0.0
 10
140.0187559340807
 20
213.4624761629959
 30
0.0
  0
LINE
  5
162
330
1F
100
AcDbEntity
  8
0
  6
Continuous
 62
     7
370
    15
100
AcDbLine
 10
142.4351729995
 20
213.3078559181
 30
0.0
 11
142.4360068692
 21
212.8709081938
 31
0.0
  0
LINE
  5
163
330
1F
100
AcDbEntity
  8
0
  6
Continuous
 62
     7
370
    15
100
AcDbLine
 10
142.4360068692
 20
212.8709081938
 30
0.0
 11
142.7628837927
 21
212.2769844979
 31
0.0
  0
LINE
  5
164
330
1F
100
AcDbEntity
  8
0
  6
Continuous
 62
     7
370
    15
100
AcDbLine
 10
142.7628837927
 20
212.2769844979
 30
0.0
 11
142.6263376289
 21
212.2767760305
 31
0.0
  0
LINE
  5
165
330
1F
100
AcDbEntity
  8
0
  6
Continuous
 62
     7
370
    15
100
AcDbLine
 10
142.6263376289
 20
212.2767760305
 30
0.0
 11
142.4597721557
 21
212.5873924948
 31
0.0
  0
SPLINE
  5
166
330
1F
100
AcDbEntity
  8
0
  6
Continuous
 62
     7
370
    15
100
AcDbSpline
210
0.0
220
0.0
230
1.0
 70
     8
 71
     3
 72
     9
 73
     5
 74
     0
 42
0.00000001
 43
0.00000001
 40
0.0
 40
0.0
 40
0.0
 40
0.0
 40
0.5599954211368146
 40
1.0
 40
1.0
 40
1.0
 40
1.0
 10
142.4597721557444
 20
212.5873924948115
 30
0.0
 10
142.442747047225
 20
212.6195493846058
 30
0.0
 10
142.4123448191409
 20
212.6769728716211
 30
0.0
 10
142.3850566333437
 20
212.7359357803271
 30
0.0
 10
142.3730497066441
 20
212.7618797301408
 30
0.0
  0
SPLINE
  5
167
330
1F
100
AcDbEntity
  8
0
  6
Continuous
 62
     7
370
    15
100
AcDbSpline
210
0.0
220
0.0
230
1.0
 70
     8
 71
     3
 72
     9
 73
     5
 74
     0
 42
0.00000001
 43
0.00000001
 40
0.0
 40
0.0
 40
0.0
 40
0.0
 40
0.5599942998736921
 40
1.0
 40
1.0
 40
1.0
 40
1.0
 10
142.3730497066441
 20
212.7618797301408
 30
0.0
 10
142.3566160686447
 20
212.7274622494973
 30
0.0
 10
142.3272699877951
 20
212.6660018370407
 30
0.0
 10
142.2952184369641
 20
212.6059110301786
 30
0.0
 10
142.2811155719006
 20
212.579470732634
 30
0.0
  0
LINE
  5
168
330
1F
100
AcDbEntity
  8
0
  6
Continuous
 62
     7
370
    15
100
AcDbLine
 10
142.2811155719
 20
212.5794707326
 30
0.0
 11
142.1176771101
 21
212.2759421608
 31
0.0
  0
LINE
  5
169
330
1F
100
AcDbEntity
  8
0
  6
Continuous
 62
     7
370
    15
100
AcDbLine
 10
142.1176771101
 20
212.2759421608
 30
0.0
 11
141.9875934365
 21
212.2757336934
 31
0.0
  0
LINE
  5
16A
330
1F
100
AcDbEntity
  8
0
  6
Continuous
 62
     7
370
    15
100
AcDbLine
 10
141.9875934365
 20
212.2757336934
 30
0.0
 11
142.324268329
 21
212.8706997264
 31
0.0
  0
LINE
  5
16B
330
1F
100
AcDbEntity
  8
0
  6
Continuous
 62
     7
370
    15
100
AcDbLine
 10
142.324268329
 20
212.8706997264
 30
0.0
 11
142.3234344593
 21
213.3076474507
 31
0.0
  0
LINE
  5
16C
330
1F
100
AcDbEntity
  8
0
  6
Continuous
 62
     7
370
    15
100
AcDbLine
 10
142.3234344593
 20
213.3076474507
 30
0.0
 11
142.4351729995
 21
213.3078559181
 31
0.0
  0
LINE
  5
16D
330
1F
100
AcDbEntity
  8
0
  6
Continuous
 62
     7
370
    15
100
AcDbLine
 10
138.8539330886
 20
213.336427703
 30
0.0
 11
138.7484485712
 21
213.3391377795
 31
0.0
  0
SPLINE
  5
16E
330
1F
100
AcDbEntity
  8
0
  6
Continuous
 62
     7
370
    15
100
AcDbSpline
210
0.0
220
0.0
230
1.0
 70
     8
 71
     3
 72
    10
 73
     6
 74
     0
 42
0.00000001
 43
0.00000001
 40
0.0
 40
0.0
 40
0.0
 40
0.0
 40
0.5596515514947482
 40
0.779817047681364
 40
1.0
 40
1.0
 40
1.0
 40
1.0
 10
138.7484485711621
 20
213.3391377795265
 30
0.0
 10
138.7474996840946
 20
213.3936080951525
 30
0.0
 10
138.7461775072695
 20
213.4695068943327
 30
0.0
 10
138.6862033924664
 20
213.5495920456245
 30
0.0
 10
138.6455645495257
 20
213.5621651476159
 30
0.0
 10
138.6252443225603
 20
213.5684519478208
 30
0.0
  0
SPLINE
  5
16F
330
1F
100
AcDbEntity
  8
0
  6
Continuous
 62
     7
370
    15
100
AcDbSpline
210
0.0
220
0.0
230
1.0
 70
     8
 71
     3
 72
    11
 73
     7
 74
     0
 42
0.00000001
 43
0.00000001
 40
0.0
 40
0.0
 40
0.0
 40
0.0
 40
0.280705422659637
 40
0.5603250732887347
 40
0.7802301841561058
 40
1.0
 40
1.0
 40
1.0
 40
1.0
 10
138.413232950601
 20
213.3889614942741
 30
0.0
 10
138.4099588085912
 20
213.3619211509318
 30
0.0
 10
138.4034231889932
 20
213.3079450566283
 30
0.0
 10
138.4294430267291
 20
213.235044479205
 30
0.0
 10
138.4767723137434
 20
213.1811168015803
 30
0.0
 10
138.517803917298
 20
213.1684702600712
 30
0.0
 10
138.5383134060342
 20
213.1621489350885
 30
0.0
  0
SPLINE
  5
170
330
1F
100
AcDbEntity
  8
0
  6
Continuous
 62
     7
370
    15
100
AcDbSpline
210
0.0
220
0.0
230
1.0
 70
     8
 71
     3
 72
     9
 73
     5
 74
     0
 42
0.00000001
 43
0.00000001
 40
0.0
 40
0.0
 40
0.0
 40
0.0
 40
0.5596097808344767
 40
0.9999999999999999
 40
0.9999999999999999
 40
0.9999999999999999
 40
0.9999999999999999
 10
138.5383134060342
 20
213.1621489350885
 30
0.0
 10
138.5522121613786
 20
213.1607594591572
 30
0.0
 10
138.5770486739278
 20
213.158276521977
 30
0.0
 10
138.601825017598
 20
213.1611096990445
 30
0.0
 10
138.612736277017
 20
213.1623574025142
 30
0.0
  0
LINE
  5
171
330
1F
100
AcDbEntity
  8
0
  6
Continuous
 62
     7
370
    15
100
AcDbLine
 10
138.612736277
 20
213.1623574025
 30
0.0
 11
138.5802153586
 21
213.0556220805
 31
0.0
  0
LINE
  5
172
330
1F
100
AcDbEntity
  8
0
  6
Continuous
 62
     7
370
    15
100
AcDbLine
 10
138.5802153586
 20
213.0556220805
 30
0.0
 11
138.5645803017
 21
213.0597914291
 31
0.0
  0
SPLINE
  5
173
330
1F
100
AcDbEntity
  8
0
  6
Continuous
 62
     7
370
    15
100
AcDbSpline
210
0.0
220
0.0
230
1.0
 70
     8
 71
     3
 72
    11
 73
     7
 74
     0
 42
0.00000001
 43
0.00000001
 40
0.0
 40
0.0
 40
0.0
 40
0.0
 40
0.280046871633694
 40
0.5591600877951991
 40
0.7792922208025425
 40
1.0
 40
1.0
 40
1.0
 40
1.0
 10
138.5645803016752
 20
213.0597914290589
 30
0.0
 10
138.538795656061
 20
213.0622782157698
 30
0.0
 10
138.4873123289262
 20
213.0672434984292
 30
0.0
 10
138.4206067682911
 20
213.0332744913
 30
0.0
 10
138.3788273198281
 20
212.9805374503588
 30
0.0
 10
138.3685530691972
 20
212.9413868531475
 30
0.0
 10
138.3634092358534
 20
212.9217859932309
 30
0.0
  0
SPLINE
  5
174
330
1F
100
AcDbEntity
  8
0
  6
Continuous
 62
     7
370
    15
100
AcDbSpline
210
0.0
220
0.0
230
1.0
 70
     8
 71
     3
 72
    11
 73
     7
 74
     0
 42
0.00000001
 43
0.00000001
 40
0.0
 40
0.0
 40
0.0
 40
0.0
 40
0.2803728994860843
 40
0.55978833367608
 40
0.7799462034863978
 40
1.0
 40
1.0
 40
1.0
 40
1.0
 10
138.3634092358534
 20
212.9217859932309
 30
0.0
 10
138.3607927933602
 20
212.8997011578231
 30
0.0
 10
138.3555688434488
 20
212.8556069060779
 30
0.0
 10
138.3790715362362
 20
212.7967927030765
 30
0.0
 10
138.4187783639293
 20
212.7540394869398
 30
0.0
 10
138.4523302458455
 20
212.7439857439382
 30
0.0
 10
138.4691022206945
 20
212.7389600608727
 30
0.0
  0
SPLINE
  5
175
330
1F
100
AcDbEntity
  8
0
  6
Continuous
 62
     7
370
    15
100
AcDbSpline
210
0.0
220
0.0
230
1.0
 70
     8
 71
     3
 72
    10
 73
     6
 74
     0
 42
0.00000001
 43
0.00000001
 40
0.0
 40
0.0
 40
0.0
 40
0.0
 40
0.2788648247684111
 40
0.5587109868685428
 40
1.0
 40
1.0
 40
1.0
 40
1.0
 10
138.4691022206945
 20
212.7389600608727
 30
0.0
 10
138.494287835977
 20
212.7381743815947
 30
0.0
 10
138.5447476958071
 20
212.7366002581995
 30
0.0
 10
138.6177836698915
 20
212.7962872407245
 30
0.0
 10
138.640259217153
 20
212.8561666304254
 30
0.0
 10
138.65401282731
 20
212.8928090210556
 30
0.0
  0
LINE
  5
176
330
1F
100
AcDbEntity
  8
0
  6
Continuous
 62
     7
370
    15
100
AcDbLine
 10
138.6540128273
 20
212.8928090211
 30
0.0
 11
138.7513671151
 21
212.8515324708
 31
0.0
  0
SPLINE
  5
177
330
1F
100
AcDbEntity
  8
0
  6
Continuous
 62
     7
370
    15
100
AcDbSpline
210
0.0
220
0.0
230
1.0
 70
     8
 71
     3
 72
    11
 73
     7
 74
     0
 42
0.00000001
 43
0.00000001
 40
0.0
 40
0.0
 40
0.0
 40
0.0
 40
0.2807454804669418
 40
0.5602140747030383
 40
0.7800654837276532
 40
1.0
 40
1.0
 40
1.0
 40
1.0
 10
138.7513671151222
 20
212.8515324707626
 30
0.0
 10
138.7371101597118
 20
212.8161946093526
 30
0.0
 10
138.7086610923574
 20
212.745679610148
 30
0.0
 10
138.6334711889424
 20
212.6676547611956
 30
0.0
 10
138.540959324191
 20
212.6282093954494
 30
0.0
 10
138.4811062263061
 20
212.6336655130768
 30
0.0
 10
138.4511740220824
 20
212.6363940874174
 30
0.0
  0
SPLINE
  5
178
330
1F
100
AcDbEntity
  8
0
  6
Continuous
 62
     7
370
    15
100
AcDbSpline
210
0.0
220
0.0
230
1.0
 70
     8
 71
     3
 72
    11
 73
     7
 74
     0
 42
0.00000001
 43
0.00000001
 40
0.0
 40
0.0
 40
0.0
 40
0.0
 40
0.279108400848708
 40
0.5588383719015518
 40
0.7792346101032509
 40
1.0
 40
1.0
 40
1.0
 40
1.0
 10
138.4511740220824
 20
212.6363940874174
 30
0.0
 10
138.4148087090949
 20
212.6483808177105
 30
0.0
 10
138.3419970981156
 20
212.6723809725643
 30
0.0
 10
138.2767607941833
 20
212.7611702299301
 30
0.0
 10
138.2482211099666
 20
212.8555854382706
 30
0.0
 10
138.2553830760558
 20
212.9149901833881
 30
0.0
 10
138.2589670555666
 20
212.9447174100603
 30
0.0
  0
SPLINE
  5
179
330
1F
100
AcDbEntity
  8
0
  6
Continuous
 62
     7
370
    15
100
AcDbSpline
210
0.0
220
0.0
230
1.0
 70
     8
 71
     3
 72
    10
 73
     6
 74
     0
 42
0.00000001
 43
0.00000001
 40
0.0
 40
0.0
 40
0.0
 40
0.0
 40
0.2810389155504449
 40
0.5616852414965093
 40
1.0
 40
1.0
 40
1.0
 40
1.0
 10
138.2589670555666
 20
212.9447174100603
 30
0.0
 10
138.2648415702251
 20
212.9674505961855
 30
0.0
 10
138.2765823932999
 20
213.0128852119351
 30
0.0
 10
138.3240373608091
 20
213.0847801529451
 30
0.0
 10
138.3786733221066
 20
213.1121239785938
 30
0.0
 10
138.4119821460466
 20
213.128794146973
 30
0.0
  0
SPLINE
  5
17A
330
1F
100
AcDbEntity
  8
0
  6
Continuous
 62
     7
370
    15
100
AcDbSpline
210
0.0
220
0.0
230
1.0
 70
     8
 71
     3
 72
    10
 73
     6
 74
     0
 42
0.00000001
 43
0.00000001
 40
0.0
 40
0.0
 40
0.0
 40
0.0
 40
0.2796068865063281
 40
0.5598734137369997
 40
0.9999999999999999
 40
0.9999999999999999
 40
0.9999999999999999
 40
0.9999999999999999
 10
138.4119821460466
 20
213.128794146973
 30
0.0
 10
138.3863645465649
 20
213.1452988947404
 30
0.0
 10
138.3350689112791
 20
213.1783473278133
 30
0.0
 10
138.2934157865964
 20
213.2831563324619
 30
0.0
 10
138.3002422833259
 20
213.3603520890453
 30
0.0
 10
138.3044129543741
 20
213.4075150951633
 30
0.0
  0
SPLINE
  5
17B
330
1F
100
AcDbEntity
  8
0
  6
Continuous
 62
     7
370
    15
100
AcDbSpline
210
0.0
220
0.0
230
1.0
 70
     8
 71
     3
 72
    11
 73
     7
 74
     0
 42
0.00000001
 43
0.00000001
 40
0.0
 40
0.0
 40
0.0
 40
0.0
 40
0.2803577134121178
 40
0.5599242324013122
 40
0.7800618593613947
 40
1.0
 40
1.0
 40
1.0
 40
1.0
 10
138.3044129543741
 20
213.4075150951633
 30
0.0
 10
138.316282407783
 20
213.4510923707735
 30
0.0
 10
138.339987817947
 20
213.5381239430431
 30
0.0
 10
138.4303755145151
 20
213.6294792080666
 30
0.0
 10
138.5370226573842
 20
213.6800545204711
 30
0.0
 10
138.6077999276873
 20
213.6744462084433
 30
0.0
 10
138.6431725211724
 20
213.6716433235532
 30
0.0
  0
SPLINE
  5
17C
330
1F
100
AcDbEntity
  8
0
  6
Continuous
 62
     7
370
    15
100
AcDbSpline
210
0.0
220
0.0
230
1.0
 70
     8
 71
     3
 72
    11
 73
     7
 74
     0
 42
0.00000001
 43
0.00000001
 40
0.0
 40
0.0
 40
0.0
 40
0.0
 40
0.279070523561826
 40
0.5585699929208264
 40
0.7790601124732449
 40
1.0
 40
1.0
 40
1.0
 40
1.0
 10
138.6431725211724
 20
213.6716433235532
 30
0.0
 10
138.6825649703796
 20
213.6587084714573
 30
0.0
 10
138.7614104170215
 20
213.6328188857302
 30
0.0
 10
138.8305601964896
 20
213.5351058996064
 30
0.0
 10
138.8590589804905
 20
213.4330849785861
 30
0.0
 10
138.8556428794239
 20
213.3686686725354
 30
0.0
 10
138.8539330885774
 20
213.3364277029921
 30
0.0
  0
SPLINE
  5
17D
330
1F
100
AcDbEntity
  8
0
  6
Continuous
 62
     7
370
    15
100
AcDbSpline
210
0.0
220
0.0
230
1.0
 70
     8
 71
     3
 72
    11
 73
     7
 74
     0
 42
0.00000001
 43
0.00000001
 40
0.0
 40
0.0
 40
0.0
 40
0.0
 40
0.278186819011809
 40
0.5580519586625814
 40
0.7787909937219516
 40
1.0
 40
1.0
 40
1.0
 40
1.0
 10
138.6252443225603
 20
213.5684519478208
 30
0.0
 10
138.5960200622184
 20
213.5688642296353
 30
0.0
 10
138.5373952295172
 20
213.5696912805896
 30
0.0
 10
138.4706466321013
 20
213.5176876275282
 30
0.0
 10
138.4295515905814
 20
213.4553509751078
 30
0.0
 10
138.4186763522007
 20
213.411107004354
 30
0.0
 10
138.413232950601
 20
213.3889614942741
 30
0.0
  0
SPLINE
  5
17E
330
1F
100
AcDbEntity
  8
0
  6
Continuous
 62
     7
370
    15
100
AcDbSpline
210
0.0
220
0.0
230
1.0
 70
     8
 71
     3
 72
    11
 73
     7
 74
     0
 42
0.00000001
 43
0.00000001
 40
0.0
 40
0.0
 40
0.0
 40
0.0
 40
0.2814057212998014
 40
0.5594960822040403
 40
0.7794688652409757
 40
1.0
 40
1.0
 40
1.0
 40
1.0
 10
144.6768919554819
 20
212.8660518958959
 30
0.0
 10
144.6481334464498
 20
212.8623242723643
 30
0.0
 10
144.5909552446023
 20
212.8549129420183
 30
0.0
 10
144.5201911327537
 20
212.8089080657932
 30
0.0
 10
144.4883967317564
 20
212.7387723606265
 30
0.0
 10
144.4896741105208
 20
212.6932829736349
 30
0.0
 10
144.4903136094606
 20
212.6705094505686
 30
0.0
  0
SPLINE
  5
17F
330
1F
100
AcDbEntity
  8
0
  6
Continuous
 62
     7
370
    15
100
AcDbSpline
210
0.0
220
0.0
230
1.0
 70
     8
 71
     3
 72
    11
 73
     7
 74
     0
 42
0.00000001
 43
0.00000001
 40
0.0
 40
0.0
 40
0.0
 40
0.0
 40
0.2800822116879494
 40
0.5585264416884749
 40
0.7788885976384312
 40
1.0
 40
1.0
 40
1.0
 40
1.0
 10
144.4903136094606
 20
212.6705094505686
 30
0.0
 10
144.495427268568
 20
212.6445515525347
 30
0.0
 10
144.505624680992
 20
212.5927875639001
 30
0.0
 10
144.56118752424
 20
212.5387838019994
 30
0.0
 10
144.6273606186564
 20
212.5209234842705
 30
0.0
 10
144.6684190229246
 20
212.5237779831471
 30
0.0
 10
144.6889830661738
 20
212.5252076548403
 30
0.0
  0
LINE
  5
180
330
1F
100
AcDbEntity
  8
0
  6
Continuous
 62
     7
370
    15
100
AcDbLine
 10
144.6889830662
 20
212.5252076548
 30
0.0
 11
144.9539451643
 21
212.5552269641
 31
0.0
  0
LINE
  5
181
330
1F
100
AcDbEntity
  8
0
  6
Continuous
 62
     7
370
    15
100
AcDbLine
 10
144.9539451643
 20
212.5552269641
 30
0.0
 11
144.9153786905
 21
212.8931526612
 31
0.0
  0
LINE
  5
182
330
1F
100
AcDbEntity
  8
0
  6
Continuous
 62
     7
370
    15
100
AcDbLine
 10
144.9153786905
 20
212.8931526612
 30
0.0
 11
144.6768919555
 21
212.8660518959
 31
0.0
  0
LINE
  5
183
330
1F
100
AcDbEntity
  8
0
  6
Continuous
 62
     7
370
    15
100
AcDbLine
 10
144.9612415242
 20
213.4768614533
 30
0.0
 11
145.0775663477
 21
212.4549541324
 31
0.0
  0
LINE
  5
184
330
1F
100
AcDbEntity
  8
0
  6
Continuous
 62
     7
370
    15
100
AcDbLine
 10
145.0775663477
 20
212.4549541324
 30
0.0
 11
144.7058689277
 21
212.412635245
 31
0.0
  0
SPLINE
  5
185
330
1F
100
AcDbEntity
  8
0
  6
Continuous
 62
     7
370
    15
100
AcDbSpline
210
0.0
220
0.0
230
1.0
 70
     8
 71
     3
 72
    11
 73
     7
 74
     0
 42
0.00000001
 43
0.00000001
 40
0.0
 40
0.0
 40
0.0
 40
0.0
 40
0.2814544932739488
 40
0.5583432774759448
 40
0.7789602809289574
 40
1.0
 40
1.0
 40
1.0
 40
1.0
 10
144.7058689276572
 20
212.4126352449504
 30
0.0
 10
144.6615242299096
 20
212.4077166985529
 30
0.0
 10
144.5735541868979
 20
212.3979593936184
 30
0.0
 10
144.4572313218524
 20
212.4565266771164
 30
0.0
 10
144.3951875038454
 20
212.5544862801304
 30
0.0
 10
144.3823099382053
 20
212.6226407498361
 30
0.0
 10
144.3758649927393
 20
212.656750600471
 30
0.0
  0
SPLINE
  5
186
330
1F
100
AcDbEntity
  8
0
  6
Continuous
 62
     7
370
    15
100
AcDbSpline
210
0.0
220
0.0
230
1.0
 70
     8
 71
     3
 72
    11
 73
     7
 74
     0
 42
0.00000001
 43
0.00000001
 40
0.0
 40
0.0
 40
0.0
 40
0.0
 40
0.2802441610124943
 40
0.5592962814055622
 40
0.7793481321539981
 40
1.0
 40
1.0
 40
1.0
 40
1.0
 10
144.3758649927393
 20
212.656750600471
 30
0.0
 10
144.3741954334903
 20
212.6948478324024
 30
0.0
 10
144.3708634165944
 20
212.7708802466876
 30
0.0
 10
144.4191228877784
 20
212.8695708180709
 30
0.0
 10
144.4953893342829
 20
212.9327563379113
 30
0.0
 10
144.5516016904934
 20
212.9526246384254
 30
0.0
 10
144.5797461350954
 20
212.9625723140052
 30
0.0
  0
SPLINE
  5
187
330
1F
100
AcDbEntity
  8
0
  6
Continuous
 62
     7
370
    15
100
AcDbSpline
210
0.0
220
0.0
230
1.0
 70
     8
 71
     3
 72
     9
 73
     5
 74
     0
 42
0.00000001
 43
0.00000001
 40
0.0
 40
0.0
 40
0.0
 40
0.0
 40
0.5600938394437117
 40
1.0
 40
1.0
 40
1.0
 40
1.0
 10
144.5797461350954
 20
212.9625723140052
 30
0.0
 10
144.5641350205952
 20
212.9698266060699
 30
0.0
 10
144.5362627009929
 20
212.9827785286832
 30
0.0
 10
144.5126039034967
 20
213.0023341281111
 30
0.0
 10
144.5021962527268
 20
213.0109367567727
 30
0.0
  0
SPLINE
  5
188
330
1F
100
AcDbEntity
  8
0
  6
Continuous
 62
     7
370
    15
100
AcDbSpline
210
0.0
220
0.0
230
1.0
 70
     8
 71
     3
 72
     9
 73
     5
 74
     0
 42
0.00000001
 43
0.00000001
 40
0.0
 40
0.0
 40
0.0
 40
0.0
 40
0.5599594818285728
 40
1.0
 40
1.0
 40
1.0
 40
1.0
 10
144.5021962527268
 20
213.0109367567727
 30
0.0
 10
144.4813694896818
 20
213.0318840387462
 30
0.0
 10
144.4441761503047
 20
213.069292606068
 30
0.0
 10
144.4136766829621
 20
213.1122982399824
 30
0.0
 10
144.4002556815487
 20
213.1312224614144
 30
0.0
  0
LINE
  5
189
330
1F
100
AcDbEntity
  8
0
  6
Continuous
 62
     7
370
    15
100
AcDbLine
 10
144.4002556815
 20
213.1312224614
 30
0.0
 11
144.2222245
 21
213.3926406133
 31
0.0
  0
LINE
  5
18A
330
1F
100
AcDbEntity
  8
0
  6
Continuous
 62
     7
370
    15
100
AcDbLine
 10
144.2222245
 20
213.3926406133
 30
0.0
 11
144.3616892078
 21
213.4084841376
 31
0.0
  0
LINE
  5
18B
330
1F
100
AcDbEntity
  8
0
  6
Continuous
 62
     7
370
    15
100
AcDbLine
 10
144.3616892078
 20
213.4084841376
 30
0.0
 11
144.4974015019
 21
213.2085638764
 31
0.0
  0
SPLINE
  5
18C
330
1F
100
AcDbEntity
  8
0
  6
Continuous
 62
     7
370
    15
100
AcDbSpline
210
0.0
220
0.0
230
1.0
 70
     8
 71
     3
 72
    10
 73
     6
 74
     0
 42
0.00000001
 43
0.00000001
 40
0.0
 40
0.0
 40
0.0
 40
0.0
 40
0.5614844236489633
 40
0.7802748767340685
 40
1.0
 40
1.0
 40
1.0
 40
1.0
 10
144.4974015019352
 20
213.2085638763573
 30
0.0
 10
144.5344556567562
 20
213.1498849623478
 30
0.0
 10
144.5859484940775
 20
213.068340968486
 30
0.0
 10
144.6897475974945
 20
212.9889440718002
 30
0.0
 10
144.7457622741294
 20
212.9934572405454
 30
0.0
 10
144.7738293084427
 20
212.995718634695
 30
0.0
  0
LINE
  5
18D
330
1F
100
AcDbEntity
  8
0
  6
Continuous
 62
     7
370
    15
100
AcDbLine
 10
144.7738293084
 20
212.9957186347
 30
0.0
 11
144.9020367753
 21
213.0103113545
 31
0.0
  0
LINE
  5
18E
330
1F
100
AcDbEntity
  8
0
  6
Continuous
 62
     7
370
    15
100
AcDbLine
 10
144.9020367753
 20
213.0103113545
 30
0.0
 11
144.8503368537
 21
213.4641449403
 31
0.0
  0
LINE
  5
18F
330
1F
100
AcDbEntity
  8
0
  6
Continuous
 62
     7
370
    15
100
AcDbLine
 10
144.8503368537
 20
213.4641449403
 30
0.0
 11
144.9612415242
 21
213.4768614533
 31
0.0
  0
LINE
  5
190
330
1F
100
AcDbEntity
  8
0
  6
Continuous
 62
     7
370
    15
100
AcDbLine
 10
145.3701743743
 20
213.1067160446
 30
0.0
 11
145.50171732
 21
212.8371676632
 31
0.0
  0
SPLINE
  5
191
330
1F
100
AcDbEntity
  8
0
  6
Continuous
 62
     7
370
    15
100
AcDbSpline
210
0.0
220
0.0
230
1.0
 70
     8
 71
     3
 72
     9
 73
     5
 74
     0
 42
0.00000001
 43
0.00000001
 40
0.0
 40
0.0
 40
0.0
 40
0.0
 40
0.5600123732070248
 40
0.9999999999999999
 40
0.9999999999999999
 40
0.9999999999999999
 40
0.9999999999999999
 10
145.5017173199594
 20
212.8371676631761
 30
0.0
 10
145.5199443230495
 20
212.7998128835145
 30
0.0
 10
145.552491823716
 20
212.7331093936475
 30
0.0
 10
145.5815094572612
 20
212.6648007505611
 30
0.0
 10
145.5942768569799
 20
212.6347457928
 30
0.0
  0
SPLINE
  5
192
330
1F
100
AcDbEntity
  8
0
  6
Continuous
 62
     7
370
    15
100
AcDbSpline
210
0.0
220
0.0
230
1.0
 70
     8
 71
     3
 72
     9
 73
     5
 74
     0
 42
0.00000001
 43
0.00000001
 40
0.0
 40
0.0
 40
0.0
 40
0.0
 40
0.559996246497412
 40
1.0
 40
1.0
 40
1.0
 40
1.0
 10
145.5942768569799
 20
212.6347457928
 30
0.0
 10
145.5953032493014
 20
212.6726258408279
 30
0.0
 10
145.5971361050177
 20
212.7402692371271
 30
0.0
 10
145.6054290967265
 20
212.8074148667049
 30
0.0
 10
145.6090780442062
 20
212.8369591957504
 30
0.0
  0
LINE
  5
193
330
1F
100
AcDbEntity
  8
0
  6
Continuous
 62
     7
370
    15
100
AcDbLine
 10
145.6090780442
 20
212.8369591958
 30
0.0
 11
145.6538985407
 21
213.1511196063
 31
0.0
  0
LINE
  5
194
330
1F
100
AcDbEntity
  8
0
  6
Continuous
 62
     7
370
    15
100
AcDbLine
 10
145.6538985407
 20
213.1511196063
 30
0.0
 11
145.3701743743
 21
213.1067160446
 31
0.0
  0
LINE
  5
195
330
1F
100
AcDbEntity
  8
0
  6
Continuous
 62
     7
370
    15
100
AcDbLine
 10
145.8302619829
 20
213.6087056058
 30
0.0
 11
145.6682827931
 21
212.5363491679
 31
0.0
  0
LINE
  5
196
330
1F
100
AcDbEntity
  8
0
  6
Continuous
 62
     7
370
    15
100
AcDbLine
 10
145.6682827931
 20
212.5363491679
 30
0.0
 11
145.5490394256
 21
212.5175870995
 31
0.0
  0
LINE
  5
197
330
1F
100
AcDbEntity
  8
0
  6
Continuous
 62
     7
370
    15
100
AcDbLine
 10
145.5490394256
 20
212.5175870995
 30
0.0
 11
145.0460075273
 21
213.485918292
 31
0.0
  0
LINE
  5
198
330
1F
100
AcDbEntity
  8
0
  6
Continuous
 62
     7
370
    15
100
AcDbLine
 10
145.0460075273
 20
213.485918292
 30
0.0
 11
145.1729641896
 21
213.5057226975
 31
0.0
  0
LINE
  5
199
330
1F
100
AcDbEntity
  8
0
  6
Continuous
 62
     7
370
    15
100
AcDbLine
 10
145.1729641896
 20
213.5057226975
 30
0.0
 11
145.319099855
 21
213.2113666923
 31
0.0
  0
LINE
  5
19A
330
1F
100
AcDbEntity
  8
0
  6
Continuous
 62
     7
370
    15
100
AcDbLine
 10
145.319099855
 20
213.2113666923
 30
0.0
 11
145.6689081954
 21
213.2661936253
 31
0.0
  0
LINE
  5
19B
330
1F
100
AcDbEntity
  8
0
  6
Continuous
 62
     7
370
    15
100
AcDbLine
 10
145.6689081954
 20
213.2661936253
 30
0.0
 11
145.7124778874
 21
213.5903604723
 31
0.0
  0
LINE
  5
19C
330
1F
100
AcDbEntity
  8
0
  6
Continuous
 62
     7
370
    15
100
AcDbLine
 10
145.7124778874
 20
213.5903604723
 30
0.0
 11
145.8302619829
 21
213.6087056058
 31
0.0
  0
LINE
  5
19D
330
1F
100
AcDbEntity
  8
0
  6
Continuous
 62
     7
370
    15
100
AcDbLine
 10
143.498766827
 20
212.3049503864
 30
0.0
 11
142.8873318674
 21
212.2803512301
 31
0.0
  0
LINE
  5
19E
330
1F
100
AcDbEntity
  8
0
  6
Continuous
 62
     7
370
    15
100
AcDbLine
 10
142.8873318674
 20
212.2803512301
 30
0.0
 11
142.8825371166
 21
212.4020962067
 31
0.0
  0
LINE
  5
19F
330
1F
100
AcDbEntity
  8
0
  6
Continuous
 62
     7
370
    15
100
AcDbLine
 10
142.8825371166
 20
212.4020962067
 30
0.0
 11
143.3820250686
 21
212.4221090796
 31
0.0
  0
LINE
  5
1A0
330
1F
100
AcDbEntity
  8
0
  6
Continuous
 62
     7
370
    15
100
AcDbLine
 10
143.3820250686
 20
212.4221090796
 30
0.0
 11
143.3693085557
 21
212.7379372296
 31
0.0
  0
LINE
  5
1A1
330
1F
100
AcDbEntity
  8
0
  6
Continuous
 62
     7
370
    15
100
AcDbLine
 10
143.3693085557
 20
212.7379372296
 30
0.0
 11
142.9015076523
 21
212.7191751613
 31
0.0
  0
LINE
  5
1A2
330
1F
100
AcDbEntity
  8
0
  6
Continuous
 62
     7
370
    15
100
AcDbLine
 10
142.9015076523
 20
212.7191751613
 30
0.0
 11
142.8965044341
 21
212.8402947356
 31
0.0
  0
LINE
  5
1A3
330
1F
100
AcDbEntity
  8
0
  6
Continuous
 62
     7
370
    15
100
AcDbLine
 10
142.8965044341
 20
212.8402947356
 30
0.0
 11
143.3643053374
 21
212.8590568039
 31
0.0
  0
LINE
  5
1A4
330
1F
100
AcDbEntity
  8
0
  6
Continuous
 62
     7
370
    15
100
AcDbLine
 10
143.3643053374
 20
212.8590568039
 30
0.0
 11
143.3503380199
 21
213.2101159488
 31
0.0
  0
LINE
  5
1A5
330
1F
100
AcDbEntity
  8
0
  6
Continuous
 62
     7
370
    15
100
AcDbLine
 10
143.3503380199
 20
213.2101159488
 30
0.0
 11
142.8312541299
 21
213.1892692063
 31
0.0
  0
LINE
  5
1A6
330
1F
100
AcDbEntity
  8
0
  6
Continuous
 62
     7
370
    15
100
AcDbLine
 10
142.8312541299
 20
213.1892692063
 30
0.0
 11
142.8262509117
 21
213.3110141829
 31
0.0
  0
LINE
  5
1A7
330
1F
100
AcDbEntity
  8
0
  6
Continuous
 62
     7
370
    15
100
AcDbLine
 10
142.8262509117
 20
213.3110141829
 30
0.0
 11
143.4572818093
 21
213.3364472088
 31
0.0
  0
LINE
  5
1A8
330
1F
100
AcDbEntity
  8
0
  6
Continuous
 62
     7
370
    15
100
AcDbLine
 10
143.4572818093
 20
213.3364472088
 30
0.0
 11
143.498766827
 21
212.3049503864
 31
0.0
  0
LINE
  5
1A9
330
1F
100
AcDbEntity
  8
0
  6
Continuous
 62
     7
370
    15
100
AcDbLine
 10
144.197016972
 20
212.3519926556
 30
0.0
 11
144.0850699644
 21
212.3434454911
 31
0.0
  0
LINE
  5
1AA
330
1F
100
AcDbEntity
  8
0
  6
Continuous
 62
     7
370
    15
100
AcDbLine
 10
144.1175908828
 20
213.3834894781
 30
0.0
 11
144.197016972
 21
212.3519926556
 31
0.0
  0
LINE
  5
1AB
330
1F
100
AcDbEntity
  8
0
  6
Continuous
 62
     7
370
    15
100
AcDbLine
 10
143.5891259586
 20
213.34283833
 30
0.0
 11
144.1175908828
 21
213.3834894781
 31
0.0
  0
LINE
  5
1AC
330
1F
100
AcDbEntity
  8
0
  6
Continuous
 62
     7
370
    15
100
AcDbLine
 10
144.0850699644
 20
212.3434454911
 30
0.0
 11
144.0150249094
 21
213.253197337
 31
0.0
  0
LINE
  5
1AD
330
1F
100
AcDbEntity
  8
0
  6
Continuous
 62
     7
370
    15
100
AcDbLine
 10
144.0150249094
 20
213.253197337
 30
0.0
 11
143.5985069928
 21
213.2210933534
 31
0.0
  0
LINE
  5
1AE
330
1F
100
AcDbEntity
  8
0
  6
Continuous
 62
     7
370
    15
100
AcDbLine
 10
143.5985069928
 20
213.2210933534
 30
0.0
 11
143.5891259586
 21
213.34283833
 31
0.0
  0
LINE
  5
1AF
330
1F
100
AcDbEntity
  8
0
  6
Continuous
 62
     7
370
    15
100
AcDbLine
 10
137.8856191958
 20
212.9215340967
 30
0.0
 11
137.8497627986
 21
212.7558024932
 31
0.0
  0
LINE
  5
1B0
330
1F
100
AcDbEntity
  8
0
  6
Continuous
 62
     7
370
    15
100
AcDbLine
 10
137.8497627986
 20
212.7558024932
 30
0.0
 11
137.7336464425
 21
212.7808185843
 31
0.0
  0
LINE
  5
1B1
330
1F
100
AcDbEntity
  8
0
  6
Continuous
 62
     7
370
    15
100
AcDbLine
 10
137.7336464425
 20
212.7808185843
 30
0.0
 11
137.7695028397
 21
212.9465501877
 31
0.0
  0
LINE
  5
1B2
330
1F
100
AcDbEntity
  8
0
  6
Continuous
 62
     7
370
    15
100
AcDbLine
 10
137.8389224924
 20
213.1333370012
 30
0.0
 11
137.900420383
 21
213.1199950859
 31
0.0
  0
LINE
  5
1B3
330
1F
100
AcDbEntity
  8
0
  6
Continuous
 62
     7
370
    15
100
AcDbLine
 10
137.7695028397
 20
212.9465501877
 30
0.0
 11
137.8389224924
 21
213.1333370012
 31
0.0
  0
LINE
  5
1B4
330
1F
100
AcDbEntity
  8
0
  6
Continuous
 62
     7
370
    15
100
AcDbLine
 10
137.900420383
 20
213.1199950859
 30
0.0
 11
137.8856191958
 21
212.9215340967
 31
0.0
  0
LINE
  5
1B5
330
1F
100
AcDbEntity
  8
0
  6
Continuous
 62
     7
370
    15
100
AcDbLine
 10
138.0740737487
 20
212.8806744812
 30
0.0
 11
138.0382173514
 21
212.7149428778
 31
0.0
  0
LINE
  5
1B6
330
1F
100
AcDbEntity
  8
0
  6
Continuous
 62
     7
370
    15
100
AcDbLine
 10
137.95816586
 20
212.9058990397
 30
0.0
 11
138.025292371
 21
213.0928943206
 31
0.0
  0
LINE
  5
1B7
330
1F
100
AcDbEntity
  8
0
  6
Continuous
 62
     7
370
    15
100
AcDbLine
 10
138.025292371
 20
213.0928943206
 30
0.0
 11
138.0874156639
 21
213.0795524054
 31
0.0
  0
LINE
  5
1B8
330
1F
100
AcDbEntity
  8
0
  6
Continuous
 62
     7
370
    15
100
AcDbLine
 10
138.0874156639
 20
213.0795524054
 30
0.0
 11
138.0740737487
 21
212.8806744812
 31
0.0
  0
LINE
  5
1B9
330
1F
100
AcDbEntity
  8
0
  6
Continuous
 62
     7
370
    15
100
AcDbLine
 10
137.9223094627
 20
212.7401674363
 30
0.0
 11
137.95816586
 21
212.9058990397
 31
0.0
  0
LINE
  5
1BA
330
1F
100
AcDbEntity
  8
0
  6
Continuous
 62
     7
370
    15
100
AcDbLine
 10
138.0382173514
 20
212.7149428778
 30
0.0
 11
137.9223094627
 21
212.7401674363
 31
0.0
  0
ARC
  5
1BB
330
1F
100
AcDbEntity
  8
0
  6
Continuous
 62
     7
370
    15
100
AcDbCircle
 10
118.8828689628
 20
262.0859277239
 30
0.0
 40
3.0
100
AcDbArc
 50
45.0
 51
90.0
  0
LINE
  5
1BC
330
1F
100
AcDbEntity
  8
0
  6
Continuous
 62
     7
370
    15
100
AcDbLine
 10
131.2267110715
 20
253.9847263023
 30
0.0
 11
121.0041893064
 21
264.2072480675
 31
0.0
  0
ARC
  5
1BD
330
1F
100
AcDbEntity
  8
0
  6
Continuous
 62
     7
370
    15
100
AcDbCircle
 10
129.105390728
 20
251.8634059588
 30
0.0
 40
3.000000000000022
100
AcDbArc
 50
324.0420069363
 51
45.0
  0
ARC
  5
1BE
330
1F
100
AcDbEntity
  8
0
  6
Continuous
 62
     7
370
    15
100
AcDbCircle
 10
155.5956285719
 20
251.8634059588
 30
0.0
 40
3.000000000000036
100
AcDbArc
 50
135.0
 51
217.7223083566
  0
LINE
  5
1BF
330
1F
100
AcDbEntity
  8
0
  6
Continuous
 62
     7
370
    15
100
AcDbLine
 10
163.6968299935
 20
264.2072480675
 30
0.0
 11
153.4743082283
 21
253.9847263023
 31
0.0
  0
ARC
  5
1C0
330
1F
100
AcDbEntity
  8
0
  6
Continuous
 62
     7
370
    15
100
AcDbCircle
 10
165.818150337
 20
262.0859277239
 30
0.0
 40
3.0
100
AcDbArc
 50
90.0
 51
135.0
  0
LINE
  5
1C1
330
1F
100
AcDbEntity
  8
0
  6
Continuous
 62
     7
370
    15
100
AcDbLine
 10
171.7755096499
 20
265.0859277239
 30
0.0
 11
165.818150337
 21
265.0859277239
 31
0.0
  0
LINE
  5
1C2
330
1F
100
AcDbEntity
  8
0
  6
Continuous
 62
     7
370
    15
100
AcDbLine
 10
165.818150337
 20
263.5859277239
 30
0.0
 11
171.7755096499
 21
263.5859277239
 31
0.0
  0
ARC
  5
1C3
330
1F
100
AcDbEntity
  8
0
  6
Continuous
 62
     7
370
    15
100
AcDbCircle
 10
165.818150337
 20
262.0859277239
 30
0.0
 40
1.500000000000012
100
AcDbArc
 50
90.0
 51
135.0
  0
LINE
  5
1C4
330
1F
100
AcDbEntity
  8
0
  6
Continuous
 62
     7
370
    15
100
AcDbLine
 10
154.5349684001
 20
252.9240661306
 30
0.0
 11
164.7574901653
 21
263.1465878957
 31
0.0
  0
ARC
  5
1C5
330
1F
100
AcDbEntity
  8
0
  6
Continuous
 62
     7
370
    15
100
AcDbCircle
 10
155.5956285719
 20
251.8634059588
 30
0.0
 40
1.500000000000042
100
AcDbArc
 50
135.0
 51
234.4393822263
  0
ARC
  5
1C6
330
1F
100
AcDbEntity
  8
0
  6
Continuous
 62
     7
370
    15
100
AcDbCircle
 10
142.3505096499
 20
233.3359277239
 30
0.0
 40
21.275
100
AcDbArc
 50
125.5606177737
 51
54.4393822263
  0
ARC
  5
1C7
330
1F
100
AcDbEntity
  8
0
  6
Continuous
 62
     7
370
    15
100
AcDbCircle
 10
129.105390728
 20
251.8634059588
 30
0.0
 40
1.500000000000032
100
AcDbArc
 50
305.5606177737
 51
45.0
  0
LINE
  5
1C8
330
1F
100
AcDbEntity
  8
0
  6
Continuous
 62
     7
370
    15
100
AcDbLine
 10
119.9435291346
 20
263.1465878957
 30
0.0
 11
130.1660508997
 21
252.9240661306
 31
0.0
  0
ARC
  5
1C9
330
1F
100
AcDbEntity
  8
0
  6
Continuous
 62
     7
370
    15
100
AcDbCircle
 10
118.8828689628
 20
262.0859277239
 30
0.0
 40
1.500000000000012
100
AcDbArc
 50
45.0
 51
90.0
  0
LINE
  5
1CA
330
1F
100
AcDbEntity
  8
0
  6
Continuous
 62
     7
370
    15
100
AcDbLine
 10
112.9255096499
 20
263.5859277239
 30
0.0
 11
118.8828689628
 21
263.5859277239
 31
0.0
  0
LINE
  5
1CB
330
1F
100
AcDbEntity
  8
0
  6
Continuous
 62
     7
370
    15
100
AcDbLine
 10
118.8828689628
 20
265.0859277239
 30
0.0
 11
112.9255096499
 21
265.0859277239
 31
0.0
  0
LINE
  5
1CC
330
1F
100
AcDbEntity
  8
0
  6
Continuous
 62
     7
370
    15
100
AcDbLine
 10
171.7755096499
 20
265.0859277239
 30
0.0
 11
177.2755096499
 21
265.0859277239
 31
0.0
  0
LINE
  5
1CD
330
1F
100
AcDbEntity
  8
0
  6
Continuous
 62
     7
370
    15
100
AcDbLine
 10
177.2755096499
 20
265.0859277239
 30
0.0
 11
177.2755096499
 21
263.5859277239
 31
0.0
  0
LINE
  5
1CE
330
1F
100
AcDbEntity
  8
0
  6
Continuous
 62
     7
370
    15
100
AcDbLine
 10
177.2755096499
 20
263.5859277239
 30
0.0
 11
171.7755096499
 21
263.5859277239
 31
0.0
  0
LINE
  5
1CF
330
1F
100
AcDbEntity
  8
0
  6
Continuous
 62
     7
370
    15
100
AcDbLine
 10
112.9255096499
 20
263.5859277239
 30
0.0
 11
107.4255096499
 21
263.5859277239
 31
0.0
  0
LINE
  5
1D0
330
1F
100
AcDbEntity
  8
0
  6
Continuous
 62
     7
370
    15
100
AcDbLine
 10
107.4255096499
 20
263.5859277239
 30
0.0
 11
107.4255096499
 21
265.0859277239
 31
0.0
  0
LINE
  5
1D1
330
1F
100
AcDbEntity
  8
0
  6
Continuous
 62
     7
370
    15
100
AcDbLine
 10
107.4255096499
 20
265.0859277239
 30
0.0
 11
112.9255096499
 21
265.0859277239
 31
0.0
  0
CIRCLE
  5
1D2
330
1F
100
AcDbEntity
  8
0
  6
Continuous
 62
     7
370
    15
100
AcDbCircle
 10
142.3213797987
 20
233.3943661369
 30
0.0
 40
19.03749999999999
  0
CIRCLE
  5
1D3
330
1F
100
AcDbEntity
  8
0
  6
Continuous
 62
     7
370
    15
100
AcDbCircle
 10
142.3213797987
 20
233.3943661369
 30
0.0
 40
19.88749999999999
  0
LINE
  5
1D4
330
1F
100
AcDbEntity
  8
0
  6
CENTERX2
 62
     7
370
     0
100
AcDbLine
 10
142.3213797987
 20
207.7189440583
 30
0.0
 11
142.3213797987
 21
267.2255448396
 31
0.0
  0
LINE
  5
1D5
330
1F
100
AcDbEntity
  8
0
  6
CENTERX2
 62
     7
370
     0
100
AcDbLine
 10
118.1106661912
 20
233.3359277239
 30
0.0
 11
166.3012576437
 21
233.3359277239
 31
0.0
  0
LINE
  5
1D6
330
1F
100
AcDbEntity
  8
0
  6
CENTERX2
 62
     7
370
     0
100
AcDbLine
 10
110.1755096499
 20
262.5221248483
 30
0.0
 11
110.1755096499
 21
266.1263601324
 31
0.0
  0
LINE
  5
1D7
330
1F
100
AcDbEntity
  8
0
  6
CENTERX2
 62
     7
370
     0
100
AcDbLine
 10
174.5255096499
 20
262.5221248483
 30
0.0
 11
174.5255096499
 21
266.1263601324
 31
0.0
  0
LINE
  5
1D8
330
1F
100
AcDbEntity
  8
0
  6
Continuous
 62
     7
370
    15
100
AcDbLine
 10
53.1061610027
 20
248.9693297901
 30
0.0
 11
53.1061610027
 21
252.6111018111
 31
0.0
  0
LINE
  5
1D9
330
1F
100
AcDbEntity
  8
0
  6
Continuous
 62
     7
370
    15
100
AcDbLine
 10
36.0861610027
 20
252.6111018111
 30
0.0
 11
36.0861610027
 21
248.9693297901
 31
0.0
  0
LINE
  5
1DA
330
1F
100
AcDbEntity
  8
0
  6
Continuous
 62
     7
370
    15
100
AcDbLine
 10
49.3896029678
 20
248.6372106169
 30
0.0
 11
49.3896029678
 21
248.6678308973
 31
0.0
  0
LINE
  5
1DB
330
1F
100
AcDbEntity
  8
0
  6
Continuous
 62
     7
370
    15
100
AcDbLine
 10
49.1881691257
 20
248.6730558035
 30
0.0
 11
49.1881691257
 21
248.642435523
 31
0.0
  0
LINE
  5
1DC
330
1F
100
AcDbEntity
  8
0
  6
Continuous
 62
     7
370
    15
100
AcDbLine
 10
49.0622837649
 20
248.7682909211
 30
0.0
 11
49.0622837649
 21
248.7376706407
 31
0.0
  0
LINE
  5
1DD
330
1F
100
AcDbEntity
  8
0
  6
Continuous
 62
     7
370
    15
100
AcDbLine
 10
49.8745871832
 20
248.854828231
 30
0.0
 11
49.8745871832
 21
248.8854485115
 31
0.0
  0
LINE
  5
1DE
330
1F
100
AcDbEntity
  8
0
  6
Continuous
 62
     7
370
    15
100
AcDbLine
 10
49.5063669767
 20
248.9532522098
 30
0.0
 11
49.5063669767
 21
248.9226319294
 31
0.0
  0
LINE
  5
1DF
330
1F
100
AcDbEntity
  8
0
  6
Continuous
 62
     7
370
    15
100
AcDbLine
 10
49.8929325673
 20
248.9978461225
 30
0.0
 11
49.8929325673
 21
248.967225842
 31
0.0
  0
LINE
  5
1E0
330
1F
100
AcDbEntity
  8
0
  6
Continuous
 62
     7
370
    15
100
AcDbLine
 10
50.9721579082
 20
249.6417915765
 30
0.0
 11
50.9721579082
 21
249.6111712961
 31
0.0
  0
LINE
  5
1E1
330
1F
100
AcDbEntity
  8
0
  6
Continuous
 62
     7
370
    15
100
AcDbLine
 10
26.1933474611
 20
249.240041851
 30
0.0
 11
26.6176115298
 21
248.9951194175
 31
0.0
  0
LINE
  5
1E2
330
1F
100
AcDbEntity
  8
0
  6
Continuous
 62
     7
370
    15
100
AcDbLine
 10
52.5263929573
 20
229.6602314946
 30
0.0
 11
52.5263929573
 21
247.1870601007
 31
0.0
  0
LINE
  5
1E3
330
1F
100
AcDbEntity
  8
0
  6
Continuous
 62
     7
370
    15
100
AcDbLine
 10
52.5263929573
 20
252.6158873606
 30
0.0
 11
52.5263929573
 21
270.4872720889
 31
0.0
  0
LINE
  5
1E4
330
1F
100
AcDbEntity
  8
0
  6
Continuous
 62
     7
370
    15
100
AcDbLine
 10
36.6163929573
 20
270.4872720889
 30
0.0
 11
36.6163929573
 21
252.6158873606
 31
0.0
  0
LINE
  5
1E5
330
1F
100
AcDbEntity
  8
0
  6
Continuous
 62
     7
370
    15
100
AcDbLine
 10
36.6163929573
 20
247.262333665
 30
0.0
 11
36.6163929573
 21
229.6602314946
 31
0.0
  0
LINE
  5
1E6
330
1F
100
AcDbEntity
  8
0
  6
Continuous
 62
     7
370
    15
100
AcDbLine
 10
51.0461187975
 20
249.718414123
 30
0.0
 11
50.9238078539
 21
249.7745807204
 31
0.0
  0
LINE
  5
1E7
330
1F
100
AcDbEntity
  8
0
  6
Continuous
 62
     7
370
    15
100
AcDbLine
 10
50.8906703713
 20
249.6467306139
 30
0.0
 11
50.7663753299
 21
249.6603461737
 31
0.0
  0
SPLINE
  5
1E8
330
1F
100
AcDbEntity
  8
0
  6
Continuous
 62
     7
370
    15
100
AcDbSpline
210
0.0
220
0.0
230
1.0
 70
     8
 71
     3
 72
     9
 73
     5
 74
     0
 42
0.00000001
 43
0.00000001
 40
0.0
 40
0.0
 40
0.0
 40
0.0
 40
0.5599594818285728
 40
1.0
 40
1.0
 40
1.0
 40
1.0
 10
50.95352545396138
 20
249.6437351907936
 30
0.0
 10
50.94170996975731
 20
249.6437548693197
 30
0.0
 10
50.92060936411083
 20
249.6437900120877
 30
0.0
 10
50.89981898189058
 20
249.6458320392551
 30
0.0
 10
50.89067037132539
 20
249.646730613948
 30
0.0
  0
SPLINE
  5
1E9
330
1F
100
AcDbEntity
  8
0
  6
Continuous
 62
     7
370
    15
100
AcDbSpline
210
0.0
220
0.0
230
1.0
 70
     8
 71
     3
 72
     9
 73
     5
 74
     0
 42
0.00000001
 43
0.00000001
 40
0.0
 40
0.0
 40
0.0
 40
0.0
 40
0.2430262780469698
 40
1.0
 40
1.0
 40
1.0
 40
1.0
 10
50.97447120505177
 20
249.6458536739416
 30
0.0
 10
50.97283033320977
 20
249.6455359655181
 30
0.0
 10
50.96607850433271
 20
249.6442286648176
 30
0.0
 10
50.95893380420744
 20
249.6439477989072
 30
0.0
 10
50.95352545396138
 20
249.6437351907936
 30
0.0
  0
SPLINE
  5
1EA
330
1F
100
AcDbEntity
  8
0
  6
Continuous
 62
     7
370
    15
100
AcDbSpline
210
0.0
220
0.0
230
1.0
 70
     8
 71
     3
 72
    10
 73
     6
 74
     0
 42
0.00000001
 43
0.00000001
 40
0.0
 40
0.0
 40
0.0
 40
0.0
 40
0.4559665241230043
 40
0.9099935587098498
 40
1.0
 40
1.0
 40
1.0
 40
1.0
 10
51.01797255088551
 20
249.5652755274874
 30
0.0
 10
51.00699246696234
 20
249.5712108346043
 30
0.0
 10
50.98507900376809
 20
249.5830562025414
 30
0.0
 10
50.97090233374246
 20
249.6021172274097
 30
0.0
 10
50.97302349501482
 20
249.6124602648806
 30
0.0
 10
50.97337442595196
 20
249.6141714463357
 30
0.0
  0
SPLINE
  5
1EB
330
1F
100
AcDbEntity
  8
0
  6
Continuous
 62
     7
370
    15
100
AcDbSpline
210
0.0
220
0.0
230
1.0
 70
     8
 71
     3
 72
    11
 73
     7
 74
     0
 42
0.00000001
 43
0.00000001
 40
0.0
 40
0.0
 40
0.0
 40
0.0
 40
0.2814544932739488
 40
0.5583432774759448
 40
0.7789602809289574
 40
1.0
 40
1.0
 40
1.0
 40
1.0
 10
51.18035800827716
 20
249.5792995540741
 30
0.0
 10
51.16920660868685
 20
249.5712557716471
 30
0.0
 10
51.147084705699
 20
249.5552986917251
 30
0.0
 10
51.09761830169989
 20
249.5458682666693
 30
0.0
 10
51.0523625000931
 20
249.5517326543138
 30
0.0
 10
51.02944317941856
 20
249.5607583568889
 30
0.0
 10
51.01797255088551
 20
249.5652755274874
 30
0.0
  0
LINE
  5
1EC
330
1F
100
AcDbEntity
  8
0
  6
Continuous
 62
     7
370
    15
100
AcDbLine
 10
51.2735203259
 20
249.6469008084
 30
0.0
 11
51.1803580083
 21
249.5792995541
 31
0.0
  0
SPLINE
  5
1ED
330
1F
100
AcDbEntity
  8
0
  6
Continuous
 62
     7
370
    15
100
AcDbSpline
210
0.0
220
0.0
230
1.0
 70
     8
 71
     3
 72
    11
 73
     7
 74
     0
 42
0.00000001
 43
0.00000001
 40
0.0
 40
0.0
 40
0.0
 40
0.0
 40
0.4996889150837737
 40
0.7490097070658801
 40
0.8744431671706812
 40
1.0
 40
1.0
 40
1.0
 40
1.0
 10
49.77763622830589
 20
248.9271933504857
 30
0.0
 10
49.75251132946888
 20
248.9439279107268
 30
0.0
 10
49.71485031168383
 20
248.9690122135512
 30
0.0
 10
49.64812996529795
 20
248.9784887170754
 30
0.0
 10
49.610773509227
 20
248.973808533574
 30
0.0
 10
49.59516775279697
 20
248.967671917341
 30
0.0
 10
49.58736103912548
 20
248.9646021010165
 30
0.0
  0
LINE
  5
1EE
330
1F
100
AcDbEntity
  8
0
  6
Continuous
 62
     7
370
    15
100
AcDbLine
 10
49.8207696591
 20
248.8779456747
 30
0.0
 11
49.7776362283
 21
248.9271933505
 31
0.0
  0
SPLINE
  5
1EF
330
1F
100
AcDbEntity
  8
0
  6
Continuous
 62
     7
370
    15
100
AcDbSpline
210
0.0
220
0.0
230
1.0
 70
     8
 71
     3
 72
    10
 73
     6
 74
     0
 42
0.00000001
 43
0.00000001
 40
0.0
 40
0.0
 40
0.0
 40
0.0
 40
0.2803099813379182
 40
0.5605256012334116
 40
1.0
 40
1.0
 40
1.0
 40
1.0
 10
49.81914652678219
 20
248.7915142971503
 30
0.0
 10
49.803657185417
 20
248.7858711748809
 30
0.0
 10
49.77268371690193
 20
248.7745868300005
 30
0.0
 10
49.70440139234586
 20
248.773996946749
 30
0.0
 10
49.66468236697774
 20
248.7889094786661
 30
0.0
 10
49.64042818206394
 20
248.7980157269513
 30
0.0
  0
SPLINE
  5
1F0
330
1F
100
AcDbEntity
  8
0
  6
Continuous
 62
     7
370
    15
100
AcDbSpline
210
0.0
220
0.0
230
1.0
 70
     8
 71
     3
 72
    10
 73
     6
 74
     0
 42
0.00000001
 43
0.00000001
 40
0.0
 40
0.0
 40
0.0
 40
0.0
 40
0.0153809591835966
 40
0.5076398341998022
 40
1.0
 40
1.0
 40
1.0
 40
1.0
 10
49.87414850635018
 20
248.8578352445016
 30
0.0
 10
49.87429514350152
 20
248.8574562916936
 30
0.0
 10
49.87913481951297
 20
248.8449491691979
 30
0.0
 10
49.8634620733147
 20
248.8183117101716
 30
0.0
 10
49.83391938867526
 20
248.8004473807435
 30
0.0
 10
49.81914652678219
 20
248.7915142971503
 30
0.0
  0
SPLINE
  5
1F1
330
1F
100
AcDbEntity
  8
0
  6
Continuous
 62
     7
370
    15
100
AcDbSpline
210
0.0
220
0.0
230
1.0
 70
     8
 71
     3
 72
     9
 73
     5
 74
     0
 42
0.00000001
 43
0.00000001
 40
0.0
 40
0.0
 40
0.0
 40
0.0
 40
0.6253624439657459
 40
1.0
 40
1.0
 40
1.0
 40
1.0
 10
49.5314046850715
 20
248.8719822555259
 30
0.0
 10
49.52247450715182
 20
248.882703746181
 30
0.0
 10
49.5081945036021
 20
248.8998481889894
 30
0.0
 10
49.5090400280685
 20
248.9186906598956
 30
0.0
 10
49.50935679328816
 20
248.9257497571456
 30
0.0
  0
LINE
  5
1F2
330
1F
100
AcDbEntity
  8
0
  6
Continuous
 62
     7
370
    15
100
AcDbLine
 10
49.5751555962
 20
248.8818535364
 30
0.0
 11
49.5314046851
 21
248.8719822555
 31
0.0
  0
LINE
  5
1F3
330
1F
100
AcDbEntity
  8
0
  6
Continuous
 62
     7
370
    15
100
AcDbLine
 10
49.5873610391
 20
248.964602101
 30
0.0
 11
49.560618147
 21
248.9446230029
 31
0.0
  0
SPLINE
  5
1F4
330
1F
100
AcDbEntity
  8
0
  6
Continuous
 62
     7
370
    15
100
AcDbSpline
210
0.0
220
0.0
230
1.0
 70
     8
 71
     3
 72
     9
 73
     5
 74
     0
 42
0.00000001
 43
0.00000001
 40
0.0
 40
0.0
 40
0.0
 40
0.0
 40
0.6540850758527899
 40
0.9999999999999999
 40
0.9999999999999999
 40
0.9999999999999999
 40
0.9999999999999999
 10
49.08835832158633
 20
248.6965050332617
 30
0.0
 10
49.07855368277718
 20
248.7055165670583
 30
0.0
 10
49.0635638302777
 20
248.7192938784957
 30
0.0
 10
49.06481929055249
 20
248.735251584363
 30
0.0
 10
49.06525357299822
 20
248.7407715929777
 30
0.0
  0
SPLINE
  5
1F5
330
1F
100
AcDbEntity
  8
0
  6
Continuous
 62
     7
370
    15
100
AcDbSpline
210
0.0
220
0.0
230
1.0
 70
     8
 71
     3
 72
    10
 73
     6
 74
     0
 42
0.00000001
 43
0.00000001
 40
0.0
 40
0.0
 40
0.0
 40
0.0
 40
0.221820208221421
 40
0.5245684490328392
 40
1.0
 40
1.0
 40
1.0
 40
1.0
 10
49.18816912565153
 20
248.6679533561411
 30
0.0
 10
49.1794252135602
 20
248.6669389189288
 30
0.0
 10
49.15874729408206
 20
248.6645399411289
 30
0.0
 10
49.12043317046555
 20
248.674553728104
 30
0.0
 10
49.10052269393181
 20
248.6881800104249
 30
0.0
 10
49.08835832158632
 20
248.6965050332617
 30
0.0
  0
SPLINE
  5
1F6
330
1F
100
AcDbEntity
  8
0
  6
Continuous
 62
     7
370
    15
100
AcDbSpline
210
0.0
220
0.0
230
1.0
 70
     8
 71
     3
 72
    10
 73
     6
 74
     0
 42
0.00000001
 43
0.00000001
 40
0.0
 40
0.0
 40
0.0
 40
0.0
 40
0.4767019675346568
 40
0.952738019331362
 40
1.0
 40
1.0
 40
1.0
 40
1.0
 10
49.20640323287829
 20
248.6135181963245
 30
0.0
 10
49.2018772368497
 20
248.6181773698189
 30
0.0
 10
49.19283156725854
 20
248.6274892083029
 30
0.0
 10
49.18621633368576
 20
248.6391032333079
 30
0.0
 10
49.18859815324991
 20
248.6448929801962
 30
0.0
 10
49.18881326873519
 20
248.6454158847143
 30
0.0
  0
SPLINE
  5
1F7
330
1F
100
AcDbEntity
  8
0
  6
Continuous
 62
     7
370
    15
100
AcDbSpline
210
0.0
220
0.0
230
1.0
 70
     8
 71
     3
 72
    11
 73
     7
 74
     0
 42
0.00000001
 43
0.00000001
 40
0.0
 40
0.0
 40
0.0
 40
0.0
 40
0.279108400848708
 40
0.5588383719015518
 40
0.7792346101032509
 40
1.0
 40
1.0
 40
1.0
 40
1.0
 10
49.34797457753963
 20
248.5945585293129
 30
0.0
 10
49.33429855446447
 20
248.5905779547797
 30
0.0
 10
49.30691605201679
 20
248.5826079410335
 30
0.0
 10
49.26335104446878
 20
248.5864537054816
 30
0.0
 10
49.22857414914588
 20
248.5972099679347
 30
0.0
 10
49.2137976598183
 20
248.608079088536
 30
0.0
 10
49.20640323287829
 20
248.6135181963245
 30
0.0
  0
SPLINE
  5
1F8
330
1F
100
AcDbEntity
  8
0
  6
Continuous
 62
     7
370
    15
100
AcDbSpline
210
0.0
220
0.0
230
1.0
 70
     8
 71
     3
 72
    10
 73
     6
 74
     0
 42
0.00000001
 43
0.00000001
 40
0.0
 40
0.0
 40
0.0
 40
0.0
 40
0.2320950074076618
 40
0.6159749474136188
 40
1.0
 40
1.0
 40
1.0
 40
1.0
 10
49.38720943204358
 20
248.6402648679976
 30
0.0
 10
49.38771566712914
 20
248.6361040942093
 30
0.0
 10
49.38905920369931
 20
248.6250614938357
 30
0.0
 10
49.37525851646055
 20
248.6078755642641
 30
0.0
 10
49.35707036953041
 20
248.5989981001609
 30
0.0
 10
49.34797457753963
 20
248.5945585293129
 30
0.0
  0
LINE
  5
1F9
330
1F
100
AcDbEntity
  8
0
  6
Continuous
 62
     7
370
    15
100
AcDbLine
 10
49.3410597209
 20
248.654996092
 30
0.0
 11
49.3328209601
 21
248.6695462249
 31
0.0
  0
SPLINE
  5
1FA
330
1F
100
AcDbEntity
  8
0
  6
Continuous
 62
     7
370
    15
100
AcDbSpline
210
0.0
220
0.0
230
1.0
 70
     8
 71
     3
 72
     9
 73
     5
 74
     0
 42
0.00000001
 43
0.00000001
 40
0.0
 40
0.0
 40
0.0
 40
0.0
 40
0.6675196646694347
 40
1.0
 40
1.0
 40
1.0
 40
1.0
 10
49.26029586470688
 20
248.6822086954793
 30
0.0
 10
49.25175813811637
 20
248.6785273949016
 30
0.0
 10
49.23896791328494
 20
248.6730125003261
 30
0.0
 10
49.23507041536669
 20
248.6643067847184
 30
0.0
 10
49.23377457395188
 20
248.6614123054739
 30
0.0
  0
LINE
  5
1FB
330
1F
100
AcDbEntity
  8
0
  6
Continuous
 62
     7
370
    15
100
AcDbLine
 10
49.2658973965
 20
248.684080835
 30
0.0
 11
49.2602958647
 21
248.6822086955
 31
0.0
  0
SPLINE
  5
1FC
330
1F
100
AcDbEntity
  8
0
  6
Continuous
 62
     7
370
    15
100
AcDbSpline
210
0.0
220
0.0
230
1.0
 70
     8
 71
     3
 72
     9
 73
     5
 74
     0
 42
0.00000001
 43
0.00000001
 40
0.0
 40
0.0
 40
0.0
 40
0.0
 40
0.5230510285110894
 40
1.0
 40
1.0
 40
1.0
 40
1.0
 10
49.1335833200683
 20
248.7751689299648
 30
0.0
 10
49.12495897365275
 20
248.7704623072408
 30
0.0
 10
49.1084704363104
 20
248.7614639065735
 30
0.0
 10
49.10719346339892
 20
248.7484409210843
 30
0.0
 10
49.10658441248218
 20
248.7422296215495
 30
0.0
  0
SPLINE
  5
1FD
330
1F
100
AcDbEntity
  8
0
  6
Continuous
 62
     7
370
    15
100
AcDbSpline
210
0.0
220
0.0
230
1.0
 70
     8
 71
     3
 72
    10
 73
     6
 74
     0
 42
0.00000001
 43
0.00000001
 40
0.0
 40
0.0
 40
0.0
 40
0.0
 40
0.5596515514947482
 40
0.779817047681364
 40
1.0
 40
1.0
 40
1.0
 40
1.0
 10
49.23329058530043
 20
248.7578431301284
 30
0.0
 10
49.21761566768743
 20
248.7665821958147
 30
0.0
 10
49.19577427737416
 20
248.7787591877033
 30
0.0
 10
49.15615953464468
 20
248.7820429503686
 30
0.0
 10
49.14110892380403
 20
248.7774603306536
 30
0.0
 10
49.1335833200683
 20
248.7751689299648
 30
0.0
  0
LINE
  5
1FE
330
1F
100
AcDbEntity
  8
0
  6
Continuous
 62
     7
370
    15
100
AcDbLine
 10
49.2638926377
 20
248.7746243076
 30
0.0
 11
49.2332905853
 21
248.7578431301
 31
0.0
  0
LINE
  5
1FF
330
1F
100
AcDbEntity
  8
0
  6
Continuous
 62
     7
370
    15
100
AcDbLine
 10
49.0674434586
 20
248.533896944
 30
0.0
 11
49.0342470125
 21
248.5757307514
 31
0.0
  0
LINE
  5
200
330
1F
100
AcDbEntity
  8
0
  6
Continuous
 62
     7
370
    15
100
AcDbLine
 10
49.1041777142
 20
248.5009813282
 30
0.0
 11
49.0674434586
 21
248.533896944
 31
0.0
  0
LINE
  5
201
330
1F
100
AcDbEntity
  8
0
  6
Continuous
 62
     7
370
    15
100
AcDbLine
 10
49.1440959984
 20
248.5158563273
 30
0.0
 11
49.1041777142
 21
248.5009813282
 31
0.0
  0
LINE
  5
202
330
1F
100
AcDbEntity
  8
0
  6
Continuous
 62
     7
370
    15
100
AcDbLine
 10
49.1323033
 20
248.5580645626
 30
0.0
 11
49.098399292
 21
248.5995579811
 31
0.0
  0
LINE
  5
203
330
1F
100
AcDbEntity
  8
0
  6
Continuous
 62
     7
370
    15
100
AcDbLine
 10
49.1690375556
 20
248.5251489468
 30
0.0
 11
49.1323033
 21
248.5580645626
 31
0.0
  0
LINE
  5
204
330
1F
100
AcDbEntity
  8
0
  6
Continuous
 62
     7
370
    15
100
AcDbLine
 10
49.2089558398
 20
248.5399558681
 30
0.0
 11
49.1690375556
 21
248.5251489468
 31
0.0
  0
ARC
  5
205
330
1F
100
AcDbEntity
  8
0
  6
Continuous
 62
     7
370
    15
100
AcDbCircle
 10
29.7922094659
 20
252.4352209996
 30
0.0
 40
1.731483451323316
100
AcDbArc
 50
88.8559032542
 51
118.0402391154
  0
LINE
  5
206
330
1F
100
AcDbEntity
  8
0
  6
Continuous
 62
     7
370
    15
100
AcDbLine
 10
35.6095134405
 20
254.1663592642
 30
0.0
 11
29.8267818717
 21
254.1663592642
 31
0.0
  0
ARC
  5
207
330
1F
100
AcDbEntity
  8
0
  6
Continuous
 62
     7
370
    15
100
AcDbCircle
 10
35.6783005461
 20
252.6229147005
 30
0.0
 40
1.544976629866841
100
AcDbArc
 50
52.6134931249
 51
92.551827671
  0
LWPOLYLINE
  5
208
330
1F
100
AcDbEntity
  8
0
  6
Continuous
 62
     7
370
    15
100
AcDbPolyline
 90
       46
 70
   128
 43
0.0
 10
36.2013892404
 20
253.4168074982
 10
36.114821459
 20
253.0139558045
 10
36.0861623343
 20
252.6083535153
 10
36.1156075443
 20
252.2027699908
 10
36.2029560439
 20
251.7999744632
 10
36.3476114373
 20
251.4027171285
 10
36.5485860505
 20
251.0137103695
 10
36.8045076744
 20
250.6356102358
 10
37.1136289345
 20
250.2709983091
 10
37.4738392212
 20
249.9223640768
 10
37.8826791005
 20
249.5920879339
 10
38.3373571069
 20
249.2824249309
 10
38.8347688022
 20
248.9954893764
 10
39.3715179726
 20
248.7332404009
 10
39.943939817
 20
248.4974685808
 10
40.5481259691
 20
248.2897837125
 10
41.1799511834
 20
248.111603821
 10
41.8351015012
 20
247.964145478
 10
42.509103705
 20
247.8484154956
 10
43.1973558612
 20
247.7652040518
 10
43.8951587406
 20
247.7150792953
 10
44.597747904
 20
247.6983834667
 10
45.3003262324
 20
247.7152305612
 10
45.9980966808
 20
247.7655055506
 10
46.6862950314
 20
247.8488651689
 10
47.3602224224
 20
247.9647402554
 10
48.0152774309
 20
248.1123396416
 10
48.6469874903
 20
248.2906555522
 10
49.2510394281
 20
248.498470487
 10
49.8233089151
 20
248.7343655327
 10
50.3598886254
 20
248.9967300517
 10
50.8571149149
 20
249.2837726787
 10
51.3115928355
 20
249.593533552
 10
51.7202193155
 20
249.9238976949
 10
52.0802043461
 20
250.272609456
 10
52.3890900316
 20
250.6372879109
 10
52.6447673707
 20
251.0154431181
 10
52.8454906567
 20
251.4044931197
 10
52.9898893968
 20
251.801781571
 10
53.0769776691
 20
252.2045958767
 10
53.1061608547
 20
252.6101857125
 10
53.0772396975
 20
253.0157818031
 10
52.9904116646
 20
253.4186148309
 10
52.8462695981
 20
253.8159343435
 10
52.6457976671
 20
254.2050275337
 10
52.5263929573
 20
254.3933715005
  0
LWPOLYLINE
  5
209
330
1F
100
AcDbEntity
  8
0
  6
Continuous
 62
     7
370
    15
100
AcDbPolyline
 90
        9
 70
   128
 43
0.0
 10
35.6095134405
 20
253.8199866369
 10
35.73866066
 20
253.8118676623
 10
35.8617534578
 20
253.7878913561
 10
35.9730212432
 20
253.7491817275
 10
36.0672477824
 20
253.697553484
 10
36.1400157352
 20
253.6354269576
 10
36.1879137397
 20
253.56571464
 10
36.2086963375
 20
253.4916846448
 10
36.2013892404
 20
253.4168074982
  0
LINE
  5
20A
330
1F
100
AcDbEntity
  8
0
  6
Continuous
 62
     7
370
    15
100
AcDbLine
 10
29.8267818717
 20
253.8199866369
 30
0.0
 11
35.6095134405
 21
253.8199866369
 31
0.0
  0
ARC
  5
20B
330
1F
100
AcDbEntity
  8
0
  6
Continuous
 62
     7
370
    15
100
AcDbCircle
 10
29.8094956688
 20
252.9544175046
 30
0.0
 40
0.8657417256618716
100
AcDbArc
 50
88.8559032542
 51
118.0402391154
  0
LINE
  5
20C
330
1F
100
AcDbEntity
  8
0
  6
Continuous
 62
     7
370
    15
100
AcDbLine
 10
27.7175221357
 20
252.7458091496
 30
0.0
 11
29.402517803
 21
253.7185364432
 31
0.0
  0
LINE
  5
20D
330
1F
100
AcDbEntity
  8
0
  6
Continuous
 62
     7
370
    15
100
AcDbLine
 10
28.9782537343
 20
253.9634588767
 30
0.0
 11
27.293258067
 21
252.9907315831
 31
0.0
  0
LINE
  5
20E
330
1F
100
AcDbEntity
  8
0
  6
Continuous
 62
     7
370
    15
100
AcDbLine
 10
49.9976455705
 20
249.077949886
 30
0.0
 11
49.8986001755
 21
249.1441704124
 31
0.0
  0
LINE
  5
20F
330
1F
100
AcDbEntity
  8
0
  6
Continuous
 62
     7
370
    15
100
AcDbLine
 10
49.8245420294
 20
249.0214261408
 30
0.0
 11
49.7060843737
 21
249.0482828325
 31
0.0
  0
SPLINE
  5
210
330
1F
100
AcDbEntity
  8
0
  6
Continuous
 62
     7
370
    15
100
AcDbSpline
210
0.0
220
0.0
230
1.0
 70
     8
 71
     3
 72
     9
 73
     5
 74
     0
 42
0.00000001
 43
0.00000001
 40
0.0
 40
0.0
 40
0.0
 40
0.0
 40
0.5599379039850115
 40
1.0
 40
1.0
 40
1.0
 40
1.0
 10
49.88574613424488
 20
249.011691015587
 30
0.0
 10
49.87406294686348
 20
249.0129778491982
 30
0.0
 10
49.85319779860641
 20
249.0152760211957
 30
0.0
 10
49.83329881696076
 20
249.019546753451
 30
0.0
 10
49.82454202938921
 20
249.0214261408388
 30
0.0
  0
LINE
  5
211
330
1F
100
AcDbEntity
  8
0
  6
Continuous
 62
     7
370
    15
100
AcDbLine
 10
49.8989425835
 20
249.0113209854
 30
0.0
 11
49.8857461342
 21
249.0116910156
 31
0.0
  0
SPLINE
  5
212
330
1F
100
AcDbEntity
  8
0
  6
Continuous
 62
     7
370
    15
100
AcDbSpline
210
0.0
220
0.0
230
1.0
 70
     8
 71
     3
 72
     9
 73
     5
 74
     0
 42
0.00000001
 43
0.00000001
 40
0.0
 40
0.0
 40
0.0
 40
0.0
 40
0.5537933701966037
 40
0.9999999999999999
 40
0.9999999999999999
 40
0.9999999999999999
 40
0.9999999999999999
 10
49.92401344065272
 20
248.927240505972
 30
0.0
 10
49.91436095232131
 20
248.9343173622819
 30
0.0
 10
49.89693118726654
 20
248.9470962373836
 30
0.0
 10
49.89531179922447
 20
248.9632293816605
 30
0.0
 10
49.89458921754388
 20
248.9704280975964
 30
0.0
  0
SPLINE
  5
213
330
1F
100
AcDbEntity
  8
0
  6
Continuous
 62
     7
370
    15
100
AcDbSpline
210
0.0
220
0.0
230
1.0
 70
     8
 71
     3
 72
    11
 73
     7
 74
     0
 42
0.00000001
 43
0.00000001
 40
0.0
 40
0.0
 40
0.0
 40
0.0
 40
0.2814542485617944
 40
0.5583043622291881
 40
0.7789716935653331
 40
1.0
 40
1.0
 40
1.0
 40
1.0
 10
50.08905225519128
 20
248.9235983437274
 30
0.0
 10
50.07542265844684
 20
248.9168526496403
 30
0.0
 10
50.04838642304895
 20
248.9034716100777
 30
0.0
 10
49.99646214089631
 20
248.8994923278007
 30
0.0
 10
49.95358218976391
 20
248.9101142991596
 30
0.0
 10
49.93387505889751
 20
248.9215286609112
 30
0.0
 10
49.92401344065272
 20
248.927240505972
 30
0.0
  0
LINE
  5
214
330
1F
100
AcDbEntity
  8
0
  6
Continuous
 62
     7
370
    15
100
AcDbLine
 10
50.2029107585
 20
248.9803411892
 30
0.0
 11
50.0890522552
 21
248.9235983437
 31
0.0
  0
LINE
  5
215
330
1F
100
AcDbEntity
  8
0
  6
Continuous
 62
     7
370
    15
100
AcDbLine
 10
50.3771794345
 20
249.2652214562
 30
0.0
 11
50.253356101
 21
249.3364308339
 31
0.0
  0
LINE
  5
216
330
1F
100
AcDbEntity
  8
0
  6
Continuous
 62
     7
370
    15
100
AcDbLine
 10
50.4502352013
 20
249.1131016144
 30
0.0
 11
50.3771794345
 21
249.2652214562
 31
0.0
  0
LINE
  5
217
330
1F
100
AcDbEntity
  8
0
  6
Continuous
 62
     7
370
    15
100
AcDbLine
 10
50.4869694569
 20
249.1343759266
 30
0.0
 11
50.4502352013
 21
249.1131016144
 31
0.0
  0
SPLINE
  5
218
330
1F
100
AcDbEntity
  8
0
  6
Continuous
 62
     7
370
    15
100
AcDbSpline
210
0.0
220
0.0
230
1.0
 70
     8
 71
     3
 72
     9
 73
     5
 74
     0
 42
0.00000001
 43
0.00000001
 40
0.0
 40
0.0
 40
0.0
 40
0.0
 40
0.7221527062777939
 40
1.0
 40
1.0
 40
1.0
 40
1.0
 10
50.49563709025355
 20
249.2410878764456
 30
0.0
 10
50.48171283949217
 20
249.2435356190087
 30
0.0
 10
50.46243125176103
 20
249.2469251272688
 30
0.0
 10
50.44349502746405
 20
249.2509038441547
 30
0.0
 10
50.43823364878981
 20
249.252009319874
 30
0.0
  0
LINE
  5
219
330
1F
100
AcDbEntity
  8
0
  6
Continuous
 62
     7
370
    15
100
AcDbLine
 10
50.6306045238
 20
249.2175669969
 30
0.0
 11
50.4956370903
 21
249.2410878764
 31
0.0
  0
LINE
  5
21A
330
1F
100
AcDbEntity
  8
0
  6
Continuous
 62
     7
370
    15
100
AcDbLine
 10
50.6691666477
 20
249.239896515
 30
0.0
 11
50.6306045238
 21
249.2175669969
 31
0.0
  0
LINE
  5
21B
330
1F
100
AcDbEntity
  8
0
  6
Continuous
 62
     7
370
    15
100
AcDbLine
 10
50.4304716178
 20
249.4000194618
 30
0.0
 11
50.3946218146
 21
249.4190812455
 31
0.0
  0
LINE
  5
21C
330
1F
100
AcDbEntity
  8
0
  6
Continuous
 62
     7
370
    15
100
AcDbLine
 10
50.5713943641
 20
249.4881802114
 30
0.0
 11
50.4304716178
 21
249.4000194618
 31
0.0
  0
LINE
  5
21D
330
1F
100
AcDbEntity
  8
0
  6
Continuous
 62
     7
370
    15
100
AcDbLine
 10
50.6534971844
 20
249.4444104415
 30
0.0
 11
50.5713943641
 21
249.4881802114
 31
0.0
  0
LINE
  5
21E
330
1F
100
AcDbEntity
  8
0
  6
Continuous
 62
     7
370
    15
100
AcDbLine
 10
50.5833049895
 20
249.3347328526
 30
0.0
 11
50.5476320767
 21
249.3536925196
 31
0.0
  0
LINE
  5
21F
330
1F
100
AcDbEntity
  8
0
  6
Continuous
 62
     7
370
    15
100
AcDbLine
 10
50.7103123516
 20
249.414179644
 30
0.0
 11
50.5833049895
 21
249.3347328526
 31
0.0
  0
LINE
  5
220
330
1F
100
AcDbEntity
  8
0
  6
Continuous
 62
     7
370
    15
100
AcDbLine
 10
50.7820863308
 20
249.3759528803
 30
0.0
 11
50.7103123516
 21
249.414179644
 31
0.0
  0
LINE
  5
221
330
1F
100
AcDbEntity
  8
0
  6
Continuous
 62
     7
370
    15
100
AcDbLine
 10
50.703413623
 20
249.260766324
 30
0.0
 11
50.6676227832
 21
249.2798621466
 31
0.0
  0
LINE
  5
222
330
1F
100
AcDbEntity
  8
0
  6
Continuous
 62
     7
370
    15
100
AcDbLine
 10
50.8693958534
 20
249.3646190063
 30
0.0
 11
50.703413623
 21
249.260766324
 31
0.0
  0
LINE
  5
223
330
1F
100
AcDbEntity
  8
0
  6
Continuous
 62
     7
370
    15
100
AcDbLine
 10
50.6384822706
 20
249.5304940524
 30
0.0
 11
50.601394234
 21
249.5488410192
 31
0.0
  0
LINE
  5
224
330
1F
100
AcDbEntity
  8
0
  6
Continuous
 62
     7
370
    15
100
AcDbLine
 10
50.7472109501
 20
249.603745764
 30
0.0
 11
50.6384822706
 21
249.5304940524
 31
0.0
  0
LINE
  5
225
330
1F
100
AcDbEntity
  8
0
  6
Continuous
 62
     7
370
    15
100
AcDbLine
 10
51.0243393633
 20
249.4666370769
 30
0.0
 11
50.7472109501
 21
249.603745764
 31
0.0
  0
LINE
  5
226
330
1F
100
AcDbEntity
  8
0
  6
Continuous
 62
     7
370
    15
100
AcDbLine
 10
51.0535852554
 20
249.4863115608
 30
0.0
 11
51.0243393633
 21
249.4666370769
 31
0.0
  0
LINE
  5
227
330
1F
100
AcDbEntity
  8
0
  6
Continuous
 62
     7
370
    15
100
AcDbLine
 10
51.1955040234
 20
249.8878853033
 30
0.0
 11
51.131959019
 21
249.9359611839
 31
0.0
  0
LINE
  5
228
330
1F
100
AcDbEntity
  8
0
  6
Continuous
 62
     7
370
    15
100
AcDbLine
 10
51.3891577718
 20
249.73411051
 30
0.0
 11
50.9729934441
 21
249.8100853336
 31
0.0
  0
LINE
  5
229
330
1F
100
AcDbEntity
  8
0
  6
Continuous
 62
     7
370
    15
100
AcDbLine
 10
51.417578175
 20
249.7566442615
 30
0.0
 11
51.3891577718
 21
249.73411051
 31
0.0
  0
LINE
  5
22A
330
1F
100
AcDbEntity
  8
0
  6
Continuous
 62
     7
370
    15
100
AcDbLine
 10
51.502486924
 20
250.0456497836
 30
0.0
 11
51.3347213098
 21
250.1100143176
 31
0.0
  0
LINE
  5
22B
330
1F
100
AcDbEntity
  8
0
  6
Continuous
 62
     7
370
    15
100
AcDbLine
 10
51.4078836296
 20
249.9421838235
 30
0.0
 11
51.2581277335
 21
250.0435363469
 31
0.0
  0
LINE
  5
22C
330
1F
100
AcDbEntity
  8
0
  6
Continuous
 62
     7
370
    15
100
AcDbLine
 10
51.5237582656
 20
249.843353579
 30
0.0
 11
51.1797062889
 21
249.9753223923
 31
0.0
  0
LINE
  5
22D
330
1F
100
AcDbEntity
  8
0
  6
Continuous
 62
     7
370
    15
100
AcDbLine
 10
51.5571316022
 20
249.8723547214
 30
0.0
 11
51.5237582656
 21
249.843353579
 31
0.0
  0
LINE
  5
22E
330
1F
100
AcDbEntity
  8
0
  6
Continuous
 62
     7
370
    15
100
AcDbLine
 10
51.3772929511
 20
250.0212408677
 30
0.0
 11
51.3701713346
 21
250.0226437106
 31
0.0
  0
LINE
  5
22F
330
1F
100
AcDbEntity
  8
0
  6
Continuous
 62
     7
370
    15
100
AcDbLine
 10
51.6653296103
 20
249.9664042007
 30
0.0
 11
51.3772929511
 21
250.0212408677
 31
0.0
  0
LINE
  5
230
330
1F
100
AcDbEntity
  8
0
  6
Continuous
 62
     7
370
    15
100
AcDbLine
 10
51.7025945373
 20
249.998809233
 30
0.0
 11
51.6653296103
 21
249.9664042007
 31
0.0
  0
LWPOLYLINE
  5
231
330
1F
100
AcDbEntity
  8
0
  6
Continuous
 62
     7
370
    15
100
AcDbPolyline
 90
       41
 70
   128
 43
0.0
 10
36.0861610027
 20
248.9693297901
 10
36.0861623343
 20
248.9665814943
 10
36.1156075443
 20
248.5609979698
 10
36.2029560439
 20
248.1582024422
 10
36.3476114373
 20
247.7609451075
 10
36.5485860505
 20
247.3719383485
 10
36.8045076744
 20
246.9938382148
 10
37.1136289345
 20
246.6292262881
 10
37.4738392212
 20
246.2805920558
 10
37.8826791005
 20
245.9503159129
 10
38.3373571069
 20
245.6406529099
 10
38.8347688022
 20
245.3537173553
 10
39.3715179726
 20
245.0914683798
 10
39.943939817
 20
244.8556965598
 10
40.5481259691
 20
244.6480116915
 10
41.1799511834
 20
244.4698318
 10
41.8351015012
 20
244.322373457
 10
42.509103705
 20
244.2066434746
 10
43.1973558612
 20
244.1234320308
 10
43.8951587406
 20
244.0733072743
 10
44.597747904
 20
244.0566114457
 10
45.3003262324
 20
244.0734585402
 10
45.9980966808
 20
244.1237335296
 10
46.6862950314
 20
244.2070931479
 10
47.3602224224
 20
244.3229682344
 10
48.0152774309
 20
244.4705676206
 10
48.6469874903
 20
244.6488835312
 10
49.2510394281
 20
244.856698466
 10
49.8233089151
 20
245.0925935117
 10
50.3598886254
 20
245.3549580307
 10
50.8571149149
 20
245.6420006577
 10
51.3115928355
 20
245.951761531
 10
51.7202193155
 20
246.2821256739
 10
52.0802043461
 20
246.630837435
 10
52.3890900316
 20
246.9955158899
 10
52.6447673707
 20
247.373671097
 10
52.8454906567
 20
247.7627210987
 10
52.9898893968
 20
248.16000955
 10
53.0769776691
 20
248.5628238557
 10
53.1061608547
 20
248.9684136915
 10
53.1061610027
 20
248.9693297901
  0
LINE
  5
232
330
1F
100
AcDbEntity
  8
0
  6
Continuous
 62
     7
370
    15
100
AcDbLine
 10
49.0554149062
 20
248.6080899616
 30
0.0
 11
49.1073617428
 21
248.5732681674
 31
0.0
  0
LINE
  5
233
330
1F
100
AcDbEntity
  8
0
  6
Continuous
 62
     7
370
    15
100
AcDbLine
 10
49.1073617428
 20
248.5732681674
 30
0.0
 11
49.1440959984
 21
248.5403525516
 31
0.0
  0
LINE
  5
234
330
1F
100
AcDbEntity
  8
0
  6
Continuous
 62
     7
370
    15
100
AcDbLine
 10
49.1440959984
 20
248.5403525516
 30
0.0
 11
49.1041777142
 21
248.5254775525
 31
0.0
  0
LINE
  5
235
330
1F
100
AcDbEntity
  8
0
  6
Continuous
 62
     7
370
    15
100
AcDbLine
 10
49.1041777142
 20
248.5254775525
 30
0.0
 11
49.0674434586
 21
248.5583931683
 31
0.0
  0
LINE
  5
236
330
1F
100
AcDbEntity
  8
0
  6
Continuous
 62
     7
370
    15
100
AcDbLine
 10
49.0674434586
 20
248.5583931683
 30
0.0
 11
49.0342470125
 21
248.6002269758
 31
0.0
  0
LINE
  5
237
330
1F
100
AcDbEntity
  8
0
  6
Continuous
 62
     7
370
    15
100
AcDbLine
 10
49.0342470125
 20
248.6002269758
 30
0.0
 11
49.0554149062
 21
248.6080899616
 31
0.0
  0
LINE
  5
238
330
1F
100
AcDbEntity
  8
0
  6
Continuous
 62
     7
370
    15
100
AcDbLine
 10
49.1041777142
 20
248.5254775525
 30
0.0
 11
49.1041777142
 21
248.5009813282
 31
0.0
  0
LINE
  5
239
330
1F
100
AcDbEntity
  8
0
  6
Continuous
 62
     7
370
    15
100
AcDbLine
 10
49.1440959984
 20
248.5403525516
 30
0.0
 11
49.1440959984
 21
248.5158563273
 31
0.0
  0
LINE
  5
23A
330
1F
100
AcDbEntity
  8
0
  6
Continuous
 62
     7
370
    15
100
AcDbLine
 10
49.0674434586
 20
248.5583931683
 30
0.0
 11
49.0674434586
 21
248.533896944
 31
0.0
  0
LINE
  5
23B
330
1F
100
AcDbEntity
  8
0
  6
Continuous
 62
     7
370
    15
100
AcDbLine
 10
49.1690375556
 20
248.5496451712
 30
0.0
 11
49.1690375556
 21
248.5251489468
 31
0.0
  0
LINE
  5
23C
330
1F
100
AcDbEntity
  8
0
  6
Continuous
 62
     7
370
    15
100
AcDbLine
 10
49.2089558398
 20
248.5644520924
 30
0.0
 11
49.1690375556
 21
248.5496451712
 31
0.0
  0
LINE
  5
23D
330
1F
100
AcDbEntity
  8
0
  6
Continuous
 62
     7
370
    15
100
AcDbLine
 10
49.2089558398
 20
248.5644520924
 30
0.0
 11
49.2089558398
 21
248.5399558681
 31
0.0
  0
LINE
  5
23E
330
1F
100
AcDbEntity
  8
0
  6
Continuous
 62
     7
370
    15
100
AcDbLine
 10
49.1197440761
 20
248.6320193079
 30
0.0
 11
49.1722215841
 21
248.5973677082
 31
0.0
  0
LINE
  5
23F
330
1F
100
AcDbEntity
  8
0
  6
Continuous
 62
     7
370
    15
100
AcDbLine
 10
49.1722215841
 20
248.5973677082
 30
0.0
 11
49.2089558398
 21
248.5644520924
 31
0.0
  0
LINE
  5
240
330
1F
100
AcDbEntity
  8
0
  6
Continuous
 62
     7
370
    15
100
AcDbLine
 10
49.1690375556
 20
248.5496451712
 30
0.0
 11
49.1323033
 21
248.582560787
 31
0.0
  0
LINE
  5
241
330
1F
100
AcDbEntity
  8
0
  6
Continuous
 62
     7
370
    15
100
AcDbLine
 10
49.1323033
 20
248.582560787
 30
0.0
 11
49.098399292
 21
248.6240542054
 31
0.0
  0
LINE
  5
242
330
1F
100
AcDbEntity
  8
0
  6
Continuous
 62
     7
370
    15
100
AcDbLine
 10
49.098399292
 20
248.6240542054
 30
0.0
 11
49.1197440761
 21
248.6320193079
 31
0.0
  0
LINE
  5
243
330
1F
100
AcDbEntity
  8
0
  6
Continuous
 62
     7
370
    15
100
AcDbLine
 10
49.1323033
 20
248.582560787
 30
0.0
 11
49.1323033
 21
248.5580645626
 31
0.0
  0
LINE
  5
244
330
1F
100
AcDbEntity
  8
0
  6
Continuous
 62
     7
370
    15
100
AcDbLine
 10
49.0342470125
 20
248.6002269758
 30
0.0
 11
49.0342470125
 21
248.5757307514
 31
0.0
  0
LINE
  5
245
330
1F
100
AcDbEntity
  8
0
  6
Continuous
 62
     7
370
    15
100
AcDbLine
 10
49.098399292
 20
248.6240542054
 30
0.0
 11
49.098399292
 21
248.5995579811
 31
0.0
  0
LINE
  5
246
330
1F
100
AcDbEntity
  8
0
  6
Continuous
 62
     7
370
    15
100
AcDbLine
 10
49.2638926377
 20
248.7991205319
 30
0.0
 11
49.2332905853
 21
248.7823393545
 31
0.0
  0
SPLINE
  5
247
330
1F
100
AcDbEntity
  8
0
  6
Continuous
 62
     7
370
    15
100
AcDbSpline
210
0.0
220
0.0
230
1.0
 70
     8
 71
     3
 72
    10
 73
     6
 74
     0
 42
0.00000001
 43
0.00000001
 40
0.0
 40
0.0
 40
0.0
 40
0.0
 40
0.5596515514947482
 40
0.779817047681364
 40
1.0
 40
1.0
 40
1.0
 40
1.0
 10
49.23329058530043
 20
248.7823393544849
 30
0.0
 10
49.21761566768743
 20
248.7910784201713
 30
0.0
 10
49.19577427737416
 20
248.8032554120599
 30
0.0
 10
49.15615953464468
 20
248.8065391747252
 30
0.0
 10
49.14110892380403
 20
248.8019565550102
 30
0.0
 10
49.1335833200683
 20
248.7996651543213
 30
0.0
  0
SPLINE
  5
248
330
1F
100
AcDbEntity
  8
0
  6
Continuous
 62
     7
370
    15
100
AcDbSpline
210
0.0
220
0.0
230
1.0
 70
     8
 71
     3
 72
    11
 73
     7
 74
     0
 42
0.00000001
 43
0.00000001
 40
0.0
 40
0.0
 40
0.0
 40
0.0
 40
0.278186819011809
 40
0.5580519586625814
 40
0.7787909937219516
 40
1.0
 40
1.0
 40
1.0
 40
1.0
 10
49.1335833200683
 20
248.7996651543213
 30
0.0
 10
49.12520084009642
 20
248.7949606877239
 30
0.0
 10
49.10838530806157
 20
248.7855233721511
 30
0.0
 10
49.10421480800505
 20
248.7661333120338
 30
0.0
 10
49.11022284284947
 20
248.7492448172433
 30
0.0
 10
49.11966094562572
 20
248.7402448633524
 30
0.0
 10
49.12438501529231
 20
248.735740101094
 30
0.0
  0
SPLINE
  5
249
330
1F
100
AcDbEntity
  8
0
  6
Continuous
 62
     7
370
    15
100
AcDbSpline
210
0.0
220
0.0
230
1.0
 70
     8
 71
     3
 72
    11
 73
     7
 74
     0
 42
0.00000001
 43
0.00000001
 40
0.0
 40
0.0
 40
0.0
 40
0.0
 40
0.280705422659637
 40
0.5603250732887347
 40
0.7802301841561058
 40
1.0
 40
1.0
 40
1.0
 40
1.0
 10
49.12438501529231
 20
248.735740101094
 30
0.0
 10
49.1311071121424
 20
248.7307903027446
 30
0.0
 10
49.1445253046892
 20
248.7209098519267
 30
0.0
 10
49.17250422323195
 20
248.7132550886929
 30
0.0
 10
49.20114401776738
 20
248.712177692769
 30
0.0
 10
49.2163264899178
 20
248.7168124517508
 30
0.0
 10
49.22391539004798
 20
248.7191291181468
 30
0.0
  0
SPLINE
  5
24A
330
1F
100
AcDbEntity
  8
0
  6
Continuous
 62
     7
370
    15
100
AcDbSpline
210
0.0
220
0.0
230
1.0
 70
     8
 71
     3
 72
     9
 73
     5
 74
     0
 42
0.00000001
 43
0.00000001
 40
0.0
 40
0.0
 40
0.0
 40
0.0
 40
0.5596097808344767
 40
0.9999999999999999
 40
0.9999999999999999
 40
0.9999999999999999
 40
0.9999999999999999
 10
49.22391539004797
 20
248.7191291181468
 30
0.0
 10
49.22823955485091
 20
248.721171653584
 30
0.0
 10
49.23596666211569
 20
248.7248215816359
 30
0.0
 10
49.24217312687788
 20
248.7293297089746
 30
0.0
 10
49.24490639325474
 20
248.7313150441614
 30
0.0
  0
LINE
  5
24B
330
1F
100
AcDbEntity
  8
0
  6
Continuous
 62
     7
370
    15
100
AcDbLine
 10
49.2449063933
 20
248.7313150442
 30
0.0
 11
49.2658973965
 21
248.7085770593
 31
0.0
  0
LINE
  5
24C
330
1F
100
AcDbEntity
  8
0
  6
Continuous
 62
     7
370
    15
100
AcDbLine
 10
49.2658973965
 20
248.7085770593
 30
0.0
 11
49.2602958647
 21
248.7067049198
 31
0.0
  0
SPLINE
  5
24D
330
1F
100
AcDbEntity
  8
0
  6
Continuous
 62
     7
370
    15
100
AcDbSpline
210
0.0
220
0.0
230
1.0
 70
     8
 71
     3
 72
    11
 73
     7
 74
     0
 42
0.00000001
 43
0.00000001
 40
0.0
 40
0.0
 40
0.0
 40
0.0
 40
0.280046871633694
 40
0.5591600877951991
 40
0.7792922208025425
 40
1.0
 40
1.0
 40
1.0
 40
1.0
 10
49.26029586470688
 20
248.7067049198358
 30
0.0
 10
49.25229949610254
 20
248.7029008076365
 30
0.0
 10
49.23633341819292
 20
248.6953052658653
 30
0.0
 10
49.22707412260225
 20
248.6788669591099
 30
0.0
 10
49.23017339778098
 20
248.6634341533798
 30
0.0
 10
49.23834086197412
 20
248.655363984039
 30
0.0
 10
49.24242992658428
 20
248.6513236303785
 30
0.0
  0
SPLINE
  5
24E
330
1F
100
AcDbEntity
  8
0
  6
Continuous
 62
     7
370
    15
100
AcDbSpline
210
0.0
220
0.0
230
1.0
 70
     8
 71
     3
 72
    11
 73
     7
 74
     0
 42
0.00000001
 43
0.00000001
 40
0.0
 40
0.0
 40
0.0
 40
0.0
 40
0.2803728994860843
 40
0.55978833367608
 40
0.7799462034863978
 40
1.0
 40
1.0
 40
1.0
 40
1.0
 10
49.24242992658428
 20
248.6513236303785
 30
0.0
 10
49.24793641964378
 20
248.6472903656484
 30
0.0
 10
49.25893060124916
 20
248.6392376096698
 30
0.0
 10
49.28221333533657
 20
248.6334718889939
 30
0.0
 10
49.30553655780413
 20
248.6329744697465
 30
0.0
 10
49.31787009103504
 20
248.636811283991
 30
0.0
 10
49.32403539972518
 20
248.6387292375702
 30
0.0
  0
SPLINE
  5
24F
330
1F
100
AcDbEntity
  8
0
  6
Continuous
 62
     7
370
    15
100
AcDbSpline
210
0.0
220
0.0
230
1.0
 70
     8
 71
     3
 72
    10
 73
     6
 74
     0
 42
0.00000001
 43
0.00000001
 40
0.0
 40
0.0
 40
0.0
 40
0.0
 40
0.2788648247684111
 40
0.5587109868685428
 40
1.0
 40
1.0
 40
1.0
 40
1.0
 10
49.32403539972518
 20
248.6387292375702
 30
0.0
 10
49.33138119112514
 20
248.6427132987066
 30
0.0
 10
49.34609862408145
 20
248.6506954410622
 30
0.0
 10
49.3498742890629
 20
248.6723666607424
 30
0.0
 10
49.33929488481039
 20
248.6858137084593
 30
0.0
 10
49.3328209600561
 20
248.6940424492285
 30
0.0
  0
LINE
  5
250
330
1F
100
AcDbEntity
  8
0
  6
Continuous
 62
     7
370
    15
100
AcDbLine
 10
49.3328209601
 20
248.6940424492
 30
0.0
 11
49.3720316823
 21
248.7031989132
 31
0.0
  0
SPLINE
  5
251
330
1F
100
AcDbEntity
  8
0
  6
Continuous
 62
     7
370
    15
100
AcDbSpline
210
0.0
220
0.0
230
1.0
 70
     8
 71
     3
 72
    11
 73
     7
 74
     0
 42
0.00000001
 43
0.00000001
 40
0.0
 40
0.0
 40
0.0
 40
0.0
 40
0.2807454804669418
 40
0.5602140747030383
 40
0.7800654837276532
 40
1.0
 40
1.0
 40
1.0
 40
1.0
 10
49.3720316823384
 20
248.7031989131892
 30
0.0
 10
49.37799426297278
 20
248.6951009910379
 30
0.0
 10
49.38989230524002
 20
248.6789419776943
 30
0.0
 10
49.39069414892555
 20
248.6539248243576
 30
0.0
 10
49.37568467640539
 20
248.6323786336792
 30
0.0
 10
49.35721244074031
 20
248.6234966064911
 30
0.0
 10
49.34797457753963
 20
248.6190547536695
 30
0.0
  0
SPLINE
  5
252
330
1F
100
AcDbEntity
  8
0
  6
Continuous
 62
     7
370
    15
100
AcDbSpline
210
0.0
220
0.0
230
1.0
 70
     8
 71
     3
 72
    11
 73
     7
 74
     0
 42
0.00000001
 43
0.00000001
 40
0.0
 40
0.0
 40
0.0
 40
0.0
 40
0.279108400848708
 40
0.5588383719015518
 40
0.7792346101032509
 40
1.0
 40
1.0
 40
1.0
 40
1.0
 10
49.34797457753963
 20
248.6190547536695
 30
0.0
 10
49.33429855446447
 20
248.6150741791362
 30
0.0
 10
49.30691605201679
 20
248.6071041653901
 30
0.0
 10
49.26335104446878
 20
248.6109499298382
 30
0.0
 10
49.22857414914588
 20
248.6217061922912
 30
0.0
 10
49.2137976598183
 20
248.6325753128925
 30
0.0
 10
49.20640323287829
 20
248.638014420681
 30
0.0
  0
SPLINE
  5
253
330
1F
100
AcDbEntity
  8
0
  6
Continuous
 62
     7
370
    15
100
AcDbSpline
210
0.0
220
0.0
230
1.0
 70
     8
 71
     3
 72
    10
 73
     6
 74
     0
 42
0.00000001
 43
0.00000001
 40
0.0
 40
0.0
 40
0.0
 40
0.0
 40
0.2810389155504449
 40
0.5616852414965093
 40
1.0
 40
1.0
 40
1.0
 40
1.0
 10
49.20640323287829
 20
248.638014420681
 30
0.0
 10
49.20163488051192
 20
248.6426855324771
 30
0.0
 10
49.19210483679824
 20
248.6520212308878
 30
0.0
 10
49.18519216840046
 20
248.6715088775798
 30
0.0
 10
49.19291155007657
 20
248.6848946701935
 30
0.0
 10
49.19761767254737
 20
248.6930553211435
 30
0.0
  0
SPLINE
  5
254
330
1F
100
AcDbEntity
  8
0
  6
Continuous
 62
     7
370
    15
100
AcDbSpline
210
0.0
220
0.0
230
1.0
 70
     8
 71
     3
 72
    10
 73
     6
 74
     0
 42
0.00000001
 43
0.00000001
 40
0.0
 40
0.0
 40
0.0
 40
0.0
 40
0.2796068865063281
 40
0.5598734137369997
 40
0.9999999999999999
 40
0.9999999999999999
 40
0.9999999999999999
 40
0.9999999999999999
 10
49.19761767254737
 20
248.6930553211435
 30
0.0
 10
49.1857036735956
 20
248.6915673599312
 30
0.0
 10
49.16184756851991
 20
248.6885879271503
 30
0.0
 10
49.12042182258502
 20
248.698900121693
 30
0.0
 10
49.1005183902531
 20
248.7126194115287
 30
0.0
 10
49.08835832158632
 20
248.7210012576183
 30
0.0
  0
SPLINE
  5
255
330
1F
100
AcDbEntity
  8
0
  6
Continuous
 62
     7
370
    15
100
AcDbSpline
210
0.0
220
0.0
230
1.0
 70
     8
 71
     3
 72
    11
 73
     7
 74
     0
 42
0.00000001
 43
0.00000001
 40
0.0
 40
0.0
 40
0.0
 40
0.0
 40
0.2803577134121178
 40
0.5599242324013122
 40
0.7800618593613947
 40
1.0
 40
1.0
 40
1.0
 40
1.0
 10
49.08835832158632
 20
248.7210012576183
 30
0.0
 10
49.07938999514827
 20
248.7300546894874
 30
0.0
 10
49.06147865168769
 20
248.7481360036348
 30
0.0
 10
49.0612049820013
 20
248.7778112892569
 30
0.0
 10
49.07706449062329
 20
248.8034828268261
 30
0.0
 10
49.09866959592371
 20
248.8141237200611
 30
0.0
 10
49.1094672517774
 20
248.8194417549204
 30
0.0
  0
SPLINE
  5
256
330
1F
100
AcDbEntity
  8
0
  6
Continuous
 62
     7
370
    15
100
AcDbSpline
210
0.0
220
0.0
230
1.0
 70
     8
 71
     3
 72
    11
 73
     7
 74
     0
 42
0.00000001
 43
0.00000001
 40
0.0
 40
0.0
 40
0.0
 40
0.0
 40
0.279070523561826
 40
0.5585699929208264
 40
0.7790601124732449
 40
1.0
 40
1.0
 40
1.0
 40
1.0
 10
49.1094672517774
 20
248.8194417549204
 30
0.0
 10
49.12426764761445
 20
248.8237617943006
 30
0.0
 10
49.15389118826081
 20
248.8324085131845
 30
0.0
 10
49.20108710549184
 20
248.8277446664618
 30
0.0
 10
49.23800365289141
 20
248.8157398526496
 30
0.0
 10
49.25525711633061
 20
248.8046640671666
 30
0.0
 10
49.26389263772827
 20
248.7991205319296
 30
0.0
  0
LINE
  5
257
330
1F
100
AcDbEntity
  8
0
  6
Continuous
 62
     7
370
    15
100
AcDbLine
 10
49.2064032329
 20
248.6380144207
 30
0.0
 11
49.2064032329
 21
248.6135181963
 31
0.0
  0
LINE
  5
258
330
1F
100
AcDbEntity
  8
0
  6
Continuous
 62
     7
370
    15
100
AcDbLine
 10
49.3479745775
 20
248.6190547537
 30
0.0
 11
49.3479745775
 21
248.5945585293
 31
0.0
  0
LINE
  5
259
330
1F
100
AcDbEntity
  8
0
  6
Continuous
 62
     7
370
    15
100
AcDbLine
 10
49.3328209601
 20
248.6940424492
 30
0.0
 11
49.3328209601
 21
248.6695462249
 31
0.0
  0
LINE
  5
25A
330
1F
100
AcDbEntity
  8
0
  6
Continuous
 62
     7
370
    15
100
AcDbLine
 10
49.2602958647
 20
248.7067049198
 30
0.0
 11
49.2602958647
 21
248.6822086955
 31
0.0
  0
LINE
  5
25B
330
1F
100
AcDbEntity
  8
0
  6
Continuous
 62
     7
370
    15
100
AcDbLine
 10
49.0883583216
 20
248.7210012576
 30
0.0
 11
49.0883583216
 21
248.6965050333
 31
0.0
  0
LINE
  5
25C
330
1F
100
AcDbEntity
  8
0
  6
Continuous
 62
     7
370
    15
100
AcDbLine
 10
49.2658973965
 20
248.7085770593
 30
0.0
 11
49.2658973965
 21
248.684080835
 31
0.0
  0
LINE
  5
25D
330
1F
100
AcDbEntity
  8
0
  6
Continuous
 62
     7
370
    15
100
AcDbLine
 10
49.1335833201
 20
248.7996651543
 30
0.0
 11
49.1335833201
 21
248.77516893
 31
0.0
  0
LINE
  5
25E
330
1F
100
AcDbEntity
  8
0
  6
Continuous
 62
     7
370
    15
100
AcDbLine
 10
49.2332905853
 20
248.7823393545
 30
0.0
 11
49.2332905853
 21
248.7578431301
 31
0.0
  0
LINE
  5
25F
330
1F
100
AcDbEntity
  8
0
  6
Continuous
 62
     7
370
    15
100
AcDbLine
 10
49.5751555962
 20
248.9063497607
 30
0.0
 11
49.5314046851
 21
248.8964784799
 31
0.0
  0
SPLINE
  5
260
330
1F
100
AcDbEntity
  8
0
  6
Continuous
 62
     7
370
    15
100
AcDbSpline
210
0.0
220
0.0
230
1.0
 70
     8
 71
     3
 72
    11
 73
     7
 74
     0
 42
0.00000001
 43
0.00000001
 40
0.0
 40
0.0
 40
0.0
 40
0.0
 40
0.2807126350400743
 40
0.560172748601051
 40
0.7799813488150502
 40
1.0
 40
1.0
 40
1.0
 40
1.0
 10
49.5314046850715
 20
248.8964784798824
 30
0.0
 10
49.52325106175201
 20
248.907212249001
 30
0.0
 10
49.50698019604877
 20
248.9286318938601
 30
0.0
 10
49.50420600615784
 20
248.9619343013071
 30
0.0
 10
49.52273967978116
 20
248.9909078324866
 30
0.0
 10
49.54604445170798
 20
249.0035646579343
 30
0.0
 10
49.55770240257211
 20
249.0098960929566
 30
0.0
  0
SPLINE
  5
261
330
1F
100
AcDbEntity
  8
0
  6
Continuous
 62
     7
370
    15
100
AcDbSpline
210
0.0
220
0.0
230
1.0
 70
     8
 71
     3
 72
    11
 73
     7
 74
     0
 42
0.00000001
 43
0.00000001
 40
0.0
 40
0.0
 40
0.0
 40
0.0
 40
0.2494431220535929
 40
0.3751235445693548
 40
0.5010222502336367
 40
1.0
 40
1.0
 40
1.0
 40
1.0
 10
49.55770240257211
 20
249.0098960929566
 30
0.0
 10
49.57928922143653
 20
249.0176405022648
 30
0.0
 10
49.61175242964903
 20
249.0292868858025
 30
0.0
 10
49.66258364131113
 20
249.0284028599484
 30
0.0
 10
49.73440716941484
 20
249.0159986480157
 30
0.0
 10
49.77847432112038
 20
248.9894211580408
 30
0.0
 10
49.81366292201189
 20
248.9681984410911
 30
0.0
  0
SPLINE
  5
262
330
1F
100
AcDbEntity
  8
0
  6
Continuous
 62
     7
370
    15
100
AcDbSpline
210
0.0
220
0.0
230
1.0
 70
     8
 71
     3
 72
    11
 73
     7
 74
     0
 42
0.00000001
 43
0.00000001
 40
0.0
 40
0.0
 40
0.0
 40
0.0
 40
0.2810721339728581
 40
0.5609042913349706
 40
0.7804295601055905
 40
1.0
 40
1.0
 40
1.0
 40
1.0
 10
49.81366292201189
 20
248.9681984410911
 30
0.0
 10
49.829734289374
 20
248.95515469192
 30
0.0
 10
49.86180612372348
 20
248.9291247373252
 30
0.0
 10
49.88001083396472
 20
248.8848416987476
 30
0.0
 10
49.86541806254245
 20
248.8430118303194
 30
0.0
 10
49.83457142979822
 20
248.8250115750249
 30
0.0
 10
49.8191465267822
 20
248.8160105215069
 30
0.0
  0
SPLINE
  5
263
330
1F
100
AcDbEntity
  8
0
  6
Continuous
 62
     7
370
    15
100
AcDbSpline
210
0.0
220
0.0
230
1.0
 70
     8
 71
     3
 72
    10
 73
     6
 74
     0
 42
0.00000001
 43
0.00000001
 40
0.0
 40
0.0
 40
0.0
 40
0.0
 40
0.2803099813379182
 40
0.5605256012334116
 40
1.0
 40
1.0
 40
1.0
 40
1.0
 10
49.81914652678219
 20
248.8160105215069
 30
0.0
 10
49.803657185417
 20
248.8103673992375
 30
0.0
 10
49.77268371690193
 20
248.7990830543571
 30
0.0
 10
49.70440139234586
 20
248.7984931711056
 30
0.0
 10
49.66468236697774
 20
248.8134057030227
 30
0.0
 10
49.64042818206394
 20
248.8225119513079
 30
0.0
  0
LINE
  5
264
330
1F
100
AcDbEntity
  8
0
  6
Continuous
 62
     7
370
    15
100
AcDbLine
 10
49.6404281821
 20
248.8225119513
 30
0.0
 11
49.66690279
 21
248.8439904969
 31
0.0
  0
SPLINE
  5
265
330
1F
100
AcDbEntity
  8
0
  6
Continuous
 62
     7
370
    15
100
AcDbSpline
210
0.0
220
0.0
230
1.0
 70
     8
 71
     3
 72
    11
 73
     7
 74
     0
 42
0.00000001
 43
0.00000001
 40
0.0
 40
0.0
 40
0.0
 40
0.0
 40
0.280779237238876
 40
0.5604434773252083
 40
0.7800421799936293
 40
1.0
 40
1.0
 40
1.0
 40
1.0
 10
49.66690279004101
 20
248.8439904968811
 30
0.0
 10
49.67734962801756
 20
248.8398551922403
 30
0.0
 10
49.69820181872868
 20
248.8316010045894
 30
0.0
 10
49.73262150001226
 20
248.8256304687175
 30
0.0
 10
49.76593118728565
 20
248.8278110683356
 30
0.0
 10
49.78257453925367
 20
248.8342159380414
 30
0.0
 10
49.7909030140405
 20
248.837420989281
 30
0.0
  0
SPLINE
  5
266
330
1F
100
AcDbEntity
  8
0
  6
Continuous
 62
     7
370
    15
100
AcDbSpline
210
0.0
220
0.0
230
1.0
 70
     8
 71
     3
 72
    12
 73
     8
 74
     0
 42
0.00000001
 43
0.00000001
 40
0.0
 40
0.0
 40
0.0
 40
0.0
 40
0.1255359095768897
 40
0.2509392490400227
 40
0.3763253473569803
 40
0.5018866346333304
 40
1.0
 40
1.0
 40
1.0
 40
1.0
 10
49.7909030140405
 20
248.837420989281
 30
0.0
 10
49.79786038807622
 20
248.8410216967589
 30
0.0
 10
49.81176778892828
 20
248.8482193092472
 30
0.0
 10
49.82538302257463
 20
248.8626406150139
 30
0.0
 10
49.83091435197822
 20
248.878608713835
 30
0.0
 10
49.8260602865392
 20
248.9109776645748
 30
0.0
 10
49.79913821462065
 20
248.9336120536812
 30
0.0
 10
49.77763622830589
 20
248.9516895748423
 30
0.0
  0
SPLINE
  5
267
330
1F
100
AcDbEntity
  8
0
  6
Continuous
 62
     7
370
    15
100
AcDbSpline
210
0.0
220
0.0
230
1.0
 70
     8
 71
     3
 72
    11
 73
     7
 74
     0
 42
0.00000001
 43
0.00000001
 40
0.0
 40
0.0
 40
0.0
 40
0.0
 40
0.4996889150837737
 40
0.7490097070658801
 40
0.8744431671706812
 40
1.0
 40
1.0
 40
1.0
 40
1.0
 10
49.77763622830589
 20
248.9516895748423
 30
0.0
 10
49.75251132946888
 20
248.9684241350833
 30
0.0
 10
49.71485031168383
 20
248.9935084379078
 30
0.0
 10
49.64812996529795
 20
249.0029849414319
 30
0.0
 10
49.610773509227
 20
248.9983047579306
 30
0.0
 10
49.59516775279697
 20
248.9921681416975
 30
0.0
 10
49.58736103912548
 20
248.9890983253731
 30
0.0
  0
SPLINE
  5
268
330
1F
100
AcDbEntity
  8
0
  6
Continuous
 62
     7
370
    15
100
AcDbSpline
210
0.0
220
0.0
230
1.0
 70
     8
 71
     3
 72
    10
 73
     6
 74
     0
 42
0.00000001
 43
0.00000001
 40
0.0
 40
0.0
 40
0.0
 40
0.0
 40
0.2794762940773692
 40
0.5594868811219403
 40
1.0
 40
1.0
 40
1.0
 40
1.0
 10
49.58736103912548
 20
248.9890983253731
 30
0.0
 10
49.5770724386124
 20
248.9828871557003
 30
0.0
 10
49.55647556820097
 20
248.9704529420586
 30
0.0
 10
49.54919445079517
 20
248.9385900593636
 30
0.0
 10
49.56530558554412
 20
248.9185821673194
 30
0.0
 10
49.57515559624964
 20
248.9063497607322
 30
0.0
  0
LINE
  5
269
330
1F
100
AcDbEntity
  8
0
  6
Continuous
 62
     7
370
    15
100
AcDbLine
 10
49.6404281821
 20
248.8225119513
 30
0.0
 11
49.6404281821
 21
248.798015727
 31
0.0
  0
LINE
  5
26A
330
1F
100
AcDbEntity
  8
0
  6
Continuous
 62
     7
370
    15
100
AcDbLine
 10
49.8191465268
 20
248.8160105215
 30
0.0
 11
49.8191465268
 21
248.7915142972
 31
0.0
  0
LINE
  5
26B
330
1F
100
AcDbEntity
  8
0
  6
Continuous
 62
     7
370
    15
100
AcDbLine
 10
49.2638926377
 20
248.7991205319
 30
0.0
 11
49.2638926377
 21
248.7746243076
 31
0.0
  0
LINE
  5
26C
330
1F
100
AcDbEntity
  8
0
  6
Continuous
 62
     7
370
    15
100
AcDbLine
 10
49.7776362283
 20
248.9516895748
 30
0.0
 11
49.7776362283
 21
248.9271933505
 31
0.0
  0
LINE
  5
26D
330
1F
100
AcDbEntity
  8
0
  6
Continuous
 62
     7
370
    15
100
AcDbLine
 10
49.5314046851
 20
248.8964784799
 30
0.0
 11
49.5314046851
 21
248.8719822555
 31
0.0
  0
LINE
  5
26E
330
1F
100
AcDbEntity
  8
0
  6
Continuous
 62
     7
370
    15
100
AcDbLine
 10
49.5751555962
 20
248.9063497607
 30
0.0
 11
49.5751555962
 21
248.8818535364
 31
0.0
  0
SPLINE
  5
26F
330
1F
100
AcDbEntity
  8
0
  6
Continuous
 62
     7
370
    15
100
AcDbSpline
210
0.0
220
0.0
230
1.0
 70
     8
 71
     3
 72
    11
 73
     7
 74
     0
 42
0.00000001
 43
0.00000001
 40
0.0
 40
0.0
 40
0.0
 40
0.0
 40
0.2814486939014632
 40
0.5593790272765267
 40
0.779462810017726
 40
1.0
 40
1.0
 40
1.0
 40
1.0
 10
49.97654991216178
 20
249.0312856384181
 30
0.0
 10
49.96782437128672
 20
249.0268016845835
 30
0.0
 10
49.95048236660552
 20
249.0178898303497
 30
0.0
 10
49.93744046122002
 20
248.9997800710915
 30
0.0
 10
49.94272208043463
 20
248.9821396960442
 30
0.0
 10
49.95351687613436
 20
248.9735833685294
 30
0.0
 10
49.95891982800779
 20
248.9693008024613
 30
0.0
  0
SPLINE
  5
270
330
1F
100
AcDbEntity
  8
0
  6
Continuous
 62
     7
370
    15
100
AcDbSpline
210
0.0
220
0.0
230
1.0
 70
     8
 71
     3
 72
    11
 73
     7
 74
     0
 42
0.00000001
 43
0.00000001
 40
0.0
 40
0.0
 40
0.0
 40
0.0
 40
0.2800267984363466
 40
0.5584696553999753
 40
0.7788551829009901
 40
1.0
 40
1.0
 40
1.0
 40
1.0
 10
49.95891982800779
 20
248.9693008024613
 30
0.0
 10
49.96650440399328
 20
248.965002812084
 30
0.0
 10
49.9816306546258
 20
248.9564311424497
 30
0.0
 10
50.01228967135447
 20
248.9533280217541
 30
0.0
 10
50.03831822545122
 20
248.9585440226977
 30
0.0
 10
50.05129970340037
 20
248.9644637229016
 30
0.0
 10
50.05780160434976
 20
248.9674286629898
 30
0.0
  0
LINE
  5
271
330
1F
100
AcDbEntity
  8
0
  6
Continuous
 62
     7
370
    15
100
AcDbLine
 10
50.0578016043
 20
248.967428663
 30
0.0
 11
50.1390532965
 21
249.0078668756
 31
0.0
  0
LINE
  5
272
330
1F
100
AcDbEntity
  8
0
  6
Continuous
 62
     7
370
    15
100
AcDbLine
 10
50.1390532965
 20
249.0078668756
 30
0.0
 11
50.0496056789
 21
249.067673222
 31
0.0
  0
LINE
  5
273
330
1F
100
AcDbEntity
  8
0
  6
Continuous
 62
     7
370
    15
100
AcDbLine
 10
50.0496056789
 20
249.067673222
 30
0.0
 11
49.9765499122
 21
249.0312856384
 31
0.0
  0
LINE
  5
274
330
1F
100
AcDbEntity
  8
0
  6
Continuous
 62
     7
370
    15
100
AcDbLine
 10
49.932563147
 20
249.1856180087
 30
0.0
 11
50.2029107585
 21
249.0048374135
 31
0.0
  0
LINE
  5
275
330
1F
100
AcDbEntity
  8
0
  6
Continuous
 62
     7
370
    15
100
AcDbLine
 10
50.2029107585
 20
249.0048374135
 30
0.0
 11
50.0890522552
 21
248.9480945681
 31
0.0
  0
SPLINE
  5
276
330
1F
100
AcDbEntity
  8
0
  6
Continuous
 62
     7
370
    15
100
AcDbSpline
210
0.0
220
0.0
230
1.0
 70
     8
 71
     3
 72
    11
 73
     7
 74
     0
 42
0.00000001
 43
0.00000001
 40
0.0
 40
0.0
 40
0.0
 40
0.0
 40
0.2814542485617944
 40
0.5583043622291881
 40
0.7789716935653331
 40
1.0
 40
1.0
 40
1.0
 40
1.0
 10
50.08905225519128
 20
248.9480945680839
 30
0.0
 10
50.07542265844684
 20
248.9413488739969
 30
0.0
 10
50.04838642304895
 20
248.9279678344342
 30
0.0
 10
49.99646214089631
 20
248.9239885521573
 30
0.0
 10
49.95358218976391
 20
248.9346105235161
 30
0.0
 10
49.93387505889751
 20
248.9460248852677
 30
0.0
 10
49.92401344065272
 20
248.9517367303285
 30
0.0
  0
SPLINE
  5
277
330
1F
100
AcDbEntity
  8
0
  6
Continuous
 62
     7
370
    15
100
AcDbSpline
210
0.0
220
0.0
230
1.0
 70
     8
 71
     3
 72
    11
 73
     7
 74
     0
 42
0.00000001
 43
0.00000001
 40
0.0
 40
0.0
 40
0.0
 40
0.0
 40
0.2802890157153256
 40
0.5592731397864265
 40
0.7793504685690251
 40
1.0
 40
1.0
 40
1.0
 40
1.0
 10
49.92401344065272
 20
248.9517367303285
 30
0.0
 10
49.9148209500448
 20
248.9588240641574
 30
0.0
 10
49.89647876467007
 20
248.9729657365774
 30
0.0
 10
49.89016433544239
 20
248.998205246856
 30
0.0
 10
49.90118269805889
 20
249.0202975342494
 30
0.0
 10
49.91537501722001
 20
249.0314531585291
 30
0.0
 10
49.92248038985672
 20
249.0370382124306
 30
0.0
  0
SPLINE
  5
278
330
1F
100
AcDbEntity
  8
0
  6
Continuous
 62
     7
370
    15
100
AcDbSpline
210
0.0
220
0.0
230
1.0
 70
     8
 71
     3
 72
     9
 73
     5
 74
     0
 42
0.00000001
 43
0.00000001
 40
0.0
 40
0.0
 40
0.0
 40
0.0
 40
0.5601500235910822
 40
0.9999999999999999
 40
0.9999999999999999
 40
0.9999999999999999
 40
0.9999999999999999
 10
49.92248038985672
 20
249.0370382124306
 30
0.0
 10
49.91564543894453
 20
249.0364272558294
 30
0.0
 10
49.90344343836553
 20
249.0353365540969
 30
0.0
 10
49.89115236331562
 20
249.03592736971
 30
0.0
 10
49.88574613424488
 20
249.0361872399435
 30
0.0
  0
SPLINE
  5
279
330
1F
100
AcDbEntity
  8
0
  6
Continuous
 62
     7
370
    15
100
AcDbSpline
210
0.0
220
0.0
230
1.0
 70
     8
 71
     3
 72
     9
 73
     5
 74
     0
 42
0.00000001
 43
0.00000001
 40
0.0
 40
0.0
 40
0.0
 40
0.0
 40
0.5599379039850115
 40
1.0
 40
1.0
 40
1.0
 40
1.0
 10
49.88574613424488
 20
249.0361872399435
 30
0.0
 10
49.87406294686348
 20
249.0374740735548
 30
0.0
 10
49.85319779860641
 20
249.0397722455523
 30
0.0
 10
49.83329881696076
 20
249.0440429778076
 30
0.0
 10
49.82454202938921
 20
249.0459223651954
 30
0.0
  0
LINE
  5
27A
330
1F
100
AcDbEntity
  8
0
  6
Continuous
 62
     7
370
    15
100
AcDbLine
 10
49.8245420294
 20
249.0459223652
 30
0.0
 11
49.7060843737
 21
249.0727790569
 31
0.0
  0
LINE
  5
27B
330
1F
100
AcDbEntity
  8
0
  6
Continuous
 62
     7
370
    15
100
AcDbLine
 10
49.7060843737
 20
249.0727790569
 30
0.0
 11
49.7488329055
 21
249.0940533691
 31
0.0
  0
LINE
  5
27C
330
1F
100
AcDbEntity
  8
0
  6
Continuous
 62
     7
370
    15
100
AcDbLine
 10
49.7488329055
 20
249.0940533691
 30
0.0
 11
49.8392239389
 21
249.0734598349
 31
0.0
  0
SPLINE
  5
27D
330
1F
100
AcDbEntity
  8
0
  6
Continuous
 62
     7
370
    15
100
AcDbSpline
210
0.0
220
0.0
230
1.0
 70
     8
 71
     3
 72
    10
 73
     6
 74
     0
 42
0.00000001
 43
0.00000001
 40
0.0
 40
0.0
 40
0.0
 40
0.0
 40
0.5615261066892819
 40
0.780270122889908
 40
1.0
 40
1.0
 40
1.0
 40
1.0
 10
49.83922393893551
 20
249.0734598348764
 30
0.0
 10
49.86483634630057
 20
249.0670141122405
 30
0.0
 10
49.90042613634627
 20
249.0580574408884
 30
0.0
 10
49.95292566846884
 20
249.0565309607534
 30
0.0
 10
49.97050950856696
 20
249.0647245424896
 30
0.0
 10
49.97932119629301
 20
249.0688305445468
 30
0.0
  0
LINE
  5
27E
330
1F
100
AcDbEntity
  8
0
  6
Continuous
 62
     7
370
    15
100
AcDbLine
 10
49.9793211963
 20
249.0688305445
 30
0.0
 11
50.0186498456
 21
249.0884029117
 31
0.0
  0
LINE
  5
27F
330
1F
100
AcDbEntity
  8
0
  6
Continuous
 62
     7
370
    15
100
AcDbLine
 10
50.0186498456
 20
249.0884029117
 30
0.0
 11
49.8986001755
 21
249.1686666367
 31
0.0
  0
LINE
  5
280
330
1F
100
AcDbEntity
  8
0
  6
Continuous
 62
     7
370
    15
100
AcDbLine
 10
49.8986001755
 20
249.1686666367
 30
0.0
 11
49.932563147
 21
249.1856180087
 31
0.0
  0
LINE
  5
281
330
1F
100
AcDbEntity
  8
0
  6
Continuous
 62
     7
370
    15
100
AcDbLine
 10
49.9240134407
 20
248.9517367303
 30
0.0
 11
49.9240134407
 21
248.927240506
 31
0.0
  0
LINE
  5
282
330
1F
100
AcDbEntity
  8
0
  6
Continuous
 62
     7
370
    15
100
AcDbLine
 10
49.5873610391
 20
248.9890983254
 30
0.0
 11
49.5873610391
 21
248.964602101
 31
0.0
  0
LINE
  5
283
330
1F
100
AcDbEntity
  8
0
  6
Continuous
 62
     7
370
    15
100
AcDbLine
 10
50.2029107585
 20
249.0048374135
 30
0.0
 11
50.2029107585
 21
248.9803411892
 31
0.0
  0
SPLINE
  5
284
330
1F
100
AcDbEntity
  8
0
  6
Continuous
 62
     7
370
    15
100
AcDbSpline
210
0.0
220
0.0
230
1.0
 70
     8
 71
     3
 72
     9
 73
     5
 74
     0
 42
0.00000001
 43
0.00000001
 40
0.0
 40
0.0
 40
0.0
 40
0.0
 40
0.7115277969135777
 40
1.0
 40
1.0
 40
1.0
 40
1.0
 10
49.97654991216178
 20
249.0067894140615
 30
0.0
 10
49.96709681894568
 20
249.0024727289251
 30
0.0
 10
49.95381119151538
 20
248.9964059453712
 30
0.0
 10
49.9488283583706
 20
248.9873055516792
 30
0.0
 10
49.94739094951571
 20
248.9846803410619
 30
0.0
  0
LINE
  5
285
330
1F
100
AcDbEntity
  8
0
  6
Continuous
 62
     7
370
    15
100
AcDbLine
 10
50.0496056789
 20
249.0431769976
 30
0.0
 11
49.9765499122
 21
249.0067894141
 31
0.0
  0
LINE
  5
286
330
1F
100
AcDbEntity
  8
0
  6
Continuous
 62
     7
370
    15
100
AcDbLine
 10
50.1180501006
 20
248.99741378
 30
0.0
 11
50.0496056789
 21
249.0431769976
 31
0.0
  0
LINE
  5
287
330
1F
100
AcDbEntity
  8
0
  6
Continuous
 62
     7
370
    15
100
AcDbLine
 10
49.9765499122
 20
249.0312856384
 30
0.0
 11
49.9765499122
 21
249.0067894141
 31
0.0
  0
LINE
  5
288
330
1F
100
AcDbEntity
  8
0
  6
Continuous
 62
     7
370
    15
100
AcDbLine
 10
50.0496056789
 20
249.067673222
 30
0.0
 11
50.0496056789
 21
249.0431769976
 31
0.0
  0
LINE
  5
289
330
1F
100
AcDbEntity
  8
0
  6
Continuous
 62
     7
370
    15
100
AcDbLine
 10
49.8857461342
 20
249.0361872399
 30
0.0
 11
49.8857461342
 21
249.0116910156
 31
0.0
  0
LINE
  5
28A
330
1F
100
AcDbEntity
  8
0
  6
Continuous
 62
     7
370
    15
100
AcDbLine
 10
49.7060843737
 20
249.0727790569
 30
0.0
 11
49.7060843737
 21
249.0482828325
 31
0.0
  0
LINE
  5
28B
330
1F
100
AcDbEntity
  8
0
  6
Continuous
 62
     7
370
    15
100
AcDbLine
 10
49.8986001755
 20
249.1686666367
 30
0.0
 11
49.8986001755
 21
249.1441704124
 31
0.0
  0
LINE
  5
28C
330
1F
100
AcDbEntity
  8
0
  6
Continuous
 62
     7
370
    15
100
AcDbLine
 10
50.3771794345
 20
249.2897176805
 30
0.0
 11
50.3771794345
 21
249.2652214562
 31
0.0
  0
LINE
  5
28D
330
1F
100
AcDbEntity
  8
0
  6
Continuous
 62
     7
370
    15
100
AcDbLine
 10
50.4502352013
 20
249.1375978387
 30
0.0
 11
50.3771794345
 21
249.2897176805
 31
0.0
  0
LINE
  5
28E
330
1F
100
AcDbEntity
  8
0
  6
Continuous
 62
     7
370
    15
100
AcDbLine
 10
50.4502352013
 20
249.1375978387
 30
0.0
 11
50.4502352013
 21
249.1131016144
 31
0.0
  0
LINE
  5
28F
330
1F
100
AcDbEntity
  8
0
  6
Continuous
 62
     7
370
    15
100
AcDbLine
 10
50.4869694569
 20
249.1588721509
 30
0.0
 11
50.4502352013
 21
249.1375978387
 31
0.0
  0
LINE
  5
290
330
1F
100
AcDbEntity
  8
0
  6
Continuous
 62
     7
370
    15
100
AcDbLine
 10
50.4869694569
 20
249.1588721509
 30
0.0
 11
50.4869694569
 21
249.1343759266
 31
0.0
  0
LINE
  5
291
330
1F
100
AcDbEntity
  8
0
  6
Continuous
 62
     7
370
    15
100
AcDbLine
 10
50.2849015693
 20
249.3792059473
 30
0.0
 11
50.4087249028
 21
249.3079965696
 31
0.0
  0
LINE
  5
292
330
1F
100
AcDbEntity
  8
0
  6
Continuous
 62
     7
370
    15
100
AcDbLine
 10
50.4087249028
 20
249.3079965696
 30
0.0
 11
50.6691666477
 21
249.2643927393
 31
0.0
  0
LINE
  5
293
330
1F
100
AcDbEntity
  8
0
  6
Continuous
 62
     7
370
    15
100
AcDbLine
 10
50.6691666477
 20
249.2643927393
 30
0.0
 11
50.6306045238
 21
249.2420632213
 31
0.0
  0
LINE
  5
294
330
1F
100
AcDbEntity
  8
0
  6
Continuous
 62
     7
370
    15
100
AcDbLine
 10
50.6306045238
 20
249.2420632213
 30
0.0
 11
50.4956370903
 21
249.2655841008
 31
0.0
  0
SPLINE
  5
295
330
1F
100
AcDbEntity
  8
0
  6
Continuous
 62
     7
370
    15
100
AcDbSpline
210
0.0
220
0.0
230
1.0
 70
     8
 71
     3
 72
     9
 73
     5
 74
     0
 42
0.00000001
 43
0.00000001
 40
0.0
 40
0.0
 40
0.0
 40
0.0
 40
0.5599954211368146
 40
1.0
 40
1.0
 40
1.0
 40
1.0
 10
50.49563709025355
 20
249.2655841008022
 30
0.0
 10
50.48172632044556
 20
249.268054842598
 30
0.0
 10
50.45688545696181
 20
249.2724669175946
 30
0.0
 10
50.43248996343863
 20
249.2776388177392
 30
0.0
 10
50.4217558345848
 20
249.2799144774841
 30
0.0
  0
SPLINE
  5
296
330
1F
100
AcDbEntity
  8
0
  6
Continuous
 62
     7
370
    15
100
AcDbSpline
210
0.0
220
0.0
230
1.0
 70
     8
 71
     3
 72
     9
 73
     5
 74
     0
 42
0.00000001
 43
0.00000001
 40
0.0
 40
0.0
 40
0.0
 40
0.0
 40
0.5599942998736921
 40
1.0
 40
1.0
 40
1.0
 40
1.0
 10
50.4217558345848
 20
249.2799144774841
 30
0.0
 10
50.426842433419
 20
249.2716114243331
 30
0.0
 10
50.43592573808004
 20
249.2567843927848
 30
0.0
 10
50.44385643731166
 20
249.2417392391322
 30
0.0
 10
50.44734599017956
 20
249.2351192857658
 30
0.0
  0
LINE
  5
297
330
1F
100
AcDbEntity
  8
0
  6
Continuous
 62
     7
370
    15
100
AcDbLine
 10
50.4473459902
 20
249.2351192858
 30
0.0
 11
50.4869694569
 21
249.1588721509
 31
0.0
  0
LINE
  5
298
330
1F
100
AcDbEntity
  8
0
  6
Continuous
 62
     7
370
    15
100
AcDbLine
 10
50.3771794345
 20
249.2897176805
 30
0.0
 11
50.253356101
 21
249.3609270583
 31
0.0
  0
LINE
  5
299
330
1F
100
AcDbEntity
  8
0
  6
Continuous
 62
     7
370
    15
100
AcDbLine
 10
50.253356101
 20
249.3609270583
 30
0.0
 11
50.2849015693
 21
249.3792059473
 31
0.0
  0
LINE
  5
29A
330
1F
100
AcDbEntity
  8
0
  6
Continuous
 62
     7
370
    15
100
AcDbLine
 10
50.6306045238
 20
249.2420632213
 30
0.0
 11
50.6306045238
 21
249.2175669969
 31
0.0
  0
LINE
  5
29B
330
1F
100
AcDbEntity
  8
0
  6
Continuous
 62
     7
370
    15
100
AcDbLine
 10
50.6691666477
 20
249.2643927393
 30
0.0
 11
50.6691666477
 21
249.239896515
 31
0.0
  0
LINE
  5
29C
330
1F
100
AcDbEntity
  8
0
  6
Continuous
 62
     7
370
    15
100
AcDbLine
 10
50.5659107593
 20
249.5507659643
 30
0.0
 11
50.8693958534
 21
249.3891152307
 31
0.0
  0
LINE
  5
29D
330
1F
100
AcDbEntity
  8
0
  6
Continuous
 62
     7
370
    15
100
AcDbLine
 10
50.8693958534
 20
249.3891152307
 30
0.0
 11
50.703413623
 21
249.2852625483
 31
0.0
  0
LINE
  5
29E
330
1F
100
AcDbEntity
  8
0
  6
Continuous
 62
     7
370
    15
100
AcDbLine
 10
50.703413623
 20
249.2852625483
 30
0.0
 11
50.6676227832
 21
249.304358371
 31
0.0
  0
LINE
  5
29F
330
1F
100
AcDbEntity
  8
0
  6
Continuous
 62
     7
370
    15
100
AcDbLine
 10
50.6676227832
 20
249.304358371
 30
0.0
 11
50.8032388152
 21
249.3891833085
 31
0.0
  0
LINE
  5
2A0
330
1F
100
AcDbEntity
  8
0
  6
Continuous
 62
     7
370
    15
100
AcDbLine
 10
50.8032388152
 20
249.3891833085
 30
0.0
 11
50.7103123516
 21
249.4386758683
 31
0.0
  0
LINE
  5
2A1
330
1F
100
AcDbEntity
  8
0
  6
Continuous
 62
     7
370
    15
100
AcDbLine
 10
50.7103123516
 20
249.4386758683
 30
0.0
 11
50.5833049895
 21
249.3592290769
 31
0.0
  0
LINE
  5
2A2
330
1F
100
AcDbEntity
  8
0
  6
Continuous
 62
     7
370
    15
100
AcDbLine
 10
50.5833049895
 20
249.3592290769
 30
0.0
 11
50.5476320767
 21
249.3781887439
 31
0.0
  0
LINE
  5
2A3
330
1F
100
AcDbEntity
  8
0
  6
Continuous
 62
     7
370
    15
100
AcDbLine
 10
50.5476320767
 20
249.3781887439
 30
0.0
 11
50.6746394388
 21
249.4576355353
 31
0.0
  0
LINE
  5
2A4
330
1F
100
AcDbEntity
  8
0
  6
Continuous
 62
     7
370
    15
100
AcDbLine
 10
50.6746394388
 20
249.4576355353
 30
0.0
 11
50.5713943641
 21
249.5126764358
 31
0.0
  0
LINE
  5
2A5
330
1F
100
AcDbEntity
  8
0
  6
Continuous
 62
     7
370
    15
100
AcDbLine
 10
50.5713943641
 20
249.5126764358
 30
0.0
 11
50.4304716178
 21
249.4245156861
 31
0.0
  0
LINE
  5
2A6
330
1F
100
AcDbEntity
  8
0
  6
Continuous
 62
     7
370
    15
100
AcDbLine
 10
50.4304716178
 20
249.4245156861
 30
0.0
 11
50.3946218146
 21
249.4435774698
 31
0.0
  0
LINE
  5
2A7
330
1F
100
AcDbEntity
  8
0
  6
Continuous
 62
     7
370
    15
100
AcDbLine
 10
50.3946218146
 20
249.4435774698
 30
0.0
 11
50.5659107593
 21
249.5507659643
 31
0.0
  0
LINE
  5
2A8
330
1F
100
AcDbEntity
  8
0
  6
Continuous
 62
     7
370
    15
100
AcDbLine
 10
50.6676227832
 20
249.304358371
 30
0.0
 11
50.6676227832
 21
249.2798621466
 31
0.0
  0
LINE
  5
2A9
330
1F
100
AcDbEntity
  8
0
  6
Continuous
 62
     7
370
    15
100
AcDbLine
 10
50.703413623
 20
249.2852625483
 30
0.0
 11
50.703413623
 21
249.260766324
 31
0.0
  0
LINE
  5
2AA
330
1F
100
AcDbEntity
  8
0
  6
Continuous
 62
     7
370
    15
100
AcDbLine
 10
50.8693958534
 20
249.3891152307
 30
0.0
 11
50.8693958534
 21
249.3646190063
 31
0.0
  0
LINE
  5
2AB
330
1F
100
AcDbEntity
  8
0
  6
Continuous
 62
     7
370
    15
100
AcDbLine
 10
50.253356101
 20
249.3609270583
 30
0.0
 11
50.253356101
 21
249.3364308339
 31
0.0
  0
LINE
  5
2AC
330
1F
100
AcDbEntity
  8
0
  6
Continuous
 62
     7
370
    15
100
AcDbLine
 10
50.5476320767
 20
249.3781887439
 30
0.0
 11
50.5476320767
 21
249.3536925196
 31
0.0
  0
LINE
  5
2AD
330
1F
100
AcDbEntity
  8
0
  6
Continuous
 62
     7
370
    15
100
AcDbLine
 10
50.5833049895
 20
249.3592290769
 30
0.0
 11
50.5833049895
 21
249.3347328526
 31
0.0
  0
LINE
  5
2AE
330
1F
100
AcDbEntity
  8
0
  6
Continuous
 62
     7
370
    15
100
AcDbLine
 10
50.7103123516
 20
249.4386758683
 30
0.0
 11
50.7103123516
 21
249.414179644
 31
0.0
  0
LINE
  5
2AF
330
1F
100
AcDbEntity
  8
0
  6
Continuous
 62
     7
370
    15
100
AcDbLine
 10
50.7393688057
 20
249.6662634391
 30
0.0
 11
51.0535852554
 21
249.5108077852
 31
0.0
  0
LINE
  5
2B0
330
1F
100
AcDbEntity
  8
0
  6
Continuous
 62
     7
370
    15
100
AcDbLine
 10
51.0535852554
 20
249.5108077852
 30
0.0
 11
51.0243393633
 21
249.4911333013
 31
0.0
  0
LINE
  5
2B1
330
1F
100
AcDbEntity
  8
0
  6
Continuous
 62
     7
370
    15
100
AcDbLine
 10
51.0243393633
 20
249.4911333013
 30
0.0
 11
50.7472109501
 21
249.6282419884
 31
0.0
  0
LINE
  5
2B2
330
1F
100
AcDbEntity
  8
0
  6
Continuous
 62
     7
370
    15
100
AcDbLine
 10
50.7472109501
 20
249.6282419884
 30
0.0
 11
50.6384822706
 21
249.5549902767
 31
0.0
  0
LINE
  5
2B3
330
1F
100
AcDbEntity
  8
0
  6
Continuous
 62
     7
370
    15
100
AcDbLine
 10
50.6384822706
 20
249.5549902767
 30
0.0
 11
50.601394234
 21
249.5733372435
 31
0.0
  0
LINE
  5
2B4
330
1F
100
AcDbEntity
  8
0
  6
Continuous
 62
     7
370
    15
100
AcDbLine
 10
50.601394234
 20
249.5733372435
 30
0.0
 11
50.7393688057
 21
249.6662634391
 31
0.0
  0
LINE
  5
2B5
330
1F
100
AcDbEntity
  8
0
  6
Continuous
 62
     7
370
    15
100
AcDbLine
 10
50.3946218146
 20
249.4435774698
 30
0.0
 11
50.3946218146
 21
249.4190812455
 31
0.0
  0
LINE
  5
2B6
330
1F
100
AcDbEntity
  8
0
  6
Continuous
 62
     7
370
    15
100
AcDbLine
 10
50.4304716178
 20
249.4245156861
 30
0.0
 11
50.4304716178
 21
249.4000194618
 31
0.0
  0
LINE
  5
2B7
330
1F
100
AcDbEntity
  8
0
  6
Continuous
 62
     7
370
    15
100
AcDbLine
 10
50.5713943641
 20
249.5126764358
 30
0.0
 11
50.5713943641
 21
249.4881802114
 31
0.0
  0
LINE
  5
2B8
330
1F
100
AcDbEntity
  8
0
  6
Continuous
 62
     7
370
    15
100
AcDbLine
 10
50.7472109501
 20
249.6282419884
 30
0.0
 11
50.7472109501
 21
249.603745764
 31
0.0
  0
LINE
  5
2B9
330
1F
100
AcDbEntity
  8
0
  6
Continuous
 62
     7
370
    15
100
AcDbLine
 10
51.0243393633
 20
249.4911333013
 30
0.0
 11
51.0243393633
 21
249.4666370769
 31
0.0
  0
LINE
  5
2BA
330
1F
100
AcDbEntity
  8
0
  6
Continuous
 62
     7
370
    15
100
AcDbLine
 10
51.0535852554
 20
249.5108077852
 30
0.0
 11
51.0535852554
 21
249.4863115608
 31
0.0
  0
SPLINE
  5
2BB
330
1F
100
AcDbEntity
  8
0
  6
Continuous
 62
     7
370
    15
100
AcDbSpline
210
0.0
220
0.0
230
1.0
 70
     8
 71
     3
 72
    11
 73
     7
 74
     0
 42
0.00000001
 43
0.00000001
 40
0.0
 40
0.0
 40
0.0
 40
0.0
 40
0.2814057212998014
 40
0.5594960822040403
 40
0.7794688652409757
 40
1.0
 40
1.0
 40
1.0
 40
1.0
 10
51.04391648743319
 20
249.6730989777761
 30
0.0
 10
51.03683668388257
 20
249.6677945893467
 30
0.0
 10
51.02276048695575
 20
249.6572483057424
 30
0.0
 10
51.01575751759316
 20
249.6381820759279
 30
0.0
 10
51.02660207606426
 20
249.6215387628256
 30
0.0
 10
51.03982971494435
 20
249.6143197543943
 30
0.0
 10
51.04645191759581
 20
249.6107056750255
 30
0.0
  0
SPLINE
  5
2BC
330
1F
100
AcDbEntity
  8
0
  6
Continuous
 62
     7
370
    15
100
AcDbSpline
210
0.0
220
0.0
230
1.0
 70
     8
 71
     3
 72
    11
 73
     7
 74
     0
 42
0.00000001
 43
0.00000001
 40
0.0
 40
0.0
 40
0.0
 40
0.0
 40
0.2800822116879494
 40
0.5585264416884749
 40
0.7788885976384312
 40
1.0
 40
1.0
 40
1.0
 40
1.0
 10
51.04645191759581
 20
249.6107056750255
 30
0.0
 10
51.05524028109843
 20
249.6073021938766
 30
0.0
 10
51.07276561184259
 20
249.6005151358768
 30
0.0
 10
51.10375572763948
 20
249.6007697052086
 30
0.0
 10
51.12752396586919
 20
249.608658293767
 30
0.0
 10
51.13832966209727
 20
249.6158284638353
 30
0.0
 10
51.14374167964963
 20
249.6194196332929
 30
0.0
  0
LINE
  5
2BD
330
1F
100
AcDbEntity
  8
0
  6
Continuous
 62
     7
370
    15
100
AcDbLine
 10
51.1437416796
 20
249.6194196333
 30
0.0
 11
51.2101935353
 21
249.6675846761
 31
0.0
  0
LINE
  5
2BE
330
1F
100
AcDbEntity
  8
0
  6
Continuous
 62
     7
370
    15
100
AcDbLine
 10
51.2101935353
 20
249.6675846761
 30
0.0
 11
51.1037054685
 21
249.7164645357
 31
0.0
  0
LINE
  5
2BF
330
1F
100
AcDbEntity
  8
0
  6
Continuous
 62
     7
370
    15
100
AcDbLine
 10
51.1037054685
 20
249.7164645357
 30
0.0
 11
51.0439164874
 21
249.6730989778
 31
0.0
  0
LINE
  5
2C0
330
1F
100
AcDbEntity
  8
0
  6
Continuous
 62
     7
370
    15
100
AcDbLine
 10
50.9515796587
 20
249.8192620122
 30
0.0
 11
51.2735203259
 21
249.6713970328
 31
0.0
  0
LINE
  5
2C1
330
1F
100
AcDbEntity
  8
0
  6
Continuous
 62
     7
370
    15
100
AcDbLine
 10
51.2735203259
 20
249.6713970328
 30
0.0
 11
51.1803580083
 21
249.6037957784
 31
0.0
  0
SPLINE
  5
2C2
330
1F
100
AcDbEntity
  8
0
  6
Continuous
 62
     7
370
    15
100
AcDbSpline
210
0.0
220
0.0
230
1.0
 70
     8
 71
     3
 72
    11
 73
     7
 74
     0
 42
0.00000001
 43
0.00000001
 40
0.0
 40
0.0
 40
0.0
 40
0.0
 40
0.2814544932739488
 40
0.5583432774759448
 40
0.7789602809289574
 40
1.0
 40
1.0
 40
1.0
 40
1.0
 10
51.18035800827716
 20
249.6037957784306
 30
0.0
 10
51.16920660868685
 20
249.5957519960036
 30
0.0
 10
51.147084705699
 20
249.5797949160816
 30
0.0
 10
51.09761830169989
 20
249.5703644910259
 30
0.0
 10
51.0523625000931
 20
249.5762288786704
 30
0.0
 10
51.02944317941856
 20
249.5852545812455
 30
0.0
 10
51.01797255088551
 20
249.589771751844
 30
0.0
  0
SPLINE
  5
2C3
330
1F
100
AcDbEntity
  8
0
  6
Continuous
 62
     7
370
    15
100
AcDbSpline
210
0.0
220
0.0
230
1.0
 70
     8
 71
     3
 72
    11
 73
     7
 74
     0
 42
0.00000001
 43
0.00000001
 40
0.0
 40
0.0
 40
0.0
 40
0.0
 40
0.2802441610124943
 40
0.5592962814055622
 40
0.7793481321539981
 40
1.0
 40
1.0
 40
1.0
 40
1.0
 10
51.01797255088551
 20
249.589771751844
 30
0.0
 10
51.00672480380165
 20
249.5957197213386
 30
0.0
 10
50.98427715281237
 20
249.6075903601708
 30
0.0
 10
50.97001308363892
 20
249.6315846015277
 30
0.0
 10
50.97371292841827
 20
249.6543545448345
 30
0.0
 10
50.98399257971376
 20
249.6667771178951
 30
0.0
 10
50.98913940322228
 20
249.6729968610776
 30
0.0
  0
SPLINE
  5
2C4
330
1F
100
AcDbEntity
  8
0
  6
Continuous
 62
     7
370
    15
100
AcDbSpline
210
0.0
220
0.0
230
1.0
 70
     8
 71
     3
 72
     9
 73
     5
 74
     0
 42
0.00000001
 43
0.00000001
 40
0.0
 40
0.0
 40
0.0
 40
0.0
 40
0.5600938394437117
 40
1.0
 40
1.0
 40
1.0
 40
1.0
 10
50.98913940322228
 20
249.6729968610776
 30
0.0
 10
50.98267208960763
 20
249.6716323455525
 30
0.0
 10
50.97112525020466
 20
249.6691961189259
 30
0.0
 10
50.95890237296071
 20
249.6685261420884
 30
0.0
 10
50.95352545396138
 20
249.6682314151502
 30
0.0
  0
SPLINE
  5
2C5
330
1F
100
AcDbEntity
  8
0
  6
Continuous
 62
     7
370
    15
100
AcDbSpline
210
0.0
220
0.0
230
1.0
 70
     8
 71
     3
 72
     9
 73
     5
 74
     0
 42
0.00000001
 43
0.00000001
 40
0.0
 40
0.0
 40
0.0
 40
0.0
 40
0.5599594818285728
 40
1.0
 40
1.0
 40
1.0
 40
1.0
 10
50.95352545396138
 20
249.6682314151502
 30
0.0
 10
50.94170996975731
 20
249.6682510936763
 30
0.0
 10
50.92060936411083
 20
249.6682862364443
 30
0.0
 10
50.89981898189058
 20
249.6703282636117
 30
0.0
 10
50.89067037132539
 20
249.6712268383046
 30
0.0
  0
LINE
  5
2C6
330
1F
100
AcDbEntity
  8
0
  6
Continuous
 62
     7
370
    15
100
AcDbLine
 10
50.8906703713
 20
249.6712268383
 30
0.0
 11
50.7663753299
 21
249.6848423981
 31
0.0
  0
LINE
  5
2C7
330
1F
100
AcDbEntity
  8
0
  6
Continuous
 62
     7
370
    15
100
AcDbLine
 10
50.7663753299
 20
249.6848423981
 30
0.0
 11
50.8013406807
 21
249.7102013782
 31
0.0
  0
LINE
  5
2C8
330
1F
100
AcDbEntity
  8
0
  6
Continuous
 62
     7
370
    15
100
AcDbLine
 10
50.8013406807
 20
249.7102013782
 30
0.0
 11
50.8962719031
 21
249.6997173972
 31
0.0
  0
SPLINE
  5
2C9
330
1F
100
AcDbEntity
  8
0
  6
Continuous
 62
     7
370
    15
100
AcDbSpline
210
0.0
220
0.0
230
1.0
 70
     8
 71
     3
 72
    10
 73
     6
 74
     0
 42
0.00000001
 43
0.00000001
 40
0.0
 40
0.0
 40
0.0
 40
0.0
 40
0.5614844236489633
 40
0.7802748767340685
 40
1.0
 40
1.0
 40
1.0
 40
1.0
 10
50.89627190308001
 20
249.6997173971711
 30
0.0
 10
50.92334930394151
 20
249.6961864714075
 30
0.0
 10
50.96097780213239
 20
249.6912796698136
 30
0.0
 10
51.01279345571594
 20
249.695264101718
 30
0.0
 10
51.02736028190402
 20
249.7051471865099
 30
0.0
 10
51.03465921916504
 20
249.7100992615131
 30
0.0
  0
LINE
  5
2CA
330
1F
100
AcDbEntity
  8
0
  6
Continuous
 62
     7
370
    15
100
AcDbLine
 10
51.0346592192
 20
249.7100992615
 30
0.0
 11
51.0667943224
 21
249.7334159077
 31
0.0
  0
LINE
  5
2CB
330
1F
100
AcDbEntity
  8
0
  6
Continuous
 62
     7
370
    15
100
AcDbLine
 10
51.0667943224
 20
249.7334159077
 30
0.0
 11
50.9238078539
 21
249.7990769448
 31
0.0
  0
LINE
  5
2CC
330
1F
100
AcDbEntity
  8
0
  6
Continuous
 62
     7
370
    15
100
AcDbLine
 10
50.9238078539
 20
249.7990769448
 30
0.0
 11
50.9515796587
 21
249.8192620122
 31
0.0
  0
LINE
  5
2CD
330
1F
100
AcDbEntity
  8
0
  6
Continuous
 62
     7
370
    15
100
AcDbLine
 10
51.0179725509
 20
249.5897717518
 30
0.0
 11
51.0179725509
 21
249.5652755275
 31
0.0
  0
LINE
  5
2CE
330
1F
100
AcDbEntity
  8
0
  6
Continuous
 62
     7
370
    15
100
AcDbLine
 10
50.601394234
 20
249.5733372435
 30
0.0
 11
50.601394234
 21
249.5488410192
 31
0.0
  0
LINE
  5
2CF
330
1F
100
AcDbEntity
  8
0
  6
Continuous
 62
     7
370
    15
100
AcDbLine
 10
50.6384822706
 20
249.5549902767
 30
0.0
 11
50.6384822706
 21
249.5304940524
 31
0.0
  0
SPLINE
  5
2D0
330
1F
100
AcDbEntity
  8
0
  6
Continuous
 62
     7
370
    15
100
AcDbSpline
210
0.0
220
0.0
230
1.0
 70
     8
 71
     3
 72
     9
 73
     5
 74
     0
 42
0.00000001
 43
0.00000001
 40
0.0
 40
0.0
 40
0.0
 40
0.0
 40
0.7654495228627083
 40
1.0
 40
1.0
 40
1.0
 40
1.0
 10
51.04391648743319
 20
249.6486027534195
 30
0.0
 10
51.03595585215768
 20
249.6434104656361
 30
0.0
 10
51.02555590410395
 20
249.6366271473004
 30
0.0
 10
51.02357319244236
 20
249.6279144402478
 30
0.0
 10
51.02310814647611
 20
249.6258708706514
 30
0.0
  0
LINE
  5
2D1
330
1F
100
AcDbEntity
  8
0
  6
Continuous
 62
     7
370
    15
100
AcDbLine
 10
51.1037054685
 20
249.6919683114
 30
0.0
 11
51.0439164874
 21
249.6486027534
 31
0.0
  0
LINE
  5
2D2
330
1F
100
AcDbEntity
  8
0
  6
Continuous
 62
     7
370
    15
100
AcDbLine
 10
51.1895011568
 20
249.6525866104
 30
0.0
 11
51.1037054685
 21
249.6919683114
 31
0.0
  0
LINE
  5
2D3
330
1F
100
AcDbEntity
  8
0
  6
Continuous
 62
     7
370
    15
100
AcDbLine
 10
51.2735203259
 20
249.6713970328
 30
0.0
 11
51.2735203259
 21
249.6469008084
 31
0.0
  0
LINE
  5
2D4
330
1F
100
AcDbEntity
  8
0
  6
Continuous
 62
     7
370
    15
100
AcDbLine
 10
51.0439164874
 20
249.6730989778
 30
0.0
 11
51.0439164874
 21
249.6486027534
 31
0.0
  0
LINE
  5
2D5
330
1F
100
AcDbEntity
  8
0
  6
Continuous
 62
     7
370
    15
100
AcDbLine
 10
50.7663753299
 20
249.6848423981
 30
0.0
 11
50.7663753299
 21
249.6603461737
 31
0.0
  0
LINE
  5
2D6
330
1F
100
AcDbEntity
  8
0
  6
Continuous
 62
     7
370
    15
100
AcDbLine
 10
50.953525454
 20
249.6682314152
 30
0.0
 11
50.953525454
 21
249.6437351908
 31
0.0
  0
LINE
  5
2D7
330
1F
100
AcDbEntity
  8
0
  6
Continuous
 62
     7
370
    15
100
AcDbLine
 10
51.1037054685
 20
249.7164645357
 30
0.0
 11
51.1037054685
 21
249.6919683114
 31
0.0
  0
LINE
  5
2D8
330
1F
100
AcDbEntity
  8
0
  6
Continuous
 62
     7
370
    15
100
AcDbLine
 10
51.1719362667
 20
249.8255952885
 30
0.0
 11
51.2853820256
 21
249.8030615371
 31
0.0
  0
SPLINE
  5
2D9
330
1F
100
AcDbEntity
  8
0
  6
Continuous
 62
     7
370
    15
100
AcDbSpline
210
0.0
220
0.0
230
1.0
 70
     8
 71
     3
 72
     9
 73
     5
 74
     0
 42
0.00000001
 43
0.00000001
 40
0.0
 40
0.0
 40
0.0
 40
0.0
 40
0.5600123732070248
 40
0.9999999999999999
 40
0.9999999999999999
 40
0.9999999999999999
 40
0.9999999999999999
 10
51.28538202557009
 20
249.8030615370762
 30
0.0
 10
51.30110292776777
 20
249.7999383226854
 30
0.0
 10
51.32917534714603
 20
249.7943612773552
 30
0.0
 10
51.3567033752236
 20
249.787945777573
 30
0.0
 10
51.36881536696775
 20
249.7851230370491
 30
0.0
  0
SPLINE
  5
2DA
330
1F
100
AcDbEntity
  8
0
  6
Continuous
 62
     7
370
    15
100
AcDbSpline
210
0.0
220
0.0
230
1.0
 70
     8
 71
     3
 72
     9
 73
     5
 74
     0
 42
0.00000001
 43
0.00000001
 40
0.0
 40
0.0
 40
0.0
 40
0.0
 40
0.559996246497412
 40
1.0
 40
1.0
 40
1.0
 40
1.0
 10
51.36881536696775
 20
249.7851230370491
 30
0.0
 10
51.35839157902314
 20
249.7914757437498
 30
0.0
 10
51.33977754721522
 20
249.8028199388947
 30
0.0
 10
51.32313150748411
 20
249.8151376793673
 30
0.0
 10
51.31580718752146
 20
249.8205575314099
 30
0.0
  0
LINE
  5
2DB
330
1F
100
AcDbEntity
  8
0
  6
Continuous
 62
     7
370
    15
100
AcDbLine
 10
51.3158071875
 20
249.8205575314
 30
0.0
 11
51.2396263557
 21
249.8791725163
 31
0.0
  0
LINE
  5
2DC
330
1F
100
AcDbEntity
  8
0
  6
Continuous
 62
     7
370
    15
100
AcDbLine
 10
51.2396263557
 20
249.8791725163
 30
0.0
 11
51.1719362667
 21
249.8255952885
 31
0.0
  0
LINE
  5
2DD
330
1F
100
AcDbEntity
  8
0
  6
Continuous
 62
     7
370
    15
100
AcDbLine
 10
51.1600846047
 20
249.9826848096
 30
0.0
 11
51.417578175
 21
249.7811404858
 31
0.0
  0
LINE
  5
2DE
330
1F
100
AcDbEntity
  8
0
  6
Continuous
 62
     7
370
    15
100
AcDbLine
 10
51.417578175
 20
249.7811404858
 30
0.0
 11
51.3891577718
 21
249.7586067344
 31
0.0
  0
LINE
  5
2DF
330
1F
100
AcDbEntity
  8
0
  6
Continuous
 62
     7
370
    15
100
AcDbLine
 10
51.3891577718
 20
249.7586067344
 30
0.0
 11
50.9729934441
 21
249.834581558
 31
0.0
  0
LINE
  5
2E0
330
1F
100
AcDbEntity
  8
0
  6
Continuous
 62
     7
370
    15
100
AcDbLine
 10
50.9729934441
 20
249.834581558
 30
0.0
 11
51.0033006791
 21
249.8585449432
 31
0.0
  0
LINE
  5
2E1
330
1F
100
AcDbEntity
  8
0
  6
Continuous
 62
     7
370
    15
100
AcDbLine
 10
51.0033006791
 20
249.8585449432
 30
0.0
 11
51.127890538
 21
249.8343432857
 31
0.0
  0
LINE
  5
2E2
330
1F
100
AcDbEntity
  8
0
  6
Continuous
 62
     7
370
    15
100
AcDbLine
 10
51.127890538
 20
249.8343432857
 30
0.0
 11
51.2113238794
 21
249.9004127896
 31
0.0
  0
LINE
  5
2E3
330
1F
100
AcDbEntity
  8
0
  6
Continuous
 62
     7
370
    15
100
AcDbLine
 10
51.2113238794
 20
249.9004127896
 30
0.0
 11
51.131959019
 21
249.9604574083
 31
0.0
  0
LINE
  5
2E4
330
1F
100
AcDbEntity
  8
0
  6
Continuous
 62
     7
370
    15
100
AcDbLine
 10
51.131959019
 20
249.9604574083
 30
0.0
 11
51.1600846047
 21
249.9826848096
 31
0.0
  0
LINE
  5
2E5
330
1F
100
AcDbEntity
  8
0
  6
Continuous
 62
     7
370
    15
100
AcDbLine
 10
50.9729934441
 20
249.834581558
 30
0.0
 11
50.9729934441
 21
249.8100853336
 31
0.0
  0
LINE
  5
2E6
330
1F
100
AcDbEntity
  8
0
  6
Continuous
 62
     7
370
    15
100
AcDbLine
 10
51.3891577718
 20
249.7586067344
 30
0.0
 11
51.3891577718
 21
249.73411051
 31
0.0
  0
LINE
  5
2E7
330
1F
100
AcDbEntity
  8
0
  6
Continuous
 62
     7
370
    15
100
AcDbLine
 10
50.9238078539
 20
249.7990769448
 30
0.0
 11
50.9238078539
 21
249.7745807204
 31
0.0
  0
LINE
  5
2E8
330
1F
100
AcDbEntity
  8
0
  6
Continuous
 62
     7
370
    15
100
AcDbLine
 10
51.417578175
 20
249.7811404858
 30
0.0
 11
51.417578175
 21
249.7566442615
 31
0.0
  0
LINE
  5
2E9
330
1F
100
AcDbEntity
  8
0
  6
Continuous
 62
     7
370
    15
100
AcDbLine
 10
51.2396263557
 20
249.854676292
 30
0.0
 11
51.1966764816
 21
249.8206811352
 31
0.0
  0
LINE
  5
2EA
330
1F
100
AcDbEntity
  8
0
  6
Continuous
 62
     7
370
    15
100
AcDbLine
 10
51.3158071875
 20
249.7960613071
 30
0.0
 11
51.2396263557
 21
249.854676292
 31
0.0
  0
LINE
  5
2EB
330
1F
100
AcDbEntity
  8
0
  6
Continuous
 62
     7
370
    15
100
AcDbLine
 10
51.2396263557
 20
249.8791725163
 30
0.0
 11
51.2396263557
 21
249.854676292
 31
0.0
  0
LINE
  5
2EC
330
1F
100
AcDbEntity
  8
0
  6
Continuous
 62
     7
370
    15
100
AcDbLine
 10
51.1797062889
 20
249.9998186167
 30
0.0
 11
51.1797062889
 21
249.9753223923
 31
0.0
  0
LINE
  5
2ED
330
1F
100
AcDbEntity
  8
0
  6
Continuous
 62
     7
370
    15
100
AcDbLine
 10
51.5237582656
 20
249.8678498034
 30
0.0
 11
51.1797062889
 21
249.9998186167
 31
0.0
  0
LINE
  5
2EE
330
1F
100
AcDbEntity
  8
0
  6
Continuous
 62
     7
370
    15
100
AcDbLine
 10
51.5237582656
 20
249.8678498034
 30
0.0
 11
51.5237582656
 21
249.843353579
 31
0.0
  0
LINE
  5
2EF
330
1F
100
AcDbEntity
  8
0
  6
Continuous
 62
     7
370
    15
100
AcDbLine
 10
51.3585425606
 20
250.1552742706
 30
0.0
 11
51.7025945373
 21
250.0233054573
 31
0.0
  0
LINE
  5
2F0
330
1F
100
AcDbEntity
  8
0
  6
Continuous
 62
     7
370
    15
100
AcDbLine
 10
51.7025945373
 20
250.0233054573
 30
0.0
 11
51.6653296103
 21
249.990900425
 31
0.0
  0
LINE
  5
2F1
330
1F
100
AcDbEntity
  8
0
  6
Continuous
 62
     7
370
    15
100
AcDbLine
 10
51.6653296103
 20
249.990900425
 30
0.0
 11
51.3772929511
 21
250.0457370921
 31
0.0
  0
LINE
  5
2F2
330
1F
100
AcDbEntity
  8
0
  6
Continuous
 62
     7
370
    15
100
AcDbLine
 10
51.3772929511
 20
250.0457370921
 30
0.0
 11
51.3175039701
 21
250.0575145513
 31
0.0
  0
SPLINE
  5
2F3
330
1F
100
AcDbEntity
  8
0
  6
Continuous
 62
     7
370
    15
100
AcDbSpline
210
0.0
220
0.0
230
1.0
 70
     8
 71
     3
 72
     9
 73
     5
 74
     0
 42
0.00000001
 43
0.00000001
 40
0.0
 40
0.0
 40
0.0
 40
0.0
 40
0.5599959254841284
 40
1.0
 40
1.0
 40
1.0
 40
1.0
 10
51.31750397009021
 20
250.0575145513034
 30
0.0
 10
51.32596682998082
 20
250.0519765582524
 30
0.0
 10
51.34107918974182
 20
250.042087212993
 30
0.0
 10
51.35603182232608
 20
250.0321173115251
 30
0.0
 10
51.3626110415879
 20
250.0277305142566
 30
0.0
  0
LINE
  5
2F4
330
1F
100
AcDbEntity
  8
0
  6
Continuous
 62
     7
370
    15
100
AcDbLine
 10
51.3626110416
 20
250.0277305143
 30
0.0
 11
51.5571316022
 21
249.8968509457
 31
0.0
  0
LINE
  5
2F5
330
1F
100
AcDbEntity
  8
0
  6
Continuous
 62
     7
370
    15
100
AcDbLine
 10
51.5571316022
 20
249.8968509457
 30
0.0
 11
51.5237582656
 21
249.8678498034
 31
0.0
  0
LINE
  5
2F6
330
1F
100
AcDbEntity
  8
0
  6
Continuous
 62
     7
370
    15
100
AcDbLine
 10
51.1797062889
 20
249.9998186167
 30
0.0
 11
51.2035275398
 21
250.0205823454
 31
0.0
  0
LINE
  5
2F7
330
1F
100
AcDbEntity
  8
0
  6
Continuous
 62
     7
370
    15
100
AcDbLine
 10
51.2035275398
 20
250.0205823454
 30
0.0
 11
51.4914462719
 21
249.9101261165
 31
0.0
  0
LINE
  5
2F8
330
1F
100
AcDbEntity
  8
0
  6
Continuous
 62
     7
370
    15
100
AcDbLine
 10
51.4914462719
 20
249.9101261165
 30
0.0
 11
51.2581277335
 21
250.0680325712
 31
0.0
  0
LINE
  5
2F9
330
1F
100
AcDbEntity
  8
0
  6
Continuous
 62
     7
370
    15
100
AcDbLine
 10
51.2581277335
 20
250.0680325712
 30
0.0
 11
51.2804159335
 21
250.0873666661
 31
0.0
  0
LINE
  5
2FA
330
1F
100
AcDbEntity
  8
0
  6
Continuous
 62
     7
370
    15
100
AcDbLine
 10
51.2804159335
 20
250.0873666661
 30
0.0
 11
51.6275929753
 21
250.0221481347
 31
0.0
  0
LINE
  5
2FB
330
1F
100
AcDbEntity
  8
0
  6
Continuous
 62
     7
370
    15
100
AcDbLine
 10
51.6275929753
 20
250.0221481347
 30
0.0
 11
51.3347213098
 21
250.1345105419
 31
0.0
  0
LINE
  5
2FC
330
1F
100
AcDbEntity
  8
0
  6
Continuous
 62
     7
370
    15
100
AcDbLine
 10
51.3347213098
 20
250.1345105419
 30
0.0
 11
51.3585425606
 21
250.1552742706
 31
0.0
  0
LINE
  5
2FD
330
1F
100
AcDbEntity
  8
0
  6
Continuous
 62
     7
370
    15
100
AcDbLine
 10
51.5571316022
 20
249.8968509457
 30
0.0
 11
51.5571316022
 21
249.8723547214
 31
0.0
  0
LINE
  5
2FE
330
1F
100
AcDbEntity
  8
0
  6
Continuous
 62
     7
370
    15
100
AcDbLine
 10
51.131959019
 20
249.9604574083
 30
0.0
 11
51.131959019
 21
249.9359611839
 31
0.0
  0
LINE
  5
2FF
330
1F
100
AcDbEntity
  8
0
  6
Continuous
 62
     7
370
    15
100
AcDbLine
 10
51.2581277335
 20
250.0680325712
 30
0.0
 11
51.2581277335
 21
250.0435363469
 31
0.0
  0
LINE
  5
300
330
1F
100
AcDbEntity
  8
0
  6
Continuous
 62
     7
370
    15
100
AcDbLine
 10
51.6653296103
 20
249.990900425
 30
0.0
 11
51.6653296103
 21
249.9664042007
 31
0.0
  0
LINE
  5
301
330
1F
100
AcDbEntity
  8
0
  6
Continuous
 62
     7
370
    15
100
AcDbLine
 10
51.7025945373
 20
250.0233054573
 30
0.0
 11
51.7025945373
 21
249.998809233
 31
0.0
  0
LINE
  5
302
330
1F
100
AcDbEntity
  8
0
  6
Continuous
 62
     7
370
    15
100
AcDbLine
 10
51.3347213098
 20
250.1345105419
 30
0.0
 11
51.3347213098
 21
250.1100143176
 31
0.0
  0
ARC
  5
303
330
1F
100
AcDbEntity
  8
0
  6
Continuous
 62
     7
370
    15
100
AcDbCircle
 10
29.5250881569
 20
249.9059179422
 30
0.0
 40
3.366344752174951
100
AcDbArc
 50
122.4763978922
 51
177.5236019622
  0
LWPOLYLINE
  5
304
330
1F
100
AcDbEntity
  8
0
  6
Continuous
 62
     7
370
    15
100
AcDbPolyline
 90
       10
 70
   128
 43
0.0
 10
26.1618872171
 20
250.0023779917
 10
26.185520807
 20
249.70408156
 10
26.2557034821
 20
249.4421354765
 10
26.3703027772
 20
249.2244988405
 10
26.5258366508
 20
249.0577844309
 10
26.7175792849
 20
248.9470577808
 10
26.9397046764
 20
248.8956832633
 10
27.1854636579
 20
248.9052218673
 10
27.447388967
 20
248.975383767
 10
27.7175221357
 20
249.1040371286
  0
LINE
  5
305
330
1F
100
AcDbEntity
  8
0
  6
Continuous
 62
     7
370
    15
100
AcDbLine
 10
26.1618872171
 20
250.0513704404
 30
0.0
 11
26.1618872171
 21
250.0023779917
 31
0.0
  0
LWPOLYLINE
  5
306
330
1F
100
AcDbEntity
  8
0
  6
Continuous
 62
     7
370
    15
100
AcDbPolyline
 90
       18
 70
   128
 43
0.0
 10
27.6397403898
 20
250.8800206929
 10
27.6612275948
 20
251.0251608459
 10
27.7227872438
 20
251.1755076158
 10
27.816105365
 20
251.3107558383
 10
27.9285788291
 20
251.4126394915
 10
28.0450174716
 20
251.4673986234
 10
28.1496956084
 20
251.4676377099
 10
28.2284758773
 20
251.4133244611
 10
28.2707185664
 20
251.3117941821
 10
28.2707185664
 20
251.1767590996
 10
28.2284758773
 20
251.02645645
 10
28.1496956084
 20
250.8811854387
 10
28.0450174716
 20
250.760565721
 10
27.9285788291
 20
250.680887658
 10
27.816105365
 20
250.6529122137
 10
27.7227872438
 20
250.6804176267
 10
27.6612275948
 20
250.7596891388
 10
27.6397403898
 20
250.8800206929
  0
LINE
  5
307
330
1F
100
AcDbEntity
  8
0
  6
Continuous
 62
     7
370
    15
100
AcDbLine
 10
27.7175221357
 20
249.1040371286
 30
0.0
 11
29.402517803
 21
250.0767644222
 31
0.0
  0
ARC
  5
308
330
1F
100
AcDbEntity
  8
0
  6
Continuous
 62
     7
370
    15
100
AcDbCircle
 10
29.1008137014
 20
250.1508463725
 30
0.0
 40
3.366334116040355
100
AcDbArc
 50
122.4763035594
 51
177.523696295
  0
LINE
  5
309
330
1F
100
AcDbEntity
  8
0
  6
Continuous
 62
     7
370
    15
100
AcDbLine
 10
29.8267818717
 20
250.1782146159
 30
0.0
 11
35.6095134405
 21
250.1782146159
 31
0.0
  0
LINE
  5
30A
330
1F
100
AcDbEntity
  8
0
  6
Continuous
 62
     7
370
    15
100
AcDbLine
 10
25.7376231484
 20
250.296292874
 30
0.0
 11
25.7376231484
 21
250.2473004253
 31
0.0
  0
ARC
  5
30B
330
1F
100
AcDbEntity
  8
0
  6
Continuous
 62
     7
370
    15
100
AcDbCircle
 10
26.8375741694
 20
250.1382392348
 30
0.0
 40
1.105344557962959
100
AcDbArc
 50
174.337576136
 51
234.3502434707
  0
ARC
  5
30C
330
1F
100
AcDbEntity
  8
0
  6
Continuous
 62
     7
370
    15
100
AcDbCircle
 10
35.6456414195
 20
249.4015352203
 30
0.0
 40
0.7775192052178651
100
AcDbArc
 50
55.4885667812
 51
92.6632478068
  0
ARC
  5
30D
330
1F
100
AcDbEntity
  8
0
  6
Continuous
 62
     7
370
    15
100
AcDbCircle
 10
27.1025490598
 20
251.5575182971
 30
0.0
 40
0.7577638477738373
100
AcDbArc
 50
318.5780135613
 51
341.4273629714
  0
ARC
  5
30E
330
1F
100
AcDbEntity
  8
0
  6
Continuous
 62
     7
370
    15
100
AcDbCircle
 10
29.8094956688
 20
249.3126454836
 30
0.0
 40
0.8657417256598635
100
AcDbArc
 50
88.8559032541
 51
118.0402391154
  0
LWPOLYLINE
  5
30F
330
1F
100
AcDbEntity
  8
0
  6
Continuous
 62
     7
370
    15
100
AcDbPolyline
 90
       38
 70
   128
 43
0.0
 10
36.6163929573
 20
229.6602314946
 10
36.6389423592
 20
229.3147005609
 10
36.719760445
 20
228.9223205153
 10
36.8587092709
 20
228.5354037043
 10
37.0547601084
 20
228.1568147248
 10
37.3064614656
 20
227.789356517
 10
37.6119498339
 20
227.435749613
 10
37.9689634841
 20
227.0986119946
 10
38.3748592122
 20
226.7804397107
 10
38.8266319081
 20
226.4835883976
 10
39.3209368049
 20
226.2102558387
 10
39.8541142421
 20
225.9624656924
 10
40.4222167605
 20
225.7420525104
 10
41.0210383278
 20
225.5506481548
 10
41.6461454786
 20
225.3896697163
 10
42.2929101382
 20
225.2603090232
 10
42.9565438875
 20
225.1635238166
 10
43.6321334144
 20
225.1000306604
 10
44.3146768902
 20
225.0702996358
 10
44.999121002
 20
225.0745508607
 10
45.680398365
 20
225.1127528607
 10
46.35346504
 20
225.1846228014
 10
47.0133378768
 20
225.289628583
 10
47.6551314077
 20
225.4269927795
 10
48.2740940181
 20
225.5956983943
 10
48.8656431252
 20
225.7944963901
 10
49.4253991066
 20
226.0219149361
 10
49.9492177247
 20
226.276270305
 10
50.4332208097
 20
226.5556793386
 10
50.8738249722
 20
226.8580733902
 10
51.2677681331
 20
227.18121364
 10
51.612133675
 20
227.5227076707
 10
51.904372036
 20
227.8800271799
 10
52.1423195855
 20
228.250526699
 10
52.3242146431
 20
228.6314631792
 10
52.4487105214
 20
229.0200163001
 10
52.5148854964
 20
229.4133093503
 10
52.5263929573
 20
229.6602314946
  0
LWPOLYLINE
  5
310
330
1F
100
AcDbEntity
  8
0
  6
Continuous
 62
     7
370
    15
100
AcDbPolyline
 90
       74
 70
   128
 43
0.0
 10
38.9463585129
 20
273.7345353537
 10
38.4836264525
 20
273.4433642201
 10
38.0659660854
 20
273.1303072147
 10
37.6964696228
 20
272.7976821019
 10
37.3778726873
 20
272.4479515217
 10
37.112534059
 20
272.0837047569
 10
36.9024182124
 20
271.7076385633
 10
36.7490807716
 20
271.3225372032
 10
36.6536569935
 20
270.9312518325
 10
36.6168533623
 20
270.536679391
 10
36.6389423592
 20
270.1417411552
 10
36.719760445
 20
269.7493611095
 10
36.8587092709
 20
269.3624442986
 10
37.0547601084
 20
268.9838553191
 10
37.3064614656
 20
268.6163971113
 10
37.6119498339
 20
268.2627902073
 10
37.9689634841
 20
267.9256525889
 10
38.3748592122
 20
267.607480305
 10
38.8266319081
 20
267.3106289919
 10
39.3209368049
 20
267.037296433
 10
39.8541142421
 20
266.7895062867
 10
40.4222167605
 20
266.5690931047
 10
41.0210383278
 20
266.377688749
 10
41.6461454786
 20
266.2167103106
 10
42.2929101382
 20
266.0873496175
 10
42.9565438875
 20
265.9905644109
 10
43.6321334144
 20
265.9270712547
 10
44.3146768902
 20
265.8973402301
 10
44.999121002
 20
265.901591455
 10
45.680398365
 20
265.9397934549
 10
46.35346504
 20
266.0116633957
 10
47.0133378768
 20
266.1166691773
 10
47.6551314077
 20
266.2540333737
 10
48.2740940181
 20
266.4227389885
 10
48.8656431252
 20
266.6215369844
 10
49.4253991066
 20
266.8489555304
 10
49.9492177247
 20
267.1033108993
 10
50.4332208097
 20
267.3827199329
 10
50.8738249722
 20
267.6851139845
 10
51.2677681331
 20
268.0082542343
 10
51.612133675
 20
268.349748265
 10
51.904372036
 20
268.7070677742
 10
52.1423195855
 20
269.0775672933
 10
52.3242146431
 20
269.4585037735
 10
52.4487105214
 20
269.8470568944
 10
52.5148854964
 20
270.2403499446
 10
52.5222496319
 20
270.6354711199
 10
52.4707484064
 20
271.0294950815
 10
52.3607631168
 20
271.4195046137
 10
52.1931080558
 20
271.8026122225
 10
51.9690244829
 20
272.1759815132
 10
51.6901714343
 20
272.53684819
 10
51.3586134405
 20
272.8825405226
 10
50.9768052409
 20
273.2104991256
 10
50.5475736099
 20
273.5182959085
 10
50.0740964281
 20
273.8036520515
 10
49.5598791551
 20
274.0644548775
 10
49.0087288756
 20
274.2987734937
 10
48.4247261134
 20
274.504873087
 10
47.8121946207
 20
274.6812277682
 10
47.1756693664
 20
274.8265318688
 10
46.5198629606
 20
274.9397096082
 10
45.8496307647
 20
275.019923058
 10
45.1699349433
 20
275.0665783459
 10
44.4858077264
 20
275.0793300524
 10
43.8023141526
 20
275.0580837683
 10
43.1245145692
 20
275.0029967938
 10
42.4574271672
 20
274.9144769734
 10
41.8059908283
 20
274.7931796771
 10
41.1750285592
 20
274.6400029474
 10
40.5692117838
 20
274.4560808514
 10
39.9930257576
 20
274.2427750839
 10
39.4507363603
 20
274.0016648861
 10
38.9463585129
 20
273.7345353537
  0
LWPOLYLINE
  5
311
330
1F
100
AcDbEntity
  8
0
  6
Continuous
 62
     7
370
    15
100
AcDbPolyline
 90
       72
 70
   128
 43
0.0
 10
39.1867748185
 20
267.3787982031
 10
39.6837389017
 20
267.1162349674
 10
40.2189555048
 20
266.8800546677
 10
40.7882358321
 20
266.6721057352
 10
41.3871244934
 20
266.4940156522
 10
42.0109343728
 20
266.3471782151
 10
42.6547833123
 20
266.2327426258
 10
43.3136323208
 20
266.1516044982
 10
43.9823250116
 20
266.1043988479
 10
44.6556279578
 20
266.0914951233
 10
45.328271651
 20
266.1129943135
 10
45.9949917421
 20
266.1687281581
 10
46.6505702425
 20
266.2582604642
 10
47.2898763617
 20
266.3808905203
 10
47.9079066623
 20
266.5356585797
 10
48.4998242194
 20
266.7213533727
 10
49.0609964755
 20
266.9365215856
 10
49.5870314969
 20
267.1794792355
 10
50.0738123462
 20
267.4483248494
 10
50.5175293033
 20
267.7409543457
 10
50.9147096815
 20
268.055077502
 10
51.2622450057
 20
268.3882358786
 10
51.5574153408
 20
268.7378220596
 10
51.7979105788
 20
269.101100059
 10
51.9818485183
 20
269.475226734
 10
52.1077895956
 20
269.8572740361
 10
52.174748151
 20
270.2442519271
 10
52.182200143
 20
270.6331317804
 10
52.1300872496
 20
271.0208700839
 10
52.0188173249
 20
271.4044322595
 10
51.849261207
 20
271.7808164133
 10
51.6227459023
 20
272.1470768289
 10
51.3410442003
 20
272.5003470219
 10
51.0063607986
 20
272.8378621742
 10
50.6213150487
 20
273.156980772
 10
50.1889204557
 20
273.4552052797
 10
49.7125610935
 20
273.730201686
 10
49.1959651199
 20
273.9798177714
 10
48.643175599
 20
274.2020999513
 10
48.0585188581
 20
274.3953085666
 10
47.4465706291
 20
274.5579314976
 10
46.8121202365
 20
274.6886959996
 10
46.1601331148
 20
274.786578663
 10
45.4957119473
 20
274.8508134233
 10
44.8240567304
 20
274.8808975562
 10
44.150424077
 20
274.8765956128
 10
43.4800860758
 20
274.8379412616
 10
42.8182890306
 20
274.7652370252
 10
42.1702124006
 20
274.659051913
 10
41.5409282641
 20
274.5202169673
 10
40.9353616227
 20
274.3498187598
 10
40.3582518563
 20
274.1491908876
 10
39.8141156315
 20
273.9199035358
 10
39.3072115519
 20
273.6637511888
 10
38.8415068292
 20
273.382738586
 10
38.4206462344
 20
273.0790650321
 10
38.0479235722
 20
272.7551071843
 10
37.7262559027
 20
272.413400452
 10
37.4581607117
 20
272.0566191538
 10
37.2457362074
 20
271.6875555869
 10
37.0906448998
 20
271.3090981743
 10
36.9941005884
 20
270.9242088583
 10
36.9568588635
 20
270.5358999196
 10
36.9792111921
 20
270.1472104023
 10
37.0609826368
 20
269.7611823287
 10
37.2015332253
 20
269.3808368919
 10
37.3997629586
 20
269.0091508108
 10
37.6541204204
 20
268.6490330327
 10
37.9626149185
 20
268.3033019677
 10
38.3228320652
 20
267.9746634299
 10
38.7319526731
 20
267.6656894617
 10
39.1867748185
 20
267.3787982031
  0
ENDSEC
  0
SECTION
  2
OBJECTS
  0
DICTIONARY
  5
C
330
0
100
AcDbDictionary
281
     1
  3
ACAD_GROUP
350
D
  3
ACAD_IMAGE_DICT
350
45
  3
ACAD_IMAGE_VARS
350
314
  3
ACAD_LAYOUT
350
1A
  3
ACAD_MLINESTYLE
350
17
  3
ACAD_PLOTSETTINGS
350
19
  3
ACAD_PLOTSTYLENAME
350
E
  3
ACAD_SCALELIST
350
5E
  3
AcDbVariableDictionary
350
312
  0
IMAGEDEF_REACTOR
  5
48
330
47
100
AcDbRasterImageDefReactor
 90
        2
330
47
  0
DICTIONARY
  5
D
102
{ACAD_REACTORS
330
C
102
}
330
C
100
AcDbDictionary
281
     1
  0
DICTIONARY
  5
45
102
{ACAD_REACTORS
330
C
102
}
330
C
100
AcDbDictionary
281
     1
  3
G:\Technical\Neil D\PMMA TYPHOON PROJECT\ASSEMBLIES SOLIDWORKS\Titanium\CAD Images\RP80 w RC80\Non Dimensioned\dxf28BA.bmp
350
46
  0
RASTERVARIABLES
  5
314
102
{ACAD_REACTORS
330
C
102
}
330
C
100
AcDbRasterVariables
 90
        0
 70
     1
 71
     1
 72
     1
  0
DICTIONARY
  5
1A
102
{ACAD_REACTORS
330
C
102
}
330
C
100
AcDbDictionary
281
     1
  3
Layout1
350
1E
  3
Layout2
350
26
  3
Model
350
22
  0
DICTIONARY
  5
17
102
{ACAD_REACTORS
330
C
102
}
330
C
100
AcDbDictionary
281
     1
  3
Standard
350
18
  0
DICTIONARY
  5
19
102
{ACAD_REACTORS
330
C
102
}
330
C
100
AcDbDictionary
281
     1
  0
ACDBDICTIONARYWDFLT
  5
E
102
{ACAD_REACTORS
330
C
102
}
330
C
100
AcDbDictionary
281
     1
  3
Normal
350
F
100
AcDbDictionaryWithDefault
340
F
  0
DICTIONARY
  5
5E
102
{ACAD_REACTORS
330
C
102
}
330
C
100
AcDbDictionary
281
     1
  3
A0
350
5F
  3
A1
350
60
  3
A2
350
61
  3
A3
350
62
  3
A4
350
63
  3
A5
350
64
  3
A6
350
65
  3
A7
350
66
  3
A8
350
67
  3
A9
350
68
  3
B0
350
69
  3
B1
350
6A
  3
B2
350
6B
  3
B3
350
6C
  3
B4
350
6D
  3
B5
350
6E
  3
B6
350
6F
  3
B7
350
70
  3
B8
350
71
  3
B9
350
72
  3
C0
350
73
  3
C1
350
74
  3
C2
350
75
  3
C3
350
76
  3
C4
350
77
  3
C5
350
78
  3
C6
350
79
  3
C7
350
7A
  3
C8
350
7B
  3
C9
350
7C
  3
D0
350
7D
  3
D1
350
7E
  3
D2
350
7F
  0
DICTIONARY
  5
312
102
{ACAD_REACTORS
330
C
102
}
330
C
100
AcDbDictionary
281
     1
  3
CANNOSCALE
350
313
  0
IMAGEDEF
  5
46
102
{ACAD_REACTORS
330
45
330
48
102
}
330
45
100
AcDbRasterImageDef
 90
        0
  1
G:\Technical\Neil D\PMMA TYPHOON PROJECT\ASSEMBLIES SOLIDWORKS\Titanium\CAD Images\RP80 w RC80\Non Dimensioned\dxf28BA.bmp
 10
897.0
 20
146.0
 11
0.2645502645502645
 21
0.2645502645502645
280
     1
281
     3
  0
LAYOUT
  5
1E
102
{ACAD_REACTORS
330
1A
102
}
330
1A
100
AcDbPlotSettings
  1

  2
none_device
  4

  6

 40
0.0
 41
0.0
 42
0.0
 43
0.0
 44
0.0
 45
0.0
 46
0.0
 47
0.0
 48
0.0
 49
0.0
140
0.0
141
0.0
142
1.0
143
1.0
 70
   688
 72
     0
 73
     0
 74
     5
  7

 75
    16
147
1.0
148
0.0
149
0.0
100
AcDbLayout
  1
Layout1
 70
     1
 71
     1
 10
0.0
 20
0.0
 11
420.0
 21
297.0
 12
0.0
 22
0.0
 32
0.0
 14
1.0000000000E+20
 24
1.0000000000E+20
 34
1.0000000000E+20
 15
-1.0000000000E+20
 25
-1.0000000000E+20
 35
-1.0000000000E+20
146
0.0
 13
0.0
 23
0.0
 33
0.0
 16
1.0
 26
0.0
 36
0.0
 17
0.0
 27
1.0
 37
0.0
 76
     0
330
1B
  0
LAYOUT
  5
26
102
{ACAD_REACTORS
330
1A
102
}
330
1A
100
AcDbPlotSettings
  1

  2
none_device
  4

  6

 40
0.0
 41
0.0
 42
0.0
 43
0.0
 44
0.0
 45
0.0
 46
0.0
 47
0.0
 48
0.0
 49
0.0
140
0.0
141
0.0
142
1.0
143
1.0
 70
   688
 72
     0
 73
     0
 74
     5
  7

 75
    16
147
1.0
148
0.0
149
0.0
100
AcDbLayout
  1
Layout2
 70
     1
 71
     2
 10
0.0
 20
0.0
 11
0.0
 21
0.0
 12
0.0
 22
0.0
 32
0.0
 14
0.0
 24
0.0
 34
0.0
 15
0.0
 25
0.0
 35
0.0
146
0.0
 13
0.0
 23
0.0
 33
0.0
 16
1.0
 26
0.0
 36
0.0
 17
0.0
 27
1.0
 37
0.0
 76
     0
330
23
  0
LAYOUT
  5
22
102
{ACAD_REACTORS
330
1A
102
}
330
1A
100
AcDbPlotSettings
  1

  2
none_device
  4

  6

 40
0.0
 41
0.0
 42
0.0
 43
0.0
 44
0.0
 45
0.0
 46
0.0
 47
0.0
 48
0.0
 49
0.0
140
0.0
141
0.0
142
1.0
143
1.0
 70
  1712
 72
     0
 73
     0
 74
     0
  7

 75
     0
147
1.0
148
0.0
149
0.0
100
AcDbLayout
  1
Model
 70
     1
 71
     0
 10
0.0
 20
0.0
 11
210.0
 21
297.0
 12
0.0
 22
0.0
 32
0.0
 14
0.0
 24
0.0
 34
0.0
 15
210.0
 25
297.0
 35
0.0
146
0.0
 13
0.0
 23
0.0
 33
0.0
 16
1.0
 26
0.0
 36
0.0
 17
0.0
 27
1.0
 37
0.0
 76
     0
330
1F
331
29
  0
MLINESTYLE
  5
18
102
{ACAD_REACTORS
330
17
102
}
330
17
100
AcDbMlineStyle
  2
Standard
 70
     0
  3

 62
   256
 51
90.0
 52
90.0
 71
     2
 49
0.5
 62
   256
  6
BYLAYER
 49
-0.5
 62
   256
  6
BYLAYER
  0
ACDBPLACEHOLDER
  5
F
102
{ACAD_REACTORS
330
E
102
}
330
E
  0
SCALE
  5
5F
102
{ACAD_REACTORS
330
5E
102
}
330
5E
100
AcDbScale
 70
     0
300
1:1
140
1.0
141
1.0
290
     1
  0
SCALE
  5
60
102
{ACAD_REACTORS
330
5E
102
}
330
5E
100
AcDbScale
 70
     0
300
1:2
140
1.0
141
2.0
290
     0
  0
SCALE
  5
61
102
{ACAD_REACTORS
330
5E
102
}
330
5E
100
AcDbScale
 70
     0
300
1:4
140
1.0
141
4.0
290
     0
  0
SCALE
  5
62
102
{ACAD_REACTORS
330
5E
102
}
330
5E
100
AcDbScale
 70
     0
300
1:5
140
1.0
141
5.0
290
     0
  0
SCALE
  5
63
102
{ACAD_REACTORS
330
5E
102
}
330
5E
100
AcDbScale
 70
     0
300
1:8
140
1.0
141
8.0
290
     0
  0
SCALE
  5
64
102
{ACAD_REACTORS
330
5E
102
}
330
5E
100
AcDbScale
 70
     0
300
1:10
140
1.0
141
10.0
290
     0
  0
SCALE
  5
65
102
{ACAD_REACTORS
330
5E
102
}
330
5E
100
AcDbScale
 70
     0
300
1:16
140
1.0
141
16.0
290
     0
  0
SCALE
  5
66
102
{ACAD_REACTORS
330
5E
102
}
330
5E
100
AcDbScale
 70
     0
300
1:20
140
1.0
141
20.0
290
     0
  0
SCALE
  5
67
102
{ACAD_REACTORS
330
5E
102
}
330
5E
100
AcDbScale
 70
     0
300
1:30
140
1.0
141
30.0
290
     0
  0
SCALE
  5
68
102
{ACAD_REACTORS
330
5E
102
}
330
5E
100
AcDbScale
 70
     0
300
1:40
140
1.0
141
40.0
290
     0
  0
SCALE
  5
69
102
{ACAD_REACTORS
330
5E
102
}
330
5E
100
AcDbScale
 70
     0
300
1:50
140
1.0
141
50.0
290
     0
  0
SCALE
  5
6A
102
{ACAD_REACTORS
330
5E
102
}
330
5E
100
AcDbScale
 70
     0
300
1:100
140
1.0
141
100.0
290
     0
  0
SCALE
  5
6B
102
{ACAD_REACTORS
330
5E
102
}
330
5E
100
AcDbScale
 70
     0
300
2:1
140
2.0
141
1.0
290
     0
  0
SCALE
  5
6C
102
{ACAD_REACTORS
330
5E
102
}
330
5E
100
AcDbScale
 70
     0
300
4:1
140
4.0
141
1.0
290
     0
  0
SCALE
  5
6D
102
{ACAD_REACTORS
330
5E
102
}
330
5E
100
AcDbScale
 70
     0
300
8:1
140
8.0
141
1.0
290
     0
  0
SCALE
  5
6E
102
{ACAD_REACTORS
330
5E
102
}
330
5E
100
AcDbScale
 70
     0
300
10:1
140
10.0
141
1.0
290
     0
  0
SCALE
  5
6F
102
{ACAD_REACTORS
330
5E
102
}
330
5E
100
AcDbScale
 70
     0
300
100:1
140
100.0
141
1.0
290
     0
  0
SCALE
  5
70
102
{ACAD_REACTORS
330
5E
102
}
330
5E
100
AcDbScale
 70
     0
300
1/128" = 1'-0"
140
0.0078125
141
12.0
290
     0
  0
SCALE
  5
71
102
{ACAD_REACTORS
330
5E
102
}
330
5E
100
AcDbScale
 70
     0
300
1/64" = 1'-0"
140
0.015625
141
12.0
290
     0
  0
SCALE
  5
72
102
{ACAD_REACTORS
330
5E
102
}
330
5E
100
AcDbScale
 70
     0
300
1/32" = 1'-0"
140
0.03125
141
12.0
290
     0
  0
SCALE
  5
73
102
{ACAD_REACTORS
330
5E
102
}
330
5E
100
AcDbScale
 70
     0
300
1/16" = 1'-0"
140
0.0625
141
12.0
290
     0
  0
SCALE
  5
74
102
{ACAD_REACTORS
330
5E
102
}
330
5E
100
AcDbScale
 70
     0
300
3/32" = 1'-0"
140
0.09375
141
12.0
290
     0
  0
SCALE
  5
75
102
{ACAD_REACTORS
330
5E
102
}
330
5E
100
AcDbScale
 70
     0
300
1/8" = 1'-0"
140
0.125
141
12.0
290
     0
  0
SCALE
  5
76
102
{ACAD_REACTORS
330
5E
102
}
330
5E
100
AcDbScale
 70
     0
300
3/16" = 1'-0"
140
0.1875
141
12.0
290
     0
  0
SCALE
  5
77
102
{ACAD_REACTORS
330
5E
102
}
330
5E
100
AcDbScale
 70
     0
300
1/4" = 1'-0"
140
0.25
141
12.0
290
     0
  0
SCALE
  5
78
102
{ACAD_REACTORS
330
5E
102
}
330
5E
100
AcDbScale
 70
     0
300
3/8" = 1'-0"
140
0.375
141
12.0
290
     0
  0
SCALE
  5
79
102
{ACAD_REACTORS
330
5E
102
}
330
5E
100
AcDbScale
 70
     0
300
1/2" = 1'-0"
140
0.5
141
12.0
290
     0
  0
SCALE
  5
7A
102
{ACAD_REACTORS
330
5E
102
}
330
5E
100
AcDbScale
 70
     0
300
3/4" = 1'-0"
140
0.75
141
12.0
290
     0
  0
SCALE
  5
7B
102
{ACAD_REACTORS
330
5E
102
}
330
5E
100
AcDbScale
 70
     0
300
1" = 1'-0"
140
1.0
141
12.0
290
     0
  0
SCALE
  5
7C
102
{ACAD_REACTORS
330
5E
102
}
330
5E
100
AcDbScale
 70
     0
300
1-1/2" = 1'-0"
140
1.5
141
12.0
290
     0
  0
SCALE
  5
7D
102
{ACAD_REACTORS
330
5E
102
}
330
5E
100
AcDbScale
 70
     0
300
3" = 1'-0"
140
3.0
141
12.0
290
     0
  0
SCALE
  5
7E
102
{ACAD_REACTORS
330
5E
102
}
330
5E
100
AcDbScale
 70
     0
300
6" = 1'-0"
140
6.0
141
12.0
290
     0
  0
SCALE
  5
7F
102
{ACAD_REACTORS
330
5E
102
}
330
5E
100
AcDbScale
 70
     0
300
1'-0" = 1'-0"
140
12.0
141
12.0
290
     0
  0
DICTIONARYVAR
  5
313
102
{ACAD_REACTORS
330
312
102
}
330
312
100
DictionaryVariables
280
     0
  1
1:1
  0
ENDSEC
  0
EOF
