  0
SECTION
  2
HEADER
  9
$ACADVER
  1
AC1024
  9
$ACADMAINTVER
 70
   155
  9
$DWGCODEPAGE
  3
ANSI_1252
  9
$LASTSAVEDBY
  1
Jason
  9
$INSBASE
 10
0.0
 20
0.0
 30
0.0
  9
$EXTMIN
 10
11401.97929535744
 20
-1201.73652924133
 30
0.0
  9
$EXTMAX
 10
11775.46700676448
 20
-661.6869136025343
 30
0.0
  9
$LIMMIN
 10
0.0
 20
0.0
  9
$LIMMAX
 10
12.0
 20
9.0
  9
$ORTHOMODE
 70
     0
  9
$REGENMODE
 70
     1
  9
$FILLMODE
 70
     1
  9
$QTEXTMODE
 70
     0
  9
$MIRRTEXT
 70
     1
  9
$LTSCALE
 40
5.0
  9
$ATTMODE
 70
     1
  9
$TEXTSIZE
 40
0.2
  9
$TRACEWID
 40
0.05
  9
$TEXTSTYLE
  7
Standard
  9
$CLAYER
  8
0
  9
$CELTYPE
  6
ByLayer
  9
$CECOLOR
 62
   256
  9
$CELTSCALE
 40
1.0
  9
$DISPSILH
 70
     0
  9
$DIMSCALE
 40
1.0
  9
$DIMASZ
 40
0.18
  9
$DIMEXO
 40
0.0625
  9
$DIMDLI
 40
0.38
  9
$DIMRND
 40
0.0
  9
$DIMDLE
 40
0.0
  9
$DIMEXE
 40
0.18
  9
$DIMTP
 40
0.0
  9
$DIMTM
 40
0.0
  9
$DIMTXT
 40
0.18
  9
$DIMCEN
 40
0.09
  9
$DIMTSZ
 40
0.0
  9
$DIMTOL
 70
     0
  9
$DIMLIM
 70
     0
  9
$DIMTIH
 70
     1
  9
$DIMTOH
 70
     1
  9
$DIMSE1
 70
     0
  9
$DIMSE2
 70
     0
  9
$DIMTAD
 70
     0
  9
$DIMZIN
 70
     0
  9
$DIMBLK
  1

  9
$DIMASO
 70
     1
  9
$DIMSHO
 70
     1
  9
$DIMPOST
  1

  9
$DIMAPOST
  1

  9
$DIMALT
 70
     0
  9
$DIMALTD
 70
     2
  9
$DIMALTF
 40
25.4
  9
$DIMLFAC
 40
1.0
  9
$DIMTOFL
 70
     0
  9
$DIMTVP
 40
0.0
  9
$DIMTIX
 70
     0
  9
$DIMSOXD
 70
     0
  9
$DIMSAH
 70
     0
  9
$DIMBLK1
  1

  9
$DIMBLK2
  1

  9
$DIMSTYLE
  2
Standard
  9
$DIMCLRD
 70
     0
  9
$DIMCLRE
 70
     0
  9
$DIMCLRT
 70
     0
  9
$DIMTFAC
 40
1.0
  9
$DIMGAP
 40
0.09
  9
$DIMJUST
 70
     0
  9
$DIMSD1
 70
     0
  9
$DIMSD2
 70
     0
  9
$DIMTOLJ
 70
     1
  9
$DIMTZIN
 70
     0
  9
$DIMALTZ
 70
     0
  9
$DIMALTTZ
 70
     0
  9
$DIMUPT
 70
     0
  9
$DIMDEC
 70
     4
  9
$DIMTDEC
 70
     4
  9
$DIMALTU
 70
     2
  9
$DIMALTTD
 70
     2
  9
$DIMTXSTY
  7
Standard
  9
$DIMAUNIT
 70
     0
  9
$DIMADEC
 70
     0
  9
$DIMALTRND
 40
0.0
  9
$DIMAZIN
 70
     0
  9
$DIMDSEP
 70
    46
  9
$DIMATFIT
 70
     3
  9
$DIMFRAC
 70
     0
  9
$DIMLDRBLK
  1

  9
$DIMLUNIT
 70
     2
  9
$DIMLWD
 70
    -2
  9
$DIMLWE
 70
    -2
  9
$DIMTMOVE
 70
     0
  9
$DIMFXL
 40
1.0
  9
$DIMFXLON
 70
     0
  9
$DIMJOGANG
 40
0.7853981633974483
  9
$DIMTFILL
 70
     0
  9
$DIMTFILLCLR
 70
     0
  9
$DIMARCSYM
 70
     0
  9
$DIMLTYPE
  6

  9
$DIMLTEX1
  6

  9
$DIMLTEX2
  6

  9
$DIMTXTDIRECTION
 70
     0
  9
$LUNITS
 70
     2
  9
$LUPREC
 70
     4
  9
$SKETCHINC
 40
0.1
  9
$FILLETRAD
 40
0.5
  9
$AUNITS
 70
     0
  9
$AUPREC
 70
     0
  9
$MENU
  1
.
  9
$ELEVATION
 40
0.0
  9
$PELEVATION
 40
0.0
  9
$THICKNESS
 40
0.0
  9
$LIMCHECK
 70
     0
  9
$CHAMFERA
 40
0.5
  9
$CHAMFERB
 40
0.5
  9
$CHAMFERC
 40
1.0
  9
$CHAMFERD
 40
0.0
  9
$SKPOLY
 70
     0
  9
$TDCREATE
 40
2456216.553161539
  9
$TDUCREATE
 40
2456216.011494873
  9
$TDUPDATE
 40
2456636.594992442
  9
$TDUUPDATE
 40
2456636.053325776
  9
$TDINDWG
 40
0.0162573032
  9
$TDUSRTIMER
 40
0.0162573032
  9
$USRTIMER
 70
     1
  9
$ANGBASE
 50
0.0
  9
$ANGDIR
 70
     0
  9
$PDMODE
 70
     0
  9
$PDSIZE
 40
0.0
  9
$PLINEWID
 40
0.0
  9
$SPLFRAME
 70
     0
  9
$SPLINETYPE
 70
     6
  9
$SPLINESEGS
 70
     8
  9
$HANDSEED
  5
BCD
  9
$SURFTAB1
 70
     6
  9
$SURFTAB2
 70
     6
  9
$SURFTYPE
 70
     6
  9
$SURFU
 70
     6
  9
$SURFV
 70
     6
  9
$UCSBASE
  2

  9
$UCSNAME
  2

  9
$UCSORG
 10
0.0
 20
0.0
 30
0.0
  9
$UCSXDIR
 10
1.0
 20
0.0
 30
0.0
  9
$UCSYDIR
 10
0.0
 20
1.0
 30
0.0
  9
$UCSORTHOREF
  2

  9
$UCSORTHOVIEW
 70
     0
  9
$UCSORGTOP
 10
0.0
 20
0.0
 30
0.0
  9
$UCSORGBOTTOM
 10
0.0
 20
0.0
 30
0.0
  9
$UCSORGLEFT
 10
0.0
 20
0.0
 30
0.0
  9
$UCSORGRIGHT
 10
0.0
 20
0.0
 30
0.0
  9
$UCSORGFRONT
 10
0.0
 20
0.0
 30
0.0
  9
$UCSORGBACK
 10
0.0
 20
0.0
 30
0.0
  9
$PUCSBASE
  2

  9
$PUCSNAME
  2

  9
$PUCSORG
 10
0.0
 20
0.0
 30
0.0
  9
$PUCSXDIR
 10
1.0
 20
0.0
 30
0.0
  9
$PUCSYDIR
 10
0.0
 20
1.0
 30
0.0
  9
$PUCSORTHOREF
  2

  9
$PUCSORTHOVIEW
 70
     0
  9
$PUCSORGTOP
 10
0.0
 20
0.0
 30
0.0
  9
$PUCSORGBOTTOM
 10
0.0
 20
0.0
 30
0.0
  9
$PUCSORGLEFT
 10
0.0
 20
0.0
 30
0.0
  9
$PUCSORGRIGHT
 10
0.0
 20
0.0
 30
0.0
  9
$PUCSORGFRONT
 10
0.0
 20
0.0
 30
0.0
  9
$PUCSORGBACK
 10
0.0
 20
0.0
 30
0.0
  9
$USERI1
 70
     0
  9
$USERI2
 70
     0
  9
$USERI3
 70
     0
  9
$USERI4
 70
     0
  9
$USERI5
 70
     0
  9
$USERR1
 40
0.0
  9
$USERR2
 40
0.0
  9
$USERR3
 40
0.0
  9
$USERR4
 40
0.0
  9
$USERR5
 40
0.0
  9
$WORLDVIEW
 70
     1
  9
$SHADEDGE
 70
     3
  9
$SHADEDIF
 70
    70
  9
$TILEMODE
 70
     1
  9
$MAXACTVP
 70
    64
  9
$PINSBASE
 10
0.0
 20
0.0
 30
0.0
  9
$PLIMCHECK
 70
     0
  9
$PEXTMIN
 10
1.000000000000000E+20
 20
1.000000000000000E+20
 30
1.000000000000000E+20
  9
$PEXTMAX
 10
-1.000000000000000E+20
 20
-1.000000000000000E+20
 30
-1.000000000000000E+20
  9
$PLIMMIN
 10
0.0
 20
0.0
  9
$PLIMMAX
 10
12.0
 20
9.0
  9
$UNITMODE
 70
     0
  9
$VISRETAIN
 70
     1
  9
$PLINEGEN
 70
     0
  9
$PSLTSCALE
 70
     1
  9
$TREEDEPTH
 70
  3020
  9
$CMLSTYLE
  2
Standard
  9
$CMLJUST
 70
     0
  9
$CMLSCALE
 40
1.0
  9
$PROXYGRAPHICS
 70
     1
  9
$MEASUREMENT
 70
     0
  9
$CELWEIGHT
370
    -1
  9
$ENDCAPS
280
     0
  9
$JOINSTYLE
280
     0
  9
$LWDISPLAY
290
     1
  9
$INSUNITS
 70
     0
  9
$HYPERLINKBASE
  1

  9
$STYLESHEET
  1

  9
$XEDIT
290
     1
  9
$CEPSNTYPE
380
     0
  9
$PSTYLEMODE
290
     1
  9
$FINGERPRINTGUID
  2
{EA7002B0-0517-461C-8A4D-4EB82370012E}
  9
$VERSIONGUID
  2
{74E2AD98-0772-41B0-B287-60160BE65957}
  9
$EXTNAMES
290
     1
  9
$PSVPSCALE
 40
0.0
  9
$OLESTARTUP
290
     0
  9
$SORTENTS
280
   127
  9
$INDEXCTL
280
     0
  9
$HIDETEXT
280
     1
  9
$XCLIPFRAME
280
     0
  9
$HALOGAP
280
     0
  9
$OBSCOLOR
 70
   257
  9
$OBSLTYPE
280
     0
  9
$INTERSECTIONDISPLAY
280
     0
  9
$INTERSECTIONCOLOR
 70
   257
  9
$DIMASSOC
280
     2
  9
$PROJECTNAME
  1

  9
$CAMERADISPLAY
290
     0
  9
$LENSLENGTH
 40
50.0
  9
$CAMERAHEIGHT
 40
0.0
  9
$STEPSPERSEC
 40
2.0
  9
$STEPSIZE
 40
6.0
  9
$3DDWFPREC
 40
2.0
  9
$PSOLWIDTH
 40
0.25
  9
$PSOLHEIGHT
 40
4.0
  9
$LOFTANG1
 40
1.570796326794896
  9
$LOFTANG2
 40
1.570796326794896
  9
$LOFTMAG1
 40
0.0
  9
$LOFTMAG2
 40
0.0
  9
$LOFTPARAM
 70
     7
  9
$LOFTNORMALS
280
     1
  9
$LATITUDE
 40
37.795
  9
$LONGITUDE
 40
-122.394
  9
$NORTHDIRECTION
 40
0.0
  9
$TIMEZONE
 70
 -8000
  9
$LIGHTGLYPHDISPLAY
280
     1
  9
$TILEMODELIGHTSYNCH
280
     1
  9
$CMATERIAL
347
3C
  9
$SOLIDHIST
280
     1
  9
$SHOWHIST
280
     1
  9
$DWFFRAME
280
     2
  9
$DGNFRAME
280
     2
  9
$REALWORLDSCALE
290
     1
  9
$INTERFERECOLOR
 62
   256
  9
$INTERFEREOBJVS
345
33
  9
$INTERFEREVPVS
346
213
  9
$CSHADOW
280
     0
  9
$SHADOWPLANELOCATION
 40
0.0
  0
ENDSEC
  0
SECTION
  2
CLASSES
  0
CLASS
  1
ACDBDICTIONARYWDFLT
  2
AcDbDictionaryWithDefault
  3
ObjectDBX Classes
 90
        0
 91
        1
280
     0
281
     0
  0
CLASS
  1
VISUALSTYLE
  2
AcDbVisualStyle
  3
ObjectDBX Classes
 90
     4095
 91
       26
280
     0
281
     0
  0
CLASS
  1
MATERIAL
  2
AcDbMaterial
  3
ObjectDBX Classes
 90
     1153
 91
        3
280
     0
281
     0
  0
CLASS
  1
SCALE
  2
AcDbScale
  3
ObjectDBX Classes
 90
     1153
 91
       33
280
     0
281
     0
  0
CLASS
  1
DICTIONARYVAR
  2
AcDbDictionaryVar
  3
ObjectDBX Classes
 90
        0
 91
       17
280
     0
281
     0
  0
CLASS
  1
TABLESTYLE
  2
AcDbTableStyle
  3
ObjectDBX Classes
 90
     4095
 91
        1
280
     0
281
     0
  0
CLASS
  1
MLEADERSTYLE
  2
AcDbMLeaderStyle
  3
ACDB_MLEADERSTYLE_CLASS
 90
     4095
 91
        1
280
     0
281
     0
  0
CLASS
  1
ACDBSECTIONVIEWSTYLE
  2
AcDbSectionViewStyle
  3
ObjectDBX Classes
 90
     1025
 91
        1
280
     0
281
     0
  0
CLASS
  1
ACDBDETAILVIEWSTYLE
  2
AcDbDetailViewStyle
  3
ObjectDBX Classes
 90
     1025
 91
        1
280
     0
281
     0
  0
CLASS
  1
EXACXREFPANELOBJECT
  2
ExAcXREFPanelObject
  3
EXAC_ESW
 90
     1025
 91
        1
280
     0
281
     0
  0
CLASS
  1
NPOCOLLECTION
  2
AcDbImpNonPersistentObjectsCollection
  3
ObjectDBX Classes
 90
     1153
 91
        1
280
     0
281
     0
  0
CLASS
  1
IMAGE
  2
AcDbRasterImage
  3
ISM
 90
     2175
 91
        2
280
     0
281
     1
  0
CLASS
  1
IMAGEDEF_REACTOR
  2
AcDbRasterImageDefReactor
  3
ISM
 90
        1
 91
        2
280
     0
281
     0
  0
CLASS
  1
SORTENTSTABLE
  2
AcDbSortentsTable
  3
ObjectDBX Classes
 90
        0
 91
        1
280
     0
281
     0
  0
CLASS
  1
IMAGEDEF
  2
AcDbRasterImageDef
  3
ISM
 90
        0
 91
        2
280
     0
281
     0
  0
CLASS
  1
RASTERVARIABLES
  2
AcDbRasterVariables
  3
ISM
 90
        0
 91
        1
280
     0
281
     0
  0
CLASS
  1
ACDBASSOCNETWORK
  2
AcDbAssocNetwork
  3
ObjectDBX Classes
 90
     1025
 91
        0
280
     0
281
     0
  0
CLASS
  1
ACDBASSOC2DCONSTRAINTGROUP
  2
AcDbAssoc2dConstraintGroup
  3
ObjectDBX Classes
 90
     1025
 91
        0
280
     0
281
     0
  0
CLASS
  1
ACDBASSOCGEOMDEPENDENCY
  2
AcDbAssocGeomDependency
  3
ObjectDBX Classes
 90
     1025
 91
        0
280
     0
281
     0
  0
CLASS
  1
CELLSTYLEMAP
  2
AcDbCellStyleMap
  3
ObjectDBX Classes
 90
     1152
 91
        2
280
     0
281
     0
  0
ENDSEC
  0
SECTION
  2
TABLES
  0
TABLE
  2
VPORT
  5
8
330
0
100
AcDbSymbolTable
 70
     1
  0
VPORT
  5
29
330
8
100
AcDbSymbolTableRecord
100
AcDbViewportTableRecord
  2
*Active
 70
     0
 10
0.0
 20
0.0
 11
1.0
 21
1.0
 12
11712.88983039719
 22
-1001.634312615794
 13
0.0
 23
0.0
 14
0.5
 24
0.5
 15
0.5
 25
0.5
 16
0.0
 26
0.0
 36
1.0
 17
0.0
 27
0.0
 37
0.0
 40
729.6835447170645
 41
1.816348195329086
 42
50.0
 43
0.0
 44
0.0
 50
0.0
 51
0.0
 71
     0
 72
   100
 73
     1
 74
     3
 75
     0
 76
     0
 77
     0
 78
     0
281
     0
 65
     1
110
0.0
120
0.0
130
0.0
111
1.0
121
0.0
131
0.0
112
0.0
122
1.0
132
0.0
 79
     0
146
0.0
348
2F
 60
     3
 61
     5
292
     1
282
     1
141
0.0
142
0.0
 63
   250
1001
ACAD_NAV_VCDISPLAY
1070
     3
  0
ENDTAB
  0
TABLE
  2
LTYPE
  5
5
330
0
100
AcDbSymbolTable
 70
     7
  0
LTYPE
  5
14
330
5
100
AcDbSymbolTableRecord
100
AcDbLinetypeTableRecord
  2
ByBlock
 70
     0
  3

 72
    65
 73
     0
 40
0.0
  0
LTYPE
  5
15
330
5
100
AcDbSymbolTableRecord
100
AcDbLinetypeTableRecord
  2
ByLayer
 70
     0
  3

 72
    65
 73
     0
 40
0.0
  0
LTYPE
  5
16
330
5
100
AcDbSymbolTableRecord
100
AcDbLinetypeTableRecord
  2
Continuous
 70
     0
  3
Solid line
 72
    65
 73
     0
 40
0.0
  0
LTYPE
  5
177
330
5
100
AcDbSymbolTableRecord
100
AcDbLinetypeTableRecord
  2
Hidden
 70
     0
  3
- - - - - 
 72
    65
 73
     2
 40
4.938889980316162
 49
2.822222709655761
 74
     0
 49
-2.1166672706604
 74
     0
  0
LTYPE
  5
1A2
330
5
100
AcDbSymbolTableRecord
100
AcDbLinetypeTableRecord
  2
Sketch
 70
     0
  3
??????????
 72
    65
 73
     3
 40
40.0
 49
0.0
 74
     4
 75
     1
340
1A3
 46
0.3174603174603174
 50
0.0
 44
0.0
 45
0.0
 49
-40.0
 74
     0
 49
0.0
 74
     0
  0
LTYPE
  5
1B2
330
5
100
AcDbSymbolTableRecord
100
AcDbLinetypeTableRecord
  2
Above
 70
     0
  3
- - - - - 
 72
    65
 73
     2
 40
9.599999999999999
 49
6.0
 74
     0
 49
-3.6
 74
     0
  0
LTYPE
  5
22D
330
5
100
AcDbSymbolTableRecord
100
AcDbLinetypeTableRecord
  2
ZIGZAG
 70
     0
  3
Zig zag /\/\/\/\/\/\/\/\/\/\/\/\/\/\/\/\/\/\/\/
 72
    65
 73
     4
 40
0.8001000000000001
 49
0.0001
 74
     0
 49
-0.2
 74
     4
 75
   131
340
232
 46
0.2
 50
0.0
 44
-0.2
 45
0.0
 49
-0.4
 74
     4
 75
   131
340
232
 46
0.2
 50
180.0
 44
0.2
 45
0.0
 49
-0.2
 74
     0
  0
LTYPE
  5
22E
330
5
100
AcDbSymbolTableRecord
100
AcDbLinetypeTableRecord
  2
DASHEDX2
 70
     0
  3
Dashed (2x) ____  ____  ____  ____  ____  ___
 72
    65
 73
     2
 40
1.5
 49
1.0
 74
     0
 49
-0.5
 74
     0
  0
LTYPE
  5
A7F
330
5
100
AcDbSymbolTableRecord
100
AcDbLinetypeTableRecord
  2
PLASTER
 70
     0
  3
PLASTER
 72
    65
 73
     2
 40
2.379214999999999
 49
0.000024
 74
     4
 75
     1
340
A80
 46
0.2
 50
0.0
 44
0.0
 45
0.0
 49
-2.379191
 74
     0
  0
ENDTAB
  0
TABLE
  2
LAYER
  5
2
102
{ACAD_XDICTIONARY
360
239
102
}
330
0
100
AcDbSymbolTable
 70
     5
  0
LAYER
  5
10
102
{ACAD_XDICTIONARY
360
266
102
}
330
2
100
AcDbSymbolTableRecord
100
AcDbLayerTableRecord
  2
0
 70
     0
 62
     7
  6
Continuous
370
    -3
390
F
347
3E
  0
LAYER
  5
46
102
{ACAD_XDICTIONARY
360
268
102
}
330
2
100
AcDbSymbolTableRecord
100
AcDbLayerTableRecord
  2
Specialized_Fills
 70
     0
 62
     7
  6
Continuous
370
    -3
390
F
347
3E
  0
LAYER
  5
179
102
{ACAD_XDICTIONARY
360
26A
102
}
330
2
100
AcDbSymbolTableRecord
100
AcDbLayerTableRecord
  2
Specialized_Lines
 70
     0
 62
     7
  6
Continuous
370
    -3
390
F
347
3E
  0
LAYER
  5
17E
102
{ACAD_XDICTIONARY
360
26C
102
}
330
2
100
AcDbSymbolTableRecord
100
AcDbLayerTableRecord
  2
Specialized_Text
 70
     0
 62
     7
  6
Continuous
370
    -3
390
F
347
3E
  0
LAYER
  5
22F
102
{ACAD_XDICTIONARY
360
230
102
}
330
2
100
AcDbSymbolTableRecord
100
AcDbLayerTableRecord
  2
Viewport
 70
     0
 62
     7
  6
Continuous
370
    -3
390
F
347
3E
1001
AcAecLayerStandard
1000

1000

1001
AcCmTransparency
1071
        0
  0
ENDTAB
  0
TABLE
  2
STYLE
  5
3
330
0
100
AcDbSymbolTable
 70
     6
  0
STYLE
  5
11
330
3
100
AcDbSymbolTableRecord
100
AcDbTextStyleTableRecord
  2
Standard
 70
     0
 40
0.0
 41
1.0
 50
0.0
 71
     0
 42
0.2
  3
txt
  4
BIGFONT.SHX
  0
STYLE
  5
1A3
330
3
100
AcDbSymbolTableRecord
100
AcDbTextStyleTableRecord
  2

 70
     1
 40
0.2
 41
1.0
 50
0.0
 71
     0
 42
0.2
  3
19B Wall_ Fixings - ATTACHMENTS _ 5KG1.Shx
  4

  0
STYLE
  5
1D5
330
3
100
AcDbSymbolTableRecord
100
AcDbTextStyleTableRecord
  2
GENERATED_STYLE_1
 70
     0
 40
0.0
 41
1.0
 50
0.0
 71
     0
 42
0.2
  3
ARIALUNI.TTF
  4

1001
ACAD
1000
Arial Unicode MS
1071
       34
  0
STYLE
  5
231
330
3
100
AcDbSymbolTableRecord
100
AcDbTextStyleTableRecord
  2
GENERATED_STYLE_2
 70
     0
 40
0.0
 41
1.0
 50
0.0
 71
     0
 42
0.2
  3
ARIALUNI.TTF
  4

1001
ACAD
1000
Arial Unicode MS
1071
       34
  0
STYLE
  5
232
330
3
100
AcDbSymbolTableRecord
100
AcDbTextStyleTableRecord
  2

 70
     1
 40
0.0
 41
1.0
 50
0.0
 71
     0
 42
0.2
  3
ltypeshp.shx
  4

  0
STYLE
  5
A80
330
3
100
AcDbSymbolTableRecord
100
AcDbTextStyleTableRecord
  2

 70
     1
 40
0.0
 41
1.0
 50
0.0
 71
     0
 42
0.2
  3
P:\VERT-X CONSULTING LTD\2013\10 OCT\1310-015- SPECIALIZED CONSTRUCTION PRODUCTS - CONTRACT DRAUGHTING\DRAWINGS\PLASTER.SHX
  4

  0
ENDTAB
  0
TABLE
  2
VIEW
  5
6
330
0
100
AcDbSymbolTable
 70
     0
  0
ENDTAB
  0
TABLE
  2
UCS
  5
7
330
0
100
AcDbSymbolTable
 70
     0
  0
ENDTAB
  0
TABLE
  2
APPID
  5
9
330
0
100
AcDbSymbolTable
 70
     8
  0
APPID
  5
12
330
9
100
AcDbSymbolTableRecord
100
AcDbRegAppTableRecord
  2
ACAD
 70
     0
  0
APPID
  5
233
330
9
100
AcDbSymbolTableRecord
100
AcDbRegAppTableRecord
  2
ACAD_PSEXT
 70
     0
  0
APPID
  5
234
330
9
100
AcDbSymbolTableRecord
100
AcDbRegAppTableRecord
  2
ACAD_NAV_VCDISPLAY
 70
     0
  0
APPID
  5
235
330
9
100
AcDbSymbolTableRecord
100
AcDbRegAppTableRecord
  2
AcAecLayerStandard
 70
     0
  0
APPID
  5
236
330
9
100
AcDbSymbolTableRecord
100
AcDbRegAppTableRecord
  2
AcCmTransparency
 70
     0
  0
APPID
  5
237
330
9
100
AcDbSymbolTableRecord
100
AcDbRegAppTableRecord
  2
GradientColor1ACI
 70
     0
  0
APPID
  5
238
330
9
100
AcDbSymbolTableRecord
100
AcDbRegAppTableRecord
  2
GradientColor2ACI
 70
     0
  0
APPID
  5
264
330
9
100
AcDbSymbolTableRecord
100
AcDbRegAppTableRecord
  2
ACAD_EXEMPT_FROM_CAD_STANDARDS
 70
     0
  0
ENDTAB
  0
TABLE
  2
DIMSTYLE
  5
A
330
0
100
AcDbSymbolTable
 70
     2
100
AcDbDimStyleTable
 71
     1
340
27
  0
DIMSTYLE
105
27
330
A
100
AcDbSymbolTableRecord
100
AcDbDimStyleTableRecord
  2
Standard
 70
     0
340
11
  0
DIMSTYLE
105
1D8
330
A
100
AcDbSymbolTableRecord
100
AcDbDimStyleTableRecord
  2
GENERATED_STYLE__1
 70
     0
 41
7.295999999999999
172
     1
341
1D9
  0
ENDTAB
  0
TABLE
  2
BLOCK_RECORD
  5
1
330
0
100
AcDbSymbolTable
 70
     5
  0
BLOCK_RECORD
  5
1F
102
{ACAD_XDICTIONARY
360
2AE
102
}
330
1
100
AcDbSymbolTableRecord
100
AcDbBlockTableRecord
  2
*Model_Space
340
22
 70
     0
280
     1
281
     0
  0
BLOCK_RECORD
  5
1B
330
1
100
AcDbSymbolTableRecord
100
AcDbBlockTableRecord
  2
*Paper_Space
340
1E
 70
     0
280
     1
281
     0
  0
BLOCK_RECORD
  5
23
330
1
100
AcDbSymbolTableRecord
100
AcDbBlockTableRecord
  2
*Paper_Space0
340
26
 70
     0
280
     1
281
     0
  0
BLOCK_RECORD
  5
3F
330
1
100
AcDbSymbolTableRecord
100
AcDbBlockTableRecord
  2
Fill_1
340
0
 70
     0
280
     1
281
     0
  0
BLOCK_RECORD
  5
42
330
1
100
AcDbSymbolTableRecord
100
AcDbBlockTableRecord
  2
*X2
340
0
102
{BLKREFS
331
14B
102
}
 70
     0
280
     1
281
     0
  0
BLOCK_RECORD
  5
1D9
330
1
100
AcDbSymbolTableRecord
100
AcDbBlockTableRecord
  2
ARROWHEAD_5
340
0
 70
     0
280
     1
281
     0
  0
BLOCK_RECORD
  5
1E8
330
1
100
AcDbSymbolTableRecord
100
AcDbBlockTableRecord
  2
19B Wall_ Fixings - ATTACHMENTS_STORY_MARKER
340
0
 70
     0
280
     1
281
     0
  0
ENDTAB
  0
ENDSEC
  0
SECTION
  2
BLOCKS
  0
BLOCK
  5
20
330
1F
100
AcDbEntity
  8
0
100
AcDbBlockBegin
  2
*Model_Space
 70
     0
 10
0.0
 20
0.0
 30
0.0
  3
*Model_Space
  1

  0
ENDBLK
  5
21
330
1F
100
AcDbEntity
  8
0
100
AcDbBlockEnd
  0
BLOCK
  5
1C
330
1B
100
AcDbEntity
 67
     1
  8
0
100
AcDbBlockBegin
  2
*Paper_Space
 70
     0
 10
0.0
 20
0.0
 30
0.0
  3
*Paper_Space
  1

  0
ENDBLK
  5
1D
330
1B
100
AcDbEntity
 67
     1
  8
0
100
AcDbBlockEnd
  0
BLOCK
  5
24
330
23
100
AcDbEntity
 67
     1
  8
0
100
AcDbBlockBegin
  2
*Paper_Space0
 70
     0
 10
0.0
 20
0.0
 30
0.0
  3
*Paper_Space0
  1

  0
ENDBLK
  5
25
330
23
100
AcDbEntity
 67
     1
  8
0
100
AcDbBlockEnd
  0
BLOCK
  5
40
330
3F
100
AcDbEntity
  8
0
100
AcDbBlockBegin
  2
Fill_1
 70
     0
 10
0.0
 20
0.0
 30
0.0
  3
Fill_1
  1

  0
INSERT
  5
14B
330
3F
100
AcDbEntity
  8
Specialized_Fills
  6
Continuous
 62
    30
420
 16742400
370
    20
100
AcDbBlockReference
  2
*X2
 10
0.0
 20
0.0
 30
0.0
  0
ENDBLK
  5
41
330
3F
100
AcDbEntity
  8
0
100
AcDbBlockEnd
  0
BLOCK
  5
43
330
42
100
AcDbEntity
  8
0
100
AcDbBlockBegin
  2
*X2
 70
     1
 10
0.0
 20
0.0
 30
0.0
  3
*X2
  1

  0
ARC
  5
45
330
42
100
AcDbEntity
  8
Specialized_Fills
  6
Continuous
 62
    30
420
 16742400
370
    20
100
AcDbCircle
 10
11537.01570101776
 20
-1030.091015060666
 30
0.0
 40
2.467047418139856
100
AcDbArc
 50
350.792769385371
 51
189.4999688365711
  0
CIRCLE
  5
47
330
42
100
AcDbEntity
  8
Specialized_Fills
  6
Continuous
 62
    30
420
 16742400
370
    20
100
AcDbCircle
 10
11568.39712398533
 20
-1018.669111191552
 30
0.0
 40
2.467047418139856
  0
ARC
  5
48
330
42
100
AcDbEntity
  8
Specialized_Fills
  6
Continuous
 62
    30
420
 16742400
370
    20
100
AcDbCircle
 10
11525.59179779981
 20
-998.7040989272987
 30
0.0
 40
2.467047418139856
100
AcDbArc
 50
313.5307342510697
 51
46.46926574893202
  0
CIRCLE
  5
49
330
42
100
AcDbEntity
  8
Specialized_Fills
  6
Continuous
 62
    30
420
 16742400
370
    20
100
AcDbCircle
 10
11556.97322076738
 20
-987.2821950581846
 30
0.0
 40
2.467047418139856
  0
ARC
  5
4A
330
42
100
AcDbEntity
  8
Specialized_Fills
  6
Continuous
 62
    30
420
 16742400
370
    20
100
AcDbCircle
 10
11545.54931754942
 20
-955.8952789248177
 30
0.0
 40
2.467047418139856
100
AcDbArc
 50
145.6252427884118
 51
34.14257178373303
  0
ARC
  5
4B
330
42
100
AcDbEntity
  8
Specialized_Fills
  6
Continuous
 62
    30
420
 16742400
370
    20
100
AcDbCircle
 10
11576.93074051699
 20
-944.4733750557041
 30
0.0
 40
2.467047418139856
100
AcDbArc
 50
327.0737608713262
 51
212.6880695495339
  0
CIRCLE
  5
4C
330
42
100
AcDbEntity
  8
Specialized_Fills
  6
Continuous
 62
    30
420
 16742400
370
    20
100
AcDbCircle
 10
11534.12541433147
 20
-924.5083627914508
 30
0.0
 40
2.467047418139856
  0
CIRCLE
  5
4D
330
42
100
AcDbEntity
  8
Specialized_Fills
  6
Continuous
 62
    30
420
 16742400
370
    20
100
AcDbCircle
 10
11565.50683729904
 20
-913.0864589223373
 30
0.0
 40
2.467047418139856
  0
CIRCLE
  5
4E
330
42
100
AcDbEntity
  8
Specialized_Fills
  6
Continuous
 62
    30
420
 16742400
370
    20
100
AcDbCircle
 10
11554.08293408108
 20
-881.6995427889704
 30
0.0
 40
2.467047418139856
  0
CIRCLE
  5
4F
330
42
100
AcDbEntity
  8
Specialized_Fills
  6
Continuous
 62
    30
420
 16742400
370
    20
100
AcDbCircle
 10
11571.01466206747
 20
-1023.024816361741
 30
0.0
 40
1.884663110930518
  0
ARC
  5
50
330
42
100
AcDbEntity
  8
Specialized_Fills
  6
Continuous
 62
    30
420
 16742400
370
    20
100
AcDbCircle
 10
11528.20933588194
 20
-1003.059804097488
 30
0.0
 40
1.884663110930518
100
AcDbArc
 50
240.8374697547387
 51
119.1625302452613
  0
CIRCLE
  5
51
330
42
100
AcDbEntity
  8
Specialized_Fills
  6
Continuous
 62
    30
420
 16742400
370
    20
100
AcDbCircle
 10
11559.59075884951
 20
-991.6379002283736
 30
0.0
 40
1.884663110930518
  0
CIRCLE
  5
52
330
42
100
AcDbEntity
  8
Specialized_Fills
  6
Continuous
 62
    30
420
 16742400
370
    20
100
AcDbCircle
 10
11548.16685563155
 20
-960.2509840950068
 30
0.0
 40
1.884663110930518
  0
CIRCLE
  5
53
330
42
100
AcDbEntity
  8
Specialized_Fills
  6
Continuous
 62
    30
420
 16742400
370
    20
100
AcDbCircle
 10
11536.7429524136
 20
-928.8640679616399
 30
0.0
 40
1.884663110930518
  0
CIRCLE
  5
54
330
42
100
AcDbEntity
  8
Specialized_Fills
  6
Continuous
 62
    30
420
 16742400
370
    20
100
AcDbCircle
 10
11568.12437538117
 20
-917.4421640925263
 30
0.0
 40
1.884663110930518
  0
CIRCLE
  5
55
330
42
100
AcDbEntity
  8
Specialized_Fills
  6
Continuous
 62
    30
420
 16742400
370
    20
100
AcDbCircle
 10
11556.70047216322
 20
-886.0552479591595
 30
0.0
 40
1.884663110930518
  0
CIRCLE
  5
56
330
42
100
AcDbEntity
  8
Specialized_Fills
  6
Continuous
 62
    30
420
 16742400
370
    20
100
AcDbCircle
 10
11529.38406629383
 20
-1012.364324246034
 30
0.0
 40
1.668521729680527
  0
CIRCLE
  5
57
330
42
100
AcDbEntity
  8
Specialized_Fills
  6
Continuous
 62
    30
420
 16742400
370
    20
100
AcDbCircle
 10
11560.7654892614
 20
-1000.942420376921
 30
0.0
 40
1.668521729680527
  0
CIRCLE
  5
58
330
42
100
AcDbEntity
  8
Specialized_Fills
  6
Continuous
 62
    30
420
 16742400
370
    20
100
AcDbCircle
 10
11549.34158604345
 20
-969.5555042435536
 30
0.0
 40
1.668521729680527
  0
CIRCLE
  5
59
330
42
100
AcDbEntity
  8
Specialized_Fills
  6
Continuous
 62
    30
420
 16742400
370
    20
100
AcDbCircle
 10
11580.72300901102
 20
-958.13360037444
 30
0.0
 40
1.668521729680527
  0
CIRCLE
  5
5A
330
42
100
AcDbEntity
  8
Specialized_Fills
  6
Continuous
 62
    30
420
 16742400
370
    20
100
AcDbCircle
 10
11537.91768282549
 20
-938.1685881101867
 30
0.0
 40
1.668521729680527
  0
CIRCLE
  5
5B
330
42
100
AcDbEntity
  8
Specialized_Fills
  6
Continuous
 62
    30
420
 16742400
370
    20
100
AcDbCircle
 10
11569.29910579306
 20
-926.7466842410732
 30
0.0
 40
1.668521729680527
  0
ARC
  5
5C
330
42
100
AcDbEntity
  8
Specialized_Fills
  6
Continuous
 62
    30
420
 16742400
370
    20
100
AcDbCircle
 10
11526.49377960754
 20
-906.7816719768199
 30
0.0
 40
1.668521729680527
100
AcDbArc
 50
298.5403128223448
 51
61.45968717765521
  0
CIRCLE
  5
5D
330
42
100
AcDbEntity
  8
Specialized_Fills
  6
Continuous
 62
    30
420
 16742400
370
    20
100
AcDbCircle
 10
11557.87520257511
 20
-895.3597681077063
 30
0.0
 40
1.668521729680527
  0
ARC
  5
5E
330
42
100
AcDbEntity
  8
Specialized_Fills
  6
Continuous
 62
    30
420
 16742400
370
    20
100
AcDbCircle
 10
11584.32236453824
 20
-959.9201152528248
 30
0.0
 40
2.35557420874174
100
AcDbArc
 50
142.4038304151985
 51
217.5961695848015
  0
CIRCLE
  5
5F
330
42
100
AcDbEntity
  8
Specialized_Fills
  6
Continuous
 62
    30
420
 16742400
370
    20
100
AcDbCircle
 10
11536.90446253653
 20
-1022.898151661662
 30
0.0
 40
0.831379126126208
  0
CIRCLE
  5
60
330
42
100
AcDbEntity
  8
Specialized_Fills
  6
Continuous
 62
    30
420
 16742400
370
    20
100
AcDbCircle
 10
11568.2858855041
 20
-1011.476247792548
 30
0.0
 40
0.831379126126208
  0
CIRCLE
  5
61
330
42
100
AcDbEntity
  8
Specialized_Fills
  6
Continuous
 62
    30
420
 16742400
370
    20
100
AcDbCircle
 10
11556.86198228615
 20
-980.0893316591814
 30
0.0
 40
0.831379126126208
  0
CIRCLE
  5
62
330
42
100
AcDbEntity
  8
Specialized_Fills
  6
Continuous
 62
    30
420
 16742400
370
    20
100
AcDbCircle
 10
11576.81950203576
 20
-937.2805116567009
 30
0.0
 40
0.831379126126208
  0
CIRCLE
  5
63
330
42
100
AcDbEntity
  8
Specialized_Fills
  6
Continuous
 62
    30
420
 16742400
370
    20
100
AcDbCircle
 10
11534.01417585024
 20
-917.3154993924477
 30
0.0
 40
0.831379126126208
  0
CIRCLE
  5
64
330
42
100
AcDbEntity
  8
Specialized_Fills
  6
Continuous
 62
    30
420
 16742400
370
    20
100
AcDbCircle
 10
11565.39559881781
 20
-905.8935955233341
 30
0.0
 40
0.831379126126208
  0
CIRCLE
  5
65
330
42
100
AcDbEntity
  8
Specialized_Fills
  6
Continuous
 62
    30
420
 16742400
370
    20
100
AcDbCircle
 10
11553.97169559985
 20
-874.5066793899672
 30
0.0
 40
0.831379126126208
  0
CIRCLE
  5
66
330
42
100
AcDbEntity
  8
Specialized_Fills
  6
Continuous
 62
    30
420
 16742400
370
    20
100
AcDbCircle
 10
11542.17209353611
 20
-1021.570714230401
 30
0.0
 40
0.5542527507506278
  0
CIRCLE
  5
67
330
42
100
AcDbEntity
  8
Specialized_Fills
  6
Continuous
 62
    30
420
 16742400
370
    20
100
AcDbCircle
 10
11573.55351650368
 20
-1010.148810361287
 30
0.0
 40
0.5542527507506278
  0
CIRCLE
  5
68
330
42
100
AcDbEntity
  8
Specialized_Fills
  6
Continuous
 62
    30
420
 16742400
370
    20
100
AcDbCircle
 10
11530.74819031815
 20
-990.1837980970347
 30
0.0
 40
0.5542527507506278
  0
CIRCLE
  5
69
330
42
100
AcDbEntity
  8
Specialized_Fills
  6
Continuous
 62
    30
420
 16742400
370
    20
100
AcDbCircle
 10
11562.12961328572
 20
-978.7618942279205
 30
0.0
 40
0.5542527507506278
  0
ARC
  5
6A
330
42
100
AcDbEntity
  8
Specialized_Fills
  6
Continuous
 62
    30
420
 16742400
370
    20
100
AcDbCircle
 10
11582.08713303534
 20
-935.9530742254401
 30
0.0
 40
0.5542527507506278
100
AcDbArc
 50
46.14402212349129
 51
313.4446240523015
  0
CIRCLE
  5
6B
330
42
100
AcDbEntity
  8
Specialized_Fills
  6
Continuous
 62
    30
420
 16742400
370
    20
100
AcDbCircle
 10
11539.28180684981
 20
-915.9880619611868
 30
0.0
 40
0.5542527507506278
  0
CIRCLE
  5
6C
330
42
100
AcDbEntity
  8
Specialized_Fills
  6
Continuous
 62
    30
420
 16742400
370
    20
100
AcDbCircle
 10
11570.66322981738
 20
-904.5661580920732
 30
0.0
 40
0.5542527507506278
  0
CIRCLE
  5
6D
330
42
100
AcDbEntity
  8
Specialized_Fills
  6
Continuous
 62
    30
420
 16742400
370
    20
100
AcDbCircle
 10
11527.85790363186
 20
-884.60114582782
 30
0.0
 40
0.5542527507506278
  0
CIRCLE
  5
6E
330
42
100
AcDbEntity
  8
Specialized_Fills
  6
Continuous
 62
    30
420
 16742400
370
    20
100
AcDbCircle
 10
11559.23932659943
 20
-873.1792419587064
 30
0.0
 40
0.5542527507506278
  0
CIRCLE
  5
6F
330
42
100
AcDbEntity
  8
Specialized_Fills
  6
Continuous
 62
    30
420
 16742400
370
    20
100
AcDbCircle
 10
11543.92079343959
 20
-1010.16996141416
 30
0.0
 40
1.498790034299268
  0
CIRCLE
  5
70
330
42
100
AcDbEntity
  8
Specialized_Fills
  6
Continuous
 62
    30
420
 16742400
370
    20
100
AcDbCircle
 10
11575.30221640717
 20
-998.7480575450462
 30
0.0
 40
1.498790034299268
  0
CIRCLE
  5
71
330
42
100
AcDbEntity
  8
Specialized_Fills
  6
Continuous
 62
    30
420
 16742400
370
    20
100
AcDbCircle
 10
11532.49689022164
 20
-978.7830452807936
 30
0.0
 40
1.498790034299268
  0
CIRCLE
  5
72
330
42
100
AcDbEntity
  8
Specialized_Fills
  6
Continuous
 62
    30
420
 16742400
370
    20
100
AcDbCircle
 10
11563.87831318921
 20
-967.3611414116793
 30
0.0
 40
1.498790034299268
  0
CIRCLE
  5
73
330
42
100
AcDbEntity
  8
Specialized_Fills
  6
Continuous
 62
    30
420
 16742400
370
    20
100
AcDbCircle
 10
11552.45440997126
 20
-935.9742252783126
 30
0.0
 40
1.498790034299268
  0
ARC
  5
74
330
42
100
AcDbEntity
  8
Specialized_Fills
  6
Continuous
 62
    30
420
 16742400
370
    20
100
AcDbCircle
 10
11583.83583293883
 20
-924.5523214091988
 30
0.0
 40
1.498790034299268
100
AcDbArc
 50
151.9440448104641
 51
207.644601365216
  0
CIRCLE
  5
75
330
42
100
AcDbEntity
  8
Specialized_Fills
  6
Continuous
 62
    30
420
 16742400
370
    20
100
AcDbCircle
 10
11541.0305067533
 20
-904.5873091449458
 30
0.0
 40
1.498790034299268
  0
CIRCLE
  5
76
330
42
100
AcDbEntity
  8
Specialized_Fills
  6
Continuous
 62
    30
420
 16742400
370
    20
100
AcDbCircle
 10
11572.41192972087
 20
-893.165405275832
 30
0.0
 40
1.498790034299268
  0
CIRCLE
  5
77
330
42
100
AcDbEntity
  8
Specialized_Fills
  6
Continuous
 62
    30
420
 16742400
370
    20
100
AcDbCircle
 10
11529.60660353534
 20
-873.2003930115789
 30
0.0
 40
1.498790034299268
  0
ARC
  5
78
330
42
100
AcDbEntity
  8
Specialized_Fills
  6
Continuous
 62
    30
420
 16742400
370
    20
100
AcDbCircle
 10
11582.24978407637
 20
-1025.128712677819
 30
0.0
 40
1.23934682739506
100
AcDbArc
 50
80.42330012456128
 51
279.5766998754388
  0
CIRCLE
  5
79
330
42
100
AcDbEntity
  8
Specialized_Fills
  6
Continuous
 62
    30
420
 16742400
370
    20
100
AcDbCircle
 10
11539.44445789084
 20
-1005.163700413566
 30
0.0
 40
1.23934682739506
  0
CIRCLE
  5
7A
330
42
100
AcDbEntity
  8
Specialized_Fills
  6
Continuous
 62
    30
420
 16742400
370
    20
100
AcDbCircle
 10
11570.82588085841
 20
-993.7417965444518
 30
0.0
 40
1.23934682739506
  0
ARC
  5
7B
330
42
100
AcDbEntity
  8
Specialized_Fills
  6
Continuous
 62
    30
420
 16742400
370
    20
100
AcDbCircle
 10
11528.02055467288
 20
-973.7767842801991
 30
0.0
 40
1.23934682739506
100
AcDbArc
 50
233.9357425430921
 51
126.0642574569079
  0
CIRCLE
  5
7C
330
42
100
AcDbEntity
  8
Specialized_Fills
  6
Continuous
 62
    30
420
 16742400
370
    20
100
AcDbCircle
 10
11559.40197764046
 20
-962.354880411085
 30
0.0
 40
1.23934682739506
  0
CIRCLE
  5
7D
330
42
100
AcDbEntity
  8
Specialized_Fills
  6
Continuous
 62
    30
420
 16742400
370
    20
100
AcDbCircle
 10
11547.9780744225
 20
-930.9679642777181
 30
0.0
 40
1.23934682739506
  0
CIRCLE
  5
7E
330
42
100
AcDbEntity
  8
Specialized_Fills
  6
Continuous
 62
    30
420
 16742400
370
    20
100
AcDbCircle
 10
11579.35949739007
 20
-919.5460604086044
 30
0.0
 40
1.23934682739506
  0
CIRCLE
  5
7F
330
42
100
AcDbEntity
  8
Specialized_Fills
  6
Continuous
 62
    30
420
 16742400
370
    20
100
AcDbCircle
 10
11536.55417120455
 20
-899.5810481443513
 30
0.0
 40
1.23934682739506
  0
CIRCLE
  5
80
330
42
100
AcDbEntity
  8
Specialized_Fills
  6
Continuous
 62
    30
420
 16742400
370
    20
100
AcDbCircle
 10
11567.93559417212
 20
-888.1591442752377
 30
0.0
 40
1.23934682739506
  0
CIRCLE
  5
81
330
42
100
AcDbEntity
  8
Specialized_Fills
  6
Continuous
 62
    30
420
 16742400
370
    20
100
AcDbCircle
 10
11577.34788230481
 20
-1022.194271352501
 30
0.0
 40
2.110531596509446
  0
CIRCLE
  5
82
330
42
100
AcDbEntity
  8
Specialized_Fills
  6
Continuous
 62
    30
420
 16742400
370
    20
100
AcDbCircle
 10
11534.54255611929
 20
-1002.229259088247
 30
0.0
 40
2.110531596509446
  0
CIRCLE
  5
83
330
42
100
AcDbEntity
  8
Specialized_Fills
  6
Continuous
 62
    30
420
 16742400
370
    20
100
AcDbCircle
 10
11565.92397908686
 20
-990.8073552191334
 30
0.0
 40
2.110531596509446
  0
CIRCLE
  5
84
330
42
100
AcDbEntity
  8
Specialized_Fills
  6
Continuous
 62
    30
420
 16742400
370
    20
100
AcDbCircle
 10
11554.5000758689
 20
-959.4204390857665
 30
0.0
 40
2.110531596509446
  0
CIRCLE
  5
85
330
42
100
AcDbEntity
  8
Specialized_Fills
  6
Continuous
 62
    30
420
 16742400
370
    20
100
AcDbCircle
 10
11543.07617265095
 20
-928.0335229523997
 30
0.0
 40
2.110531596509446
  0
CIRCLE
  5
86
330
42
100
AcDbEntity
  8
Specialized_Fills
  6
Continuous
 62
    30
420
 16742400
370
    20
100
AcDbCircle
 10
11574.45759561852
 20
-916.6116190832861
 30
0.0
 40
2.110531596509446
  0
CIRCLE
  5
87
330
42
100
AcDbEntity
  8
Specialized_Fills
  6
Continuous
 62
    30
420
 16742400
370
    20
100
AcDbCircle
 10
11531.65226943299
 20
-896.6466068190328
 30
0.0
 40
2.110531596509446
  0
CIRCLE
  5
88
330
42
100
AcDbEntity
  8
Specialized_Fills
  6
Continuous
 62
    30
420
 16742400
370
    20
100
AcDbCircle
 10
11563.03369240056
 20
-885.2247029499192
 30
0.0
 40
2.110531596509446
  0
CIRCLE
  5
89
330
42
100
AcDbEntity
  8
Specialized_Fills
  6
Continuous
 62
    30
420
 16742400
370
    20
100
AcDbCircle
 10
11573.70352634882
 20
-1028.386751969434
 30
0.0
 40
1.884663110930518
  0
CIRCLE
  5
8A
330
42
100
AcDbEntity
  8
Specialized_Fills
  6
Continuous
 62
    30
420
 16742400
370
    20
100
AcDbCircle
 10
11530.89820016329
 20
-1008.42173970518
 30
0.0
 40
1.884663110930518
  0
CIRCLE
  5
8B
330
42
100
AcDbEntity
  8
Specialized_Fills
  6
Continuous
 62
    30
420
 16742400
370
    20
100
AcDbCircle
 10
11562.27962313086
 20
-996.9998358360665
 30
0.0
 40
1.884663110930518
  0
CIRCLE
  5
8C
330
42
100
AcDbEntity
  8
Specialized_Fills
  6
Continuous
 62
    30
420
 16742400
370
    20
100
AcDbCircle
 10
11550.85571991291
 20
-965.6129197026997
 30
0.0
 40
1.884663110930518
  0
ARC
  5
8D
330
42
100
AcDbEntity
  8
Specialized_Fills
  6
Continuous
 62
    30
420
 16742400
370
    20
100
AcDbCircle
 10
11582.23714288048
 20
-954.1910158335859
 30
0.0
 40
1.884663110930518
100
AcDbArc
 50
191.8210738661311
 51
276.6676621520214
  0
CIRCLE
  5
8E
330
42
100
AcDbEntity
  8
Specialized_Fills
  6
Continuous
 62
    30
420
 16742400
370
    20
100
AcDbCircle
 10
11539.43181669495
 20
-934.2260035693328
 30
0.0
 40
1.884663110930518
  0
CIRCLE
  5
8F
330
42
100
AcDbEntity
  8
Specialized_Fills
  6
Continuous
 62
    30
420
 16742400
370
    20
100
AcDbCircle
 10
11570.81323966252
 20
-922.8040997002191
 30
0.0
 40
1.884663110930518
  0
ARC
  5
90
330
42
100
AcDbEntity
  8
Specialized_Fills
  6
Continuous
 62
    30
420
 16742400
370
    20
100
AcDbCircle
 10
11528.007913477
 20
-902.839087435966
 30
0.0
 40
1.884663110930518
100
AcDbArc
 50
247.6406583898122
 51
112.3593416101878
  0
CIRCLE
  5
91
330
42
100
AcDbEntity
  8
Specialized_Fills
  6
Continuous
 62
    30
420
 16742400
370
    20
100
AcDbCircle
 10
11559.38933644457
 20
-891.4171835668522
 30
0.0
 40
1.884663110930518
  0
ARC
  5
92
330
42
100
AcDbEntity
  8
Specialized_Fills
  6
Continuous
 62
    30
420
 16742400
370
    20
100
AcDbCircle
 10
11531.67516085222
 20
-1030.412798207199
 30
0.0
 40
2.351495271282999
100
AcDbArc
 50
357.8840947603524
 51
182.4086434615846
  0
CIRCLE
  5
93
330
42
100
AcDbEntity
  8
Specialized_Fills
  6
Continuous
 62
    30
420
 16742400
370
    20
100
AcDbCircle
 10
11563.05658381979
 20
-1018.990894338085
 30
0.0
 40
2.351495271282999
  0
CIRCLE
  5
94
330
42
100
AcDbEntity
  8
Specialized_Fills
  6
Continuous
 62
    30
420
 16742400
370
    20
100
AcDbCircle
 10
11551.63268060183
 20
-987.6039782047177
 30
0.0
 40
2.351495271282999
  0
ARC
  5
95
330
42
100
AcDbEntity
  8
Specialized_Fills
  6
Continuous
 62
    30
420
 16742400
370
    20
100
AcDbCircle
 10
11583.01410356941
 20
-976.1820743356036
 30
0.0
 40
2.351495271282999
100
AcDbArc
 50
103.7303064642321
 51
256.2696935357679
  0
CIRCLE
  5
96
330
42
100
AcDbEntity
  8
Specialized_Fills
  6
Continuous
 62
    30
420
 16742400
370
    20
100
AcDbCircle
 10
11540.20877738388
 20
-956.2170620713509
 30
0.0
 40
2.351495271282999
  0
ARC
  5
97
330
42
100
AcDbEntity
  8
Specialized_Fills
  6
Continuous
 62
    30
420
 16742400
370
    20
100
AcDbCircle
 10
11571.59020035145
 20
-944.7951582022367
 30
0.0
 40
2.351495271282999
100
AcDbArc
 50
334.6114617126052
 51
205.15036870825
  0
ARC
  5
98
330
42
100
AcDbEntity
  8
Specialized_Fills
  6
Continuous
 62
    30
420
 16742400
370
    20
100
AcDbCircle
 10
11528.78487416592
 20
-924.830145937984
 30
0.0
 40
2.351495271282999
100
AcDbArc
 50
230.5574979140757
 51
129.4425020859243
  0
CIRCLE
  5
99
330
42
100
AcDbEntity
  8
Specialized_Fills
  6
Continuous
 62
    30
420
 16742400
370
    20
100
AcDbCircle
 10
11560.1662971335
 20
-913.4082420688699
 30
0.0
 40
2.351495271282999
  0
CIRCLE
  5
9A
330
42
100
AcDbEntity
  8
Specialized_Fills
  6
Continuous
 62
    30
420
 16742400
370
    20
100
AcDbCircle
 10
11548.74239391554
 20
-882.021325935503
 30
0.0
 40
2.351495271282999
  0
ARC
  5
9B
330
42
100
AcDbEntity
  8
Specialized_Fills
  6
Continuous
 62
    30
420
 16742400
370
    20
100
AcDbCircle
 10
11580.12381688311
 20
-870.5994220663892
 30
0.0
 40
2.351495271282999
100
AcDbArc
 50
198.2138263109938
 51
341.7861736890062
  0
CIRCLE
  5
9C
330
42
100
AcDbEntity
  8
Specialized_Fills
  6
Continuous
 62
    30
420
 16742400
370
    20
100
AcDbCircle
 10
11562.01684215796
 20
-1025.857387388826
 30
0.0
 40
1.082213091730288
  0
CIRCLE
  5
9D
330
42
100
AcDbEntity
  8
Specialized_Fills
  6
Continuous
 62
    30
420
 16742400
370
    20
100
AcDbCircle
 10
11550.59293894
 20
-994.4704712554589
 30
0.0
 40
1.082213091730288
  0
ARC
  5
9E
330
42
100
AcDbEntity
  8
Specialized_Fills
  6
Continuous
 62
    30
420
 16742400
370
    20
100
AcDbCircle
 10
11581.97436190758
 20
-983.0485673863448
 30
0.0
 40
1.082213091730288
100
AcDbArc
 50
63.57520077627799
 51
296.424799223722
  0
CIRCLE
  5
9F
330
42
100
AcDbEntity
  8
Specialized_Fills
  6
Continuous
 62
    30
420
 16742400
370
    20
100
AcDbCircle
 10
11539.16903572205
 20
-963.083555122092
 30
0.0
 40
1.082213091730288
  0
ARC
  5
A0
330
42
100
AcDbEntity
  8
Specialized_Fills
  6
Continuous
 62
    30
420
 16742400
370
    20
100
AcDbCircle
 10
11527.7451325041
 20
-931.6966389887252
 30
0.0
 40
1.082213091730288
100
AcDbArc
 50
245.1862875310089
 51
114.8137124689911
  0
CIRCLE
  5
A1
330
42
100
AcDbEntity
  8
Specialized_Fills
  6
Continuous
 62
    30
420
 16742400
370
    20
100
AcDbCircle
 10
11559.12655547167
 20
-920.274735119611
 30
0.0
 40
1.082213091730288
  0
CIRCLE
  5
A2
330
42
100
AcDbEntity
  8
Specialized_Fills
  6
Continuous
 62
    30
420
 16742400
370
    20
100
AcDbCircle
 10
11547.70265225371
 20
-888.8878189862442
 30
0.0
 40
1.082213091730288
  0
CIRCLE
  5
A3
330
42
100
AcDbEntity
  8
Specialized_Fills
  6
Continuous
 62
    30
420
 16742400
370
    20
100
AcDbCircle
 10
11579.08407522128
 20
-877.4659151171304
 30
0.0
 40
1.082213091730288
  0
CIRCLE
  5
A4
330
42
100
AcDbEntity
  8
Specialized_Fills
  6
Continuous
 62
    30
420
 16742400
370
    20
100
AcDbCircle
 10
11556.27386256174
 20
-1021.01723539008
 30
0.0
 40
1.859020241092324
  0
CIRCLE
  5
A5
330
42
100
AcDbEntity
  8
Specialized_Fills
  6
Continuous
 62
    30
420
 16742400
370
    20
100
AcDbCircle
 10
11544.84995934378
 20
-989.6303192567124
 30
0.0
 40
1.859020241092324
  0
CIRCLE
  5
A6
330
42
100
AcDbEntity
  8
Specialized_Fills
  6
Continuous
 62
    30
420
 16742400
370
    20
100
AcDbCircle
 10
11576.23138231135
 20
-978.2084153875983
 30
0.0
 40
1.859020241092324
  0
CIRCLE
  5
A7
330
42
100
AcDbEntity
  8
Specialized_Fills
  6
Continuous
 62
    30
420
 16742400
370
    20
100
AcDbCircle
 10
11533.42605612583
 20
-958.2434031233455
 30
0.0
 40
1.859020241092324
  0
ARC
  5
A8
330
42
100
AcDbEntity
  8
Specialized_Fills
  6
Continuous
 62
    30
420
 16742400
370
    20
100
AcDbCircle
 10
11564.8074790934
 20
-946.8214992542314
 30
0.0
 40
1.859020241092324
100
AcDbArc
 50
33.77267744419662
 51
145.9891529766317
  0
CIRCLE
  5
A9
330
42
100
AcDbEntity
  8
Specialized_Fills
  6
Continuous
 62
    30
420
 16742400
370
    20
100
AcDbCircle
 10
11553.38357587544
 20
-915.4345831208646
 30
0.0
 40
1.859020241092324
  0
CIRCLE
  5
AA
330
42
100
AcDbEntity
  8
Specialized_Fills
  6
Continuous
 62
    30
420
 16742400
370
    20
100
AcDbCircle
 10
11541.95967265749
 20
-884.0476669874977
 30
0.0
 40
1.859020241092324
  0
ARC
  5
AB
330
42
100
AcDbEntity
  8
Specialized_Fills
  6
Continuous
 62
    30
420
 16742400
370
    20
100
AcDbCircle
 10
11573.34109562506
 20
-872.6257631183841
 30
0.0
 40
1.859020241092324
100
AcDbArc
 50
136.0015442903107
 51
43.99845570968929
  0
CIRCLE
  5
AC
330
42
100
AcDbEntity
  8
Specialized_Fills
  6
Continuous
 62
    30
420
 16742400
370
    20
100
AcDbCircle
 10
11560.54818691178
 20
-1023.442816894423
 30
0.0
 40
0.8763505458929897
  0
CIRCLE
  5
AD
330
42
100
AcDbEntity
  8
Specialized_Fills
  6
Continuous
 62
    30
420
 16742400
370
    20
100
AcDbCircle
 10
11549.12428369382
 20
-992.0559007610552
 30
0.0
 40
0.8763505458929897
  0
CIRCLE
  5
AE
330
42
100
AcDbEntity
  8
Specialized_Fills
  6
Continuous
 62
    30
420
 16742400
370
    20
100
AcDbCircle
 10
11580.50570666139
 20
-980.6339968919411
 30
0.0
 40
0.8763505458929897
  0
CIRCLE
  5
AF
330
42
100
AcDbEntity
  8
Specialized_Fills
  6
Continuous
 62
    30
420
 16742400
370
    20
100
AcDbCircle
 10
11537.70038047587
 20
-960.6689846276884
 30
0.0
 40
0.8763505458929897
  0
CIRCLE
  5
B0
330
42
100
AcDbEntity
  8
Specialized_Fills
  6
Continuous
 62
    30
420
 16742400
370
    20
100
AcDbCircle
 10
11557.65790022548
 20
-917.8601646252074
 30
0.0
 40
0.8763505458929897
  0
CIRCLE
  5
B1
330
42
100
AcDbEntity
  8
Specialized_Fills
  6
Continuous
 62
    30
420
 16742400
370
    20
100
AcDbCircle
 10
11546.23399700753
 20
-886.4732484918405
 30
0.0
 40
0.8763505458929897
  0
CIRCLE
  5
B2
330
42
100
AcDbEntity
  8
Specialized_Fills
  6
Continuous
 62
    30
420
 16742400
370
    20
100
AcDbCircle
 10
11577.6154199751
 20
-875.0513446227268
 30
0.0
 40
0.8763505458929897
  0
CIRCLE
  5
B3
330
42
100
AcDbEntity
  8
Specialized_Fills
  6
Continuous
 62
    30
420
 16742400
370
    20
100
AcDbCircle
 10
11549.62182630317
 20
-1024.618025500822
 30
0.0
 40
1.364689132099527
  0
CIRCLE
  5
B4
330
42
100
AcDbEntity
  8
Specialized_Fills
  6
Continuous
 62
    30
420
 16742400
370
    20
100
AcDbCircle
 10
11581.00324927074
 20
-1013.196121631708
 30
0.0
 40
1.364689132099527
  0
CIRCLE
  5
B5
330
42
100
AcDbEntity
  8
Specialized_Fills
  6
Continuous
 62
    30
420
 16742400
370
    20
100
AcDbCircle
 10
11538.19792308522
 20
-993.2311093674545
 30
0.0
 40
1.364689132099527
  0
CIRCLE
  5
B6
330
42
100
AcDbEntity
  8
Specialized_Fills
  6
Continuous
 62
    30
420
 16742400
370
    20
100
AcDbCircle
 10
11569.57934605279
 20
-981.8092054983404
 30
0.0
 40
1.364689132099527
  0
ARC
  5
B7
330
42
100
AcDbEntity
  8
Specialized_Fills
  6
Continuous
 62
    30
420
 16742400
370
    20
100
AcDbCircle
 10
11526.77401986726
 20
-961.8441932340877
 30
0.0
 40
1.364689132099527
100
AcDbArc
 50
292.2592244321293
 51
67.74077556787066
  0
CIRCLE
  5
B8
330
42
100
AcDbEntity
  8
Specialized_Fills
  6
Continuous
 62
    30
420
 16742400
370
    20
100
AcDbCircle
 10
11546.73153961688
 20
-919.0353732316067
 30
0.0
 40
1.364689132099527
  0
CIRCLE
  5
B9
330
42
100
AcDbEntity
  8
Specialized_Fills
  6
Continuous
 62
    30
420
 16742400
370
    20
100
AcDbCircle
 10
11578.11296258445
 20
-907.6134693624929
 30
0.0
 40
1.364689132099527
  0
CIRCLE
  5
BA
330
42
100
AcDbEntity
  8
Specialized_Fills
  6
Continuous
 62
    30
420
 16742400
370
    20
100
AcDbCircle
 10
11535.30763639892
 20
-887.6484570982396
 30
0.0
 40
1.364689132099527
  0
CIRCLE
  5
BB
330
42
100
AcDbEntity
  8
Specialized_Fills
  6
Continuous
 62
    30
420
 16742400
370
    20
100
AcDbCircle
 10
11566.68905936649
 20
-876.2265532291261
 30
0.0
 40
1.364689132099527
  0
CIRCLE
  5
BC
330
42
100
AcDbEntity
  8
Specialized_Fills
  6
Continuous
 62
    30
420
 16742400
370
    20
100
AcDbCircle
 10
11544.82763112222
 20
-1025.62569052185
 30
0.0
 40
0.9991933561993347
  0
CIRCLE
  5
BD
330
42
100
AcDbEntity
  8
Specialized_Fills
  6
Continuous
 62
    30
420
 16742400
370
    20
100
AcDbCircle
 10
11576.20905408979
 20
-1014.203786652736
 30
0.0
 40
0.9991933561993347
  0
CIRCLE
  5
BE
330
42
100
AcDbEntity
  8
Specialized_Fills
  6
Continuous
 62
    30
420
 16742400
370
    20
100
AcDbCircle
 10
11533.40372790426
 20
-994.2387743884825
 30
0.0
 40
0.9991933561993347
  0
CIRCLE
  5
BF
330
42
100
AcDbEntity
  8
Specialized_Fills
  6
Continuous
 62
    30
420
 16742400
370
    20
100
AcDbCircle
 10
11564.78515087183
 20
-982.8168705193684
 30
0.0
 40
0.9991933561993347
  0
CIRCLE
  5
C0
330
42
100
AcDbEntity
  8
Specialized_Fills
  6
Continuous
 62
    30
420
 16742400
370
    20
100
AcDbCircle
 10
11541.93734443592
 20
-920.0430382526347
 30
0.0
 40
0.9991933561993347
  0
CIRCLE
  5
C1
330
42
100
AcDbEntity
  8
Specialized_Fills
  6
Continuous
 62
    30
420
 16742400
370
    20
100
AcDbCircle
 10
11573.31876740349
 20
-908.6211343835209
 30
0.0
 40
0.9991933561993347
  0
CIRCLE
  5
C2
330
42
100
AcDbEntity
  8
Specialized_Fills
  6
Continuous
 62
    30
420
 16742400
370
    20
100
AcDbCircle
 10
11530.51344121797
 20
-888.6561221192678
 30
0.0
 40
0.9991933561993347
  0
CIRCLE
  5
C3
330
42
100
AcDbEntity
  8
Specialized_Fills
  6
Continuous
 62
    30
420
 16742400
370
    20
100
AcDbCircle
 10
11561.89486418554
 20
-877.2342182501542
 30
0.0
 40
0.9991933561993347
  0
CIRCLE
  5
C4
330
42
100
AcDbEntity
  8
Specialized_Fills
  6
Continuous
 62
    30
420
 16742400
370
    20
100
AcDbCircle
 10
11541.85680940552
 20
-1027.591716384561
 30
0.0
 40
1.446642150311205
  0
CIRCLE
  5
C5
330
42
100
AcDbEntity
  8
Specialized_Fills
  6
Continuous
 62
    30
420
 16742400
370
    20
100
AcDbCircle
 10
11573.23823237309
 20
-1016.169812515447
 30
0.0
 40
1.446642150311205
  0
CIRCLE
  5
C6
330
42
100
AcDbEntity
  8
Specialized_Fills
  6
Continuous
 62
    30
420
 16742400
370
    20
100
AcDbCircle
 10
11530.43290618757
 20
-996.204800251194
 30
0.0
 40
1.446642150311205
  0
CIRCLE
  5
C7
330
42
100
AcDbEntity
  8
Specialized_Fills
  6
Continuous
 62
    30
420
 16742400
370
    20
100
AcDbCircle
 10
11561.81432915514
 20
-984.7828963820798
 30
0.0
 40
1.446642150311205
  0
ARC
  5
C8
330
42
100
AcDbEntity
  8
Specialized_Fills
  6
Continuous
 62
    30
420
 16742400
370
    20
100
AcDbCircle
 10
11550.39042593718
 20
-953.395980248713
 30
0.0
 40
1.446642150311205
100
AcDbArc
 50
230.6375846874868
 51
309.1302298847037
  0
ARC
  5
C9
330
42
100
AcDbEntity
  8
Specialized_Fills
  6
Continuous
 62
    30
420
 16742400
370
    20
100
AcDbCircle
 10
11581.77184890476
 20
-941.9740763795992
 30
0.0
 40
1.446642150311205
100
AcDbArc
 50
61.77704753337351
 51
298.2229524666265
  0
CIRCLE
  5
CA
330
42
100
AcDbEntity
  8
Specialized_Fills
  6
Continuous
 62
    30
420
 16742400
370
    20
100
AcDbCircle
 10
11538.96652271923
 20
-922.0090641153459
 30
0.0
 40
1.446642150311205
  0
CIRCLE
  5
CB
330
42
100
AcDbEntity
  8
Specialized_Fills
  6
Continuous
 62
    30
420
 16742400
370
    20
100
AcDbCircle
 10
11570.3479456868
 20
-910.5871602462324
 30
0.0
 40
1.446642150311205
  0
ARC
  5
CC
330
42
100
AcDbEntity
  8
Specialized_Fills
  6
Continuous
 62
    30
420
 16742400
370
    20
100
AcDbCircle
 10
11527.54261950127
 20
-890.6221479819791
 30
0.0
 40
1.446642150311205
100
AcDbArc
 50
259.9818268747169
 51
100.018173125283
  0
CIRCLE
  5
CD
330
42
100
AcDbEntity
  8
Specialized_Fills
  6
Continuous
 62
    30
420
 16742400
370
    20
100
AcDbCircle
 10
11558.92404246884
 20
-879.2002441128655
 30
0.0
 40
1.446642150311205
  0
CIRCLE
  5
CE
330
42
100
AcDbEntity
  8
Specialized_Fills
  6
Continuous
 62
    30
420
 16742400
370
    20
100
AcDbCircle
 10
11545.28030751166
 20
-1003.776904182037
 30
0.0
 40
1.254743030480298
  0
CIRCLE
  5
CF
330
42
100
AcDbEntity
  8
Specialized_Fills
  6
Continuous
 62
    30
420
 16742400
370
    20
100
AcDbCircle
 10
11576.66173047923
 20
-992.355000312923
 30
0.0
 40
1.254743030480298
  0
CIRCLE
  5
D0
330
42
100
AcDbEntity
  8
Specialized_Fills
  6
Continuous
 62
    30
420
 16742400
370
    20
100
AcDbCircle
 10
11533.8564042937
 20
-972.3899880486703
 30
0.0
 40
1.254743030480298
  0
CIRCLE
  5
D1
330
42
100
AcDbEntity
  8
Specialized_Fills
  6
Continuous
 62
    30
420
 16742400
370
    20
100
AcDbCircle
 10
11565.23782726127
 20
-960.9680841795562
 30
0.0
 40
1.254743030480298
  0
CIRCLE
  5
D2
330
42
100
AcDbEntity
  8
Specialized_Fills
  6
Continuous
 62
    30
420
 16742400
370
    20
100
AcDbCircle
 10
11553.81392404332
 20
-929.5811680461893
 30
0.0
 40
1.254743030480298
  0
CIRCLE
  5
D3
330
42
100
AcDbEntity
  8
Specialized_Fills
  6
Continuous
 62
    30
420
 16742400
370
    20
100
AcDbCircle
 10
11542.39002082536
 20
-898.1942519128224
 30
0.0
 40
1.254743030480298
  0
CIRCLE
  5
D4
330
42
100
AcDbEntity
  8
Specialized_Fills
  6
Continuous
 62
    30
420
 16742400
370
    20
100
AcDbCircle
 10
11573.77144379293
 20
-886.7723480437089
 30
0.0
 40
1.254743030480298
  0
ARC
  5
D5
330
42
100
AcDbEntity
  8
Specialized_Fills
  6
Continuous
 62
    30
420
 16742400
370
    20
100
AcDbCircle
 10
11564.32705342332
 20
-1031.799509016718
 30
0.0
 40
2.190876364732474
100
AcDbArc
 50
39.09704200732226
 51
141.1956962145981
  0
CIRCLE
  5
D6
330
42
100
AcDbEntity
  8
Specialized_Fills
  6
Continuous
 62
    30
420
 16742400
370
    20
100
AcDbCircle
 10
11552.90315020537
 20
-1000.41259288335
 30
0.0
 40
2.190876364732474
  0
ARC
  5
D7
330
42
100
AcDbEntity
  8
Specialized_Fills
  6
Continuous
 62
    30
420
 16742400
370
    20
100
AcDbCircle
 10
11584.28457317294
 20
-988.9906890142361
 30
0.0
 40
2.190876364732474
100
AcDbArc
 50
146.5787835915716
 51
213.4212164084283
  0
CIRCLE
  5
D8
330
42
100
AcDbEntity
  8
Specialized_Fills
  6
Continuous
 62
    30
420
 16742400
370
    20
100
AcDbCircle
 10
11541.47924698741
 20
-969.0256767499832
 30
0.0
 40
2.190876364732474
  0
CIRCLE
  5
D9
330
42
100
AcDbEntity
  8
Specialized_Fills
  6
Continuous
 62
    30
420
 16742400
370
    20
100
AcDbCircle
 10
11572.86066995498
 20
-957.6037728808692
 30
0.0
 40
2.190876364732474
  0
CIRCLE
  5
DA
330
42
100
AcDbEntity
  8
Specialized_Fills
  6
Continuous
 62
    30
420
 16742400
370
    20
100
AcDbCircle
 10
11530.05534376946
 20
-937.6387606166163
 30
0.0
 40
2.190876364732474
  0
CIRCLE
  5
DB
330
42
100
AcDbEntity
  8
Specialized_Fills
  6
Continuous
 62
    30
420
 16742400
370
    20
100
AcDbCircle
 10
11561.43676673703
 20
-926.2168567475024
 30
0.0
 40
2.190876364732474
  0
CIRCLE
  5
DC
330
42
100
AcDbEntity
  8
Specialized_Fills
  6
Continuous
 62
    30
420
 16742400
370
    20
100
AcDbCircle
 10
11550.01286351908
 20
-894.8299406141355
 30
0.0
 40
2.190876364732474
  0
ARC
  5
DD
330
42
100
AcDbEntity
  8
Specialized_Fills
  6
Continuous
 62
    30
420
 16742400
370
    20
100
AcDbCircle
 10
11581.39428648665
 20
-883.4080367450217
 30
0.0
 40
2.190876364732474
100
AcDbArc
 50
54.55755856052592
 51
305.0310876151841
  0
ARC
  5
DE
330
42
100
AcDbEntity
  8
Specialized_Fills
  6
Continuous
 62
    30
420
 16742400
370
    20
100
AcDbCircle
 10
11555.87414391488
 20
-1030.452440538118
 30
0.0
 40
1.392542801927199
100
AcDbArc
 50
0.5018113231066074
 51
179.7909268988297
  0
CIRCLE
  5
DF
330
42
100
AcDbEntity
  8
Specialized_Fills
  6
Continuous
 62
    30
420
 16742400
370
    20
100
AcDbCircle
 10
11544.45024069692
 20
-999.06552440475
 30
0.0
 40
1.392542801927199
  0
CIRCLE
  5
E0
330
42
100
AcDbEntity
  8
Specialized_Fills
  6
Continuous
 62
    30
420
 16742400
370
    20
100
AcDbCircle
 10
11575.83166366449
 20
-987.6436205356361
 30
0.0
 40
1.392542801927199
  0
CIRCLE
  5
E1
330
42
100
AcDbEntity
  8
Specialized_Fills
  6
Continuous
 62
    30
420
 16742400
370
    20
100
AcDbCircle
 10
11533.02633747897
 20
-967.6786082713832
 30
0.0
 40
1.392542801927199
  0
CIRCLE
  5
E2
330
42
100
AcDbEntity
  8
Specialized_Fills
  6
Continuous
 62
    30
420
 16742400
370
    20
100
AcDbCircle
 10
11564.40776044654
 20
-956.2567044022692
 30
0.0
 40
1.392542801927199
  0
CIRCLE
  5
E3
330
42
100
AcDbEntity
  8
Specialized_Fills
  6
Continuous
 62
    30
420
 16742400
370
    20
100
AcDbCircle
 10
11552.98385722859
 20
-924.8697882689024
 30
0.0
 40
1.392542801927199
  0
CIRCLE
  5
E4
330
42
100
AcDbEntity
  8
Specialized_Fills
  6
Continuous
 62
    30
420
 16742400
370
    20
100
AcDbCircle
 10
11541.55995401063
 20
-893.4828721355355
 30
0.0
 40
1.392542801927199
  0
CIRCLE
  5
E5
330
42
100
AcDbEntity
  8
Specialized_Fills
  6
Continuous
 62
    30
420
 16742400
370
    20
100
AcDbCircle
 10
11572.9413769782
 20
-882.0609682664217
 30
0.0
 40
1.392542801927199
  0
ARC
  5
E6
330
42
100
AcDbEntity
  8
Specialized_Fills
  6
Continuous
 62
    30
420
 16742400
370
    20
100
AcDbCircle
 10
11551.4112103486
 20
-1030.749712733964
 30
0.0
 40
1.385631884225165
100
AcDbArc
 50
12.41789702449383
 51
167.8748411943112
  0
ARC
  5
E7
330
42
100
AcDbEntity
  8
Specialized_Fills
  6
Continuous
 62
    30
420
 16742400
370
    20
100
AcDbCircle
 10
11582.79263331618
 20
-1019.32780886485
 30
0.0
 40
1.385631884225165
100
AcDbArc
 50
104.0616814882476
 51
255.9383185117523
  0
ARC
  5
E8
330
42
100
AcDbEntity
  8
Specialized_Fills
  6
Continuous
 62
    30
420
 16742400
370
    20
100
AcDbCircle
 10
11528.56340391269
 20
-967.9758804672298
 30
0.0
 40
1.385631884225165
100
AcDbArc
 50
203.3193873187889
 51
156.6806126812532
  0
CIRCLE
  5
E9
330
42
100
AcDbEntity
  8
Specialized_Fills
  6
Continuous
 62
    30
420
 16742400
370
    20
100
AcDbCircle
 10
11550.03093684737
 20
-1015.613756036508
 30
0.0
 40
3.246639275191398
  0
ARC
  5
EA
330
42
100
AcDbEntity
  8
Specialized_Fills
  6
Continuous
 62
    30
420
 16742400
370
    20
100
AcDbCircle
 10
11581.41235981493
 20
-1004.191852167394
 30
0.0
 40
3.246639275191398
100
AcDbArc
 50
71.24974599521341
 51
288.7502540047866
  0
CIRCLE
  5
EB
330
42
100
AcDbEntity
  8
Specialized_Fills
  6
Continuous
 62
    30
420
 16742400
370
    20
100
AcDbCircle
 10
11538.60703362941
 20
-984.2268399031411
 30
0.0
 40
3.246639275191398
  0
CIRCLE
  5
EC
330
42
100
AcDbEntity
  8
Specialized_Fills
  6
Continuous
 62
    30
420
 16742400
370
    20
100
AcDbCircle
 10
11569.98845659698
 20
-972.804936034027
 30
0.0
 40
3.246639275191398
  0
ARC
  5
ED
330
42
100
AcDbEntity
  8
Specialized_Fills
  6
Continuous
 62
    30
420
 16742400
370
    20
100
AcDbCircle
 10
11527.18313041146
 20
-952.8399237697742
 30
0.0
 40
3.246639275191398
100
AcDbArc
 50
271.9033116306327
 51
88.09668836936731
  0
CIRCLE
  5
EE
330
42
100
AcDbEntity
  8
Specialized_Fills
  6
Continuous
 62
    30
420
 16742400
370
    20
100
AcDbCircle
 10
11558.56455337903
 20
-941.4180199006601
 30
0.0
 40
3.246639275191398
  0
CIRCLE
  5
EF
330
42
100
AcDbEntity
  8
Specialized_Fills
  6
Continuous
 62
    30
420
 16742400
370
    20
100
AcDbCircle
 10
11547.14065016107
 20
-910.0311037672932
 30
0.0
 40
3.246639275191398
  0
CIRCLE
  5
F0
330
42
100
AcDbEntity
  8
Specialized_Fills
  6
Continuous
 62
    30
420
 16742400
370
    20
100
AcDbCircle
 10
11578.52207312864
 20
-898.6091998981795
 30
0.0
 40
3.246639275191398
  0
CIRCLE
  5
F1
330
42
100
AcDbEntity
  8
Specialized_Fills
  6
Continuous
 62
    30
420
 16742400
370
    20
100
AcDbCircle
 10
11535.71674694312
 20
-878.6441876339264
 30
0.0
 40
3.246639275191398
  0
ARC
  5
F2
330
42
100
AcDbEntity
  8
Specialized_Fills
  6
Continuous
 62
    30
420
 16742400
370
    20
100
AcDbCircle
 10
11582.27306868695
 20
-992.377022332802
 30
0.0
 40
1.492371212980843
100
AcDbArc
 50
277.039783019814
 51
82.96021698018497
  0
ARC
  5
F3
330
42
100
AcDbEntity
  8
Specialized_Fills
  6
Continuous
 62
    30
420
 16742400
370
    20
100
AcDbCircle
 10
11528.04383928347
 20
-941.0250939351826
 30
0.0
 40
1.492371212980843
100
AcDbArc
 50
239.7028491110185
 51
120.2971508889729
  0
CIRCLE
  5
F4
330
42
100
AcDbEntity
  8
Specialized_Fills
  6
Continuous
 62
    30
420
 16742400
370
    20
100
AcDbCircle
 10
11550.17072007876
 20
-1007.895174151155
 30
0.0
 40
1.983922927269609
  0
ARC
  5
F5
330
42
100
AcDbEntity
  8
Specialized_Fills
  6
Continuous
 62
    30
420
 16742400
370
    20
100
AcDbCircle
 10
11581.55214304634
 20
-996.4732702820411
 30
0.0
 40
1.983922927269609
100
AcDbArc
 50
62.89797546831922
 51
297.1020245316807
  0
CIRCLE
  5
F6
330
42
100
AcDbEntity
  8
Specialized_Fills
  6
Continuous
 62
    30
420
 16742400
370
    20
100
AcDbCircle
 10
11538.74681686081
 20
-976.5082580177885
 30
0.0
 40
1.983922927269609
  0
CIRCLE
  5
F7
330
42
100
AcDbEntity
  8
Specialized_Fills
  6
Continuous
 62
    30
420
 16742400
370
    20
100
AcDbCircle
 10
11570.12823982838
 20
-965.0863541486742
 30
0.0
 40
1.983922927269609
  0
ARC
  5
F8
330
42
100
AcDbEntity
  8
Specialized_Fills
  6
Continuous
 62
    30
420
 16742400
370
    20
100
AcDbCircle
 10
11527.32291364285
 20
-945.1213418844217
 30
0.0
 40
1.983922927269609
100
AcDbArc
 50
269.0771624855506
 51
90.92283751444941
  0
CIRCLE
  5
F9
330
42
100
AcDbEntity
  8
Specialized_Fills
  6
Continuous
 62
    30
420
 16742400
370
    20
100
AcDbCircle
 10
11558.70433661043
 20
-933.6994380153075
 30
0.0
 40
1.983922927269609
  0
CIRCLE
  5
FA
330
42
100
AcDbEntity
  8
Specialized_Fills
  6
Continuous
 62
    30
420
 16742400
370
    20
100
AcDbCircle
 10
11547.28043339247
 20
-902.3125218819407
 30
0.0
 40
1.983922927269609
  0
CIRCLE
  5
FB
330
42
100
AcDbEntity
  8
Specialized_Fills
  6
Continuous
 62
    30
420
 16742400
370
    20
100
AcDbCircle
 10
11578.66185636004
 20
-890.8906180128269
 30
0.0
 40
1.983922927269609
  0
ARC
  5
FC
330
42
100
AcDbEntity
  8
Specialized_Fills
  6
Continuous
 62
    30
420
 16742400
370
    20
100
AcDbCircle
 10
11535.85653017451
 20
-870.9256057485738
 30
0.0
 40
1.983922927269609
100
AcDbArc
 50
191.8916248795479
 51
348.108375120452
  0
CIRCLE
  5
FD
330
42
100
AcDbEntity
  8
Specialized_Fills
  6
Continuous
 62
    30
420
 16742400
370
    20
100
AcDbCircle
 10
11555.35649206369
 20
-1009.98901584631
 30
0.0
 40
2.217011003003044
  0
CIRCLE
  5
FE
330
42
100
AcDbEntity
  8
Specialized_Fills
  6
Continuous
 62
    30
420
 16742400
370
    20
100
AcDbCircle
 10
11543.93258884573
 20
-978.6020997129432
 30
0.0
 40
2.217011003003044
  0
CIRCLE
  5
FF
330
42
100
AcDbEntity
  8
Specialized_Fills
  6
Continuous
 62
    30
420
 16742400
370
    20
100
AcDbCircle
 10
11575.3140118133
 20
-967.180195843829
 30
0.0
 40
2.217011003003044
  0
CIRCLE
  5
100
330
42
100
AcDbEntity
  8
Specialized_Fills
  6
Continuous
 62
    30
420
 16742400
370
    20
100
AcDbCircle
 10
11532.50868562778
 20
-947.2151835795763
 30
0.0
 40
2.217011003003044
  0
CIRCLE
  5
101
330
42
100
AcDbEntity
  8
Specialized_Fills
  6
Continuous
 62
    30
420
 16742400
370
    20
100
AcDbCircle
 10
11563.89010859535
 20
-935.7932797104622
 30
0.0
 40
2.217011003003044
  0
CIRCLE
  5
102
330
42
100
AcDbEntity
  8
Specialized_Fills
  6
Continuous
 62
    30
420
 16742400
370
    20
100
AcDbCircle
 10
11552.46620537739
 20
-904.4063635770953
 30
0.0
 40
2.217011003003044
  0
ARC
  5
103
330
42
100
AcDbEntity
  8
Specialized_Fills
  6
Continuous
 62
    30
420
 16742400
370
    20
100
AcDbCircle
 10
11583.84762834496
 20
-892.9844597079817
 30
0.0
 40
2.217011003003044
100
AcDbArc
 50
123.2946964948749
 51
236.2939496808579
  0
ARC
  5
104
330
42
100
AcDbEntity
  8
Specialized_Fills
  6
Continuous
 62
    30
420
 16742400
370
    20
100
AcDbCircle
 10
11541.04230215944
 20
-873.0194474437285
 30
0.0
 40
2.217011003003044
100
AcDbArc
 50
130.5316708041522
 51
49.46832919584782
  0
CIRCLE
  5
105
330
42
100
AcDbEntity
  8
Specialized_Fills
  6
Continuous
 62
    30
420
 16742400
370
    20
100
AcDbCircle
 10
11529.63427689965
 20
-1023.184989000345
 30
0.0
 40
1.364689132099527
  0
CIRCLE
  5
106
330
42
100
AcDbEntity
  8
Specialized_Fills
  6
Continuous
 62
    30
420
 16742400
370
    20
100
AcDbCircle
 10
11561.01569986722
 20
-1011.763085131232
 30
0.0
 40
1.364689132099527
  0
CIRCLE
  5
107
330
42
100
AcDbEntity
  8
Specialized_Fills
  6
Continuous
 62
    30
420
 16742400
370
    20
100
AcDbCircle
 10
11549.59179664927
 20
-980.3761689978648
 30
0.0
 40
1.364689132099527
  0
CIRCLE
  5
108
330
42
100
AcDbEntity
  8
Specialized_Fills
  6
Continuous
 62
    30
420
 16742400
370
    20
100
AcDbCircle
 10
11580.97321961684
 20
-968.9542651287508
 30
0.0
 40
1.364689132099527
  0
ARC
  5
109
330
42
100
AcDbEntity
  8
Specialized_Fills
  6
Continuous
 62
    30
420
 16742400
370
    20
100
AcDbCircle
 10
11538.16789343131
 20
-948.9892528644979
 30
0.0
 40
1.364689132099527
100
AcDbArc
 50
34.81760493129931
 51
206.8377196684114
  0
CIRCLE
  5
10A
330
42
100
AcDbEntity
  8
Specialized_Fills
  6
Continuous
 62
    30
420
 16742400
370
    20
100
AcDbCircle
 10
11569.54931639889
 20
-937.5673489953838
 30
0.0
 40
1.364689132099527
  0
ARC
  5
10B
330
42
100
AcDbEntity
  8
Specialized_Fills
  6
Continuous
 62
    30
420
 16742400
370
    20
100
AcDbCircle
 10
11526.74399021336
 20
-917.602336731131
 30
0.0
 40
1.364689132099527
100
AcDbArc
 50
293.6283486678104
 51
66.37165133218957
  0
CIRCLE
  5
10C
330
42
100
AcDbEntity
  8
Specialized_Fills
  6
Continuous
 62
    30
420
 16742400
370
    20
100
AcDbCircle
 10
11558.12541318093
 20
-906.1804328620169
 30
0.0
 40
1.364689132099527
  0
CIRCLE
  5
10D
330
42
100
AcDbEntity
  8
Specialized_Fills
  6
Continuous
 62
    30
420
 16742400
370
    20
100
AcDbCircle
 10
11546.70150996297
 20
-874.7935167286501
 30
0.0
 40
1.364689132099527
  0
CIRCLE
  5
10E
330
42
100
AcDbEntity
  8
Specialized_Fills
  6
Continuous
 62
    30
420
 16742400
370
    20
100
AcDbCircle
 10
11537.22232216873
 20
-1016.88422564004
 30
0.0
 40
0.9699423138137321
  0
CIRCLE
  5
10F
330
42
100
AcDbEntity
  8
Specialized_Fills
  6
Continuous
 62
    30
420
 16742400
370
    20
100
AcDbCircle
 10
11568.6037451363
 20
-1005.462321770926
 30
0.0
 40
0.9699423138137321
  0
CIRCLE
  5
110
330
42
100
AcDbEntity
  8
Specialized_Fills
  6
Continuous
 62
    30
420
 16742400
370
    20
100
AcDbCircle
 10
11557.17984191835
 20
-974.0754056375591
 30
0.0
 40
0.9699423138137321
  0
CIRCLE
  5
111
330
42
100
AcDbEntity
  8
Specialized_Fills
  6
Continuous
 62
    30
420
 16742400
370
    20
100
AcDbCircle
 10
11545.75593870039
 20
-942.688489504192
 30
0.0
 40
0.9699423138137321
  0
CIRCLE
  5
112
330
42
100
AcDbEntity
  8
Specialized_Fills
  6
Continuous
 62
    30
420
 16742400
370
    20
100
AcDbCircle
 10
11577.13736166796
 20
-931.2665856350784
 30
0.0
 40
0.9699423138137321
  0
CIRCLE
  5
113
330
42
100
AcDbEntity
  8
Specialized_Fills
  6
Continuous
 62
    30
420
 16742400
370
    20
100
AcDbCircle
 10
11534.33203548244
 20
-911.3015733708252
 30
0.0
 40
0.9699423138137321
  0
CIRCLE
  5
114
330
42
100
AcDbEntity
  8
Specialized_Fills
  6
Continuous
 62
    30
420
 16742400
370
    20
100
AcDbCircle
 10
11565.71345845001
 20
-899.8796695017116
 30
0.0
 40
0.9699423138137321
  0
ARC
  5
115
330
42
100
AcDbEntity
  8
Specialized_Fills
  6
Continuous
 62
    30
420
 16742400
370
    20
100
AcDbCircle
 10
11582.85545007726
 20
-931.9870330811832
 30
0.0
 40
1.108505509026478
100
AcDbArc
 50
109.3750883140781
 51
250.2135578560979
  0
ARC
  5
116
330
42
100
AcDbEntity
  8
Specialized_Fills
  6
Continuous
 62
    30
420
 16742400
370
    20
100
AcDbCircle
 10
11580.25730557335
 20
-1029.099992560704
 30
0.0
 40
2.004675758922407
100
AcDbArc
 50
219.8832555863182
 51
320.4094826323938
  0
ARC
  5
117
330
42
100
AcDbEntity
  8
Specialized_Fills
  6
Continuous
 62
    30
420
 16742400
370
    20
100
AcDbCircle
 10
11526.02807616987
 20
-977.7480641630834
 30
0.0
 40
2.004675758922407
100
AcDbArc
 50
50.95212313153933
 51
309.0478768684607
  0
CIRCLE
  5
118
330
42
100
AcDbEntity
  8
Specialized_Fills
  6
Continuous
 62
    30
420
 16742400
370
    20
100
AcDbCircle
 10
11540.76216526012
 20
-1013.306166226048
 30
0.0
 40
1.57542517109146
  0
CIRCLE
  5
119
330
42
100
AcDbEntity
  8
Specialized_Fills
  6
Continuous
 62
    30
420
 16742400
370
    20
100
AcDbCircle
 10
11572.14358822769
 20
-1001.884262356934
 30
0.0
 40
1.57542517109146
  0
CIRCLE
  5
11A
330
42
100
AcDbEntity
  8
Specialized_Fills
  6
Continuous
 62
    30
420
 16742400
370
    20
100
AcDbCircle
 10
11529.33826204217
 20
-981.9192500926813
 30
0.0
 40
1.57542517109146
  0
CIRCLE
  5
11B
330
42
100
AcDbEntity
  8
Specialized_Fills
  6
Continuous
 62
    30
420
 16742400
370
    20
100
AcDbCircle
 10
11560.71968500974
 20
-970.4973462235672
 30
0.0
 40
1.57542517109146
  0
CIRCLE
  5
11C
330
42
100
AcDbEntity
  8
Specialized_Fills
  6
Continuous
 62
    30
420
 16742400
370
    20
100
AcDbCircle
 10
11549.29578179178
 20
-939.1104300902004
 30
0.0
 40
1.57542517109146
  0
CIRCLE
  5
11D
330
42
100
AcDbEntity
  8
Specialized_Fills
  6
Continuous
 62
    30
420
 16742400
370
    20
100
AcDbCircle
 10
11580.67720475935
 20
-927.6885262210868
 30
0.0
 40
1.57542517109146
  0
CIRCLE
  5
11E
330
42
100
AcDbEntity
  8
Specialized_Fills
  6
Continuous
 62
    30
420
 16742400
370
    20
100
AcDbCircle
 10
11537.87187857383
 20
-907.7235139568335
 30
0.0
 40
1.57542517109146
  0
CIRCLE
  5
11F
330
42
100
AcDbEntity
  8
Specialized_Fills
  6
Continuous
 62
    30
420
 16742400
370
    20
100
AcDbCircle
 10
11569.2533015414
 20
-896.3016100877199
 30
0.0
 40
1.57542517109146
  0
ARC
  5
120
330
42
100
AcDbEntity
  8
Specialized_Fills
  6
Continuous
 62
    30
420
 16742400
370
    20
100
AcDbCircle
 10
11526.44797535587
 20
-876.3365978234666
 30
0.0
 40
1.57542517109146
100
AcDbArc
 50
302.3496386738557
 51
57.65036132614432
  0
CIRCLE
  5
121
330
42
100
AcDbEntity
  8
Specialized_Fills
  6
Continuous
 62
    30
420
 16742400
370
    20
100
AcDbCircle
 10
11531.51502125647
 20
-1018.979612108533
 30
0.0
 40
1.277489469031145
  0
CIRCLE
  5
122
330
42
100
AcDbEntity
  8
Specialized_Fills
  6
Continuous
 62
    30
420
 16742400
370
    20
100
AcDbCircle
 10
11562.89644422404
 20
-1007.55770823942
 30
0.0
 40
1.277489469031145
  0
CIRCLE
  5
123
330
42
100
AcDbEntity
  8
Specialized_Fills
  6
Continuous
 62
    30
420
 16742400
370
    20
100
AcDbCircle
 10
11551.47254100609
 20
-976.1707921060528
 30
0.0
 40
1.277489469031145
  0
ARC
  5
124
330
42
100
AcDbEntity
  8
Specialized_Fills
  6
Continuous
 62
    30
420
 16742400
370
    20
100
AcDbCircle
 10
11582.85396397366
 20
-964.748888236939
 30
0.0
 40
1.277489469031145
100
AcDbArc
 50
108.1522262427903
 51
251.8477737572097
  0
CIRCLE
  5
125
330
42
100
AcDbEntity
  8
Specialized_Fills
  6
Continuous
 62
    30
420
 16742400
370
    20
100
AcDbCircle
 10
11540.04863778813
 20
-944.783875972686
 30
0.0
 40
1.277489469031145
  0
CIRCLE
  5
126
330
42
100
AcDbEntity
  8
Specialized_Fills
  6
Continuous
 62
    30
420
 16742400
370
    20
100
AcDbCircle
 10
11571.4300607557
 20
-933.3619721035722
 30
0.0
 40
1.277489469031145
  0
CIRCLE
  5
127
330
42
100
AcDbEntity
  8
Specialized_Fills
  6
Continuous
 62
    30
420
 16742400
370
    20
100
AcDbCircle
 10
11528.62473457018
 20
-913.3969598393191
 30
0.0
 40
1.277489469031145
  0
CIRCLE
  5
128
330
42
100
AcDbEntity
  8
Specialized_Fills
  6
Continuous
 62
    30
420
 16742400
370
    20
100
AcDbCircle
 10
11560.00615753775
 20
-901.9750559702053
 30
0.0
 40
1.277489469031145
  0
ARC
  5
129
330
42
100
AcDbEntity
  8
Specialized_Fills
  6
Continuous
 62
    30
420
 16742400
370
    20
100
AcDbCircle
 10
11548.58225431979
 20
-870.5881398368385
 30
0.0
 40
1.277489469031145
100
AcDbArc
 50
215.7446152579659
 51
324.2553847420341
  0
ARC
  5
12A
330
42
100
AcDbEntity
  8
Specialized_Fills
  6
Continuous
 62
    30
420
 16742400
370
    20
100
AcDbCircle
 10
11543.31727494693
 20
-946.833090193831
 30
0.0
 40
1.292977014883647
100
AcDbArc
 50
57.58009047134052
 51
167.7995450131891
  0
CIRCLE
  5
12B
330
42
100
AcDbEntity
  8
Specialized_Fills
  6
Continuous
 62
    30
420
 16742400
370
    20
100
AcDbCircle
 10
11539.68176056711
 20
-1020.184728745616
 30
0.0
 40
1.255125548576963
  0
CIRCLE
  5
12C
330
42
100
AcDbEntity
  8
Specialized_Fills
  6
Continuous
 62
    30
420
 16742400
370
    20
100
AcDbCircle
 10
11571.06318353469
 20
-1008.762824876503
 30
0.0
 40
1.255125548576963
  0
ARC
  5
12D
330
42
100
AcDbEntity
  8
Specialized_Fills
  6
Continuous
 62
    30
420
 16742400
370
    20
100
AcDbCircle
 10
11528.25785734916
 20
-988.7978126122497
 30
0.0
 40
1.255125548576963
100
AcDbArc
 50
219.6139179946533
 51
140.3860820053466
  0
CIRCLE
  5
12E
330
42
100
AcDbEntity
  8
Specialized_Fills
  6
Continuous
 62
    30
420
 16742400
370
    20
100
AcDbCircle
 10
11559.63928031673
 20
-977.3759087431356
 30
0.0
 40
1.255125548576963
  0
ARC
  5
12F
330
42
100
AcDbEntity
  8
Specialized_Fills
  6
Continuous
 62
    30
420
 16742400
370
    20
100
AcDbCircle
 10
11548.21537709878
 20
-945.9889926097687
 30
0.0
 40
1.255125548576963
100
AcDbArc
 50
10.84040646235798
 51
168.9214239584796
  0
CIRCLE
  5
130
330
42
100
AcDbEntity
  8
Specialized_Fills
  6
Continuous
 62
    30
420
 16742400
370
    20
100
AcDbCircle
 10
11579.59680006635
 20
-934.5670887406551
 30
0.0
 40
1.255125548576963
  0
CIRCLE
  5
131
330
42
100
AcDbEntity
  8
Specialized_Fills
  6
Continuous
 62
    30
420
 16742400
370
    20
100
AcDbCircle
 10
11536.79147388082
 20
-914.6020764764019
 30
0.0
 40
1.255125548576963
  0
CIRCLE
  5
132
330
42
100
AcDbEntity
  8
Specialized_Fills
  6
Continuous
 62
    30
420
 16742400
370
    20
100
AcDbCircle
 10
11568.17289684839
 20
-903.1801726072883
 30
0.0
 40
1.255125548576963
  0
ARC
  5
133
330
42
100
AcDbEntity
  8
Specialized_Fills
  6
Continuous
 62
    30
420
 16742400
370
    20
100
AcDbCircle
 10
11556.74899363044
 20
-871.7932564739212
 30
0.0
 40
1.255125548576963
100
AcDbArc
 50
158.557087316484
 51
21.442912683516
  0
CIRCLE
  5
134
330
42
100
AcDbEntity
  8
Specialized_Fills
  6
Continuous
 62
    30
420
 16742400
370
    20
100
AcDbCircle
 10
11546.45062076883
 20
-1020.963728797459
 30
0.0
 40
1.474220607961029
  0
CIRCLE
  5
135
330
42
100
AcDbEntity
  8
Specialized_Fills
  6
Continuous
 62
    30
420
 16742400
370
    20
100
AcDbCircle
 10
11577.8320437364
 20
-1009.541824928345
 30
0.0
 40
1.474220607961029
  0
CIRCLE
  5
136
330
42
100
AcDbEntity
  8
Specialized_Fills
  6
Continuous
 62
    30
420
 16742400
370
    20
100
AcDbCircle
 10
11535.02671755088
 20
-989.5768126640925
 30
0.0
 40
1.474220607961029
  0
CIRCLE
  5
137
330
42
100
AcDbEntity
  8
Specialized_Fills
  6
Continuous
 62
    30
420
 16742400
370
    20
100
AcDbCircle
 10
11566.40814051845
 20
-978.1549087949784
 30
0.0
 40
1.474220607961029
  0
ARC
  5
138
330
42
100
AcDbEntity
  8
Specialized_Fills
  6
Continuous
 62
    30
420
 16742400
370
    20
100
AcDbCircle
 10
11554.98423730049
 20
-946.7679926616115
 30
0.0
 40
1.474220607961029
100
AcDbArc
 50
42.78172174959212
 51
136.9801086713043
  0
CIRCLE
  5
139
330
42
100
AcDbEntity
  8
Specialized_Fills
  6
Continuous
 62
    30
420
 16742400
370
    20
100
AcDbCircle
 10
11543.56033408254
 20
-915.3810765282447
 30
0.0
 40
1.474220607961029
  0
CIRCLE
  5
13A
330
42
100
AcDbEntity
  8
Specialized_Fills
  6
Continuous
 62
    30
420
 16742400
370
    20
100
AcDbCircle
 10
11574.94175705011
 20
-903.9591726591309
 30
0.0
 40
1.474220607961029
  0
CIRCLE
  5
13B
330
42
100
AcDbEntity
  8
Specialized_Fills
  6
Continuous
 62
    30
420
 16742400
370
    20
100
AcDbCircle
 10
11532.13643086458
 20
-883.9941603948778
 30
0.0
 40
1.474220607961029
  0
ARC
  5
13C
330
42
100
AcDbEntity
  8
Specialized_Fills
  6
Continuous
 62
    30
420
 16742400
370
    20
100
AcDbCircle
 10
11563.51785383215
 20
-872.572256525764
 30
0.0
 40
1.474220607961029
100
AcDbArc
 50
122.8959622677358
 51
57.10403773226419
  0
ARC
  5
13D
330
42
100
AcDbEntity
  8
Specialized_Fills
  6
Continuous
 62
    30
420
 16742400
370
    20
100
AcDbCircle
 10
11526.8375532299
 20
-1027.675635309915
 30
0.0
 40
1.37258085789611
100
AcDbArc
 50
289.2889390332222
 51
70.71106096677778
  0
CIRCLE
  5
13E
330
42
100
AcDbEntity
  8
Specialized_Fills
  6
Continuous
 62
    30
420
 16742400
370
    20
100
AcDbCircle
 10
11558.21897619748
 20
-1016.253731440801
 30
0.0
 40
1.37258085789611
  0
CIRCLE
  5
13F
330
42
100
AcDbEntity
  8
Specialized_Fills
  6
Continuous
 62
    30
420
 16742400
370
    20
100
AcDbCircle
 10
11546.79507297952
 20
-984.8668153074342
 30
0.0
 40
1.37258085789611
  0
CIRCLE
  5
140
330
42
100
AcDbEntity
  8
Specialized_Fills
  6
Continuous
 62
    30
420
 16742400
370
    20
100
AcDbCircle
 10
11578.17649594709
 20
-973.4449114383203
 30
0.0
 40
1.37258085789611
  0
CIRCLE
  5
141
330
42
100
AcDbEntity
  8
Specialized_Fills
  6
Continuous
 62
    30
420
 16742400
370
    20
100
AcDbCircle
 10
11535.37116976157
 20
-953.4798991740675
 30
0.0
 40
1.37258085789611
  0
CIRCLE
  5
142
330
42
100
AcDbEntity
  8
Specialized_Fills
  6
Continuous
 62
    30
420
 16742400
370
    20
100
AcDbCircle
 10
11566.75259272914
 20
-942.0579953049534
 30
0.0
 40
1.37258085789611
  0
CIRCLE
  5
143
330
42
100
AcDbEntity
  8
Specialized_Fills
  6
Continuous
 62
    30
420
 16742400
370
    20
100
AcDbCircle
 10
11555.32868951118
 20
-910.6710791715865
 30
0.0
 40
1.37258085789611
  0
CIRCLE
  5
144
330
42
100
AcDbEntity
  8
Specialized_Fills
  6
Continuous
 62
    30
420
 16742400
370
    20
100
AcDbCircle
 10
11543.90478629323
 20
-879.2841630382197
 30
0.0
 40
1.37258085789611
  0
CIRCLE
  5
145
330
42
100
AcDbEntity
  8
Specialized_Fills
  6
Continuous
 62
    30
420
 16742400
370
    20
100
AcDbCircle
 10
11556.91363221011
 20
-1003.758183056977
 30
0.0
 40
1.045510956534734
  0
CIRCLE
  5
146
330
42
100
AcDbEntity
  8
Specialized_Fills
  6
Continuous
 62
    30
420
 16742400
370
    20
100
AcDbCircle
 10
11545.48972899215
 20
-972.37126692361
 30
0.0
 40
1.045510956534734
  0
CIRCLE
  5
147
330
42
100
AcDbEntity
  8
Specialized_Fills
  6
Continuous
 62
    30
420
 16742400
370
    20
100
AcDbCircle
 10
11576.87115195973
 20
-960.9493630544958
 30
0.0
 40
1.045510956534734
  0
CIRCLE
  5
148
330
42
100
AcDbEntity
  8
Specialized_Fills
  6
Continuous
 62
    30
420
 16742400
370
    20
100
AcDbCircle
 10
11534.0658257742
 20
-940.9843507902431
 30
0.0
 40
1.045510956534734
  0
CIRCLE
  5
149
330
42
100
AcDbEntity
  8
Specialized_Fills
  6
Continuous
 62
    30
420
 16742400
370
    20
100
AcDbCircle
 10
11565.44724874177
 20
-929.562446921129
 30
0.0
 40
1.045510956534734
  0
CIRCLE
  5
14A
330
42
100
AcDbEntity
  8
Specialized_Fills
  6
Continuous
 62
    30
420
 16742400
370
    20
100
AcDbCircle
 10
11554.02334552381
 20
-898.1755307877621
 30
0.0
 40
1.045510956534734
  0
ENDBLK
  5
44
330
42
100
AcDbEntity
  8
0
100
AcDbBlockEnd
  0
BLOCK
  5
1DA
330
1D9
100
AcDbEntity
  8
0
100
AcDbBlockBegin
  2
ARROWHEAD_5
 70
     0
 10
0.0
 20
0.0
 30
0.0
  3
ARROWHEAD_5
  1

  0
SOLID
  5
1DC
330
1D9
100
AcDbEntity
  8
0
  6
Continuous
 62
     0
370
     0
100
AcDbTrace
 10
-1.0
 20
0.2679
 30
0.0
 11
0.0
 21
0.0
 31
0.0
 12
-1.0
 22
-0.2679
 32
0.0
 13
-1.0
 23
0.2679
 33
0.0
  0
LINE
  5
1DD
330
1D9
100
AcDbEntity
  8
0
  6
Continuous
 62
     0
370
     0
100
AcDbLine
 10
0.0
 20
0.0
 30
0.0
 11
-1.0
 21
0.0
 31
0.0
  0
ENDBLK
  5
1DB
330
1D9
100
AcDbEntity
  8
0
100
AcDbBlockEnd
  0
BLOCK
  5
1E9
330
1E8
100
AcDbEntity
  8
0
100
AcDbBlockBegin
  2
19B Wall_ Fixings - ATTACHMENTS_STORY_MARKER
 70
     0
 10
0.0
 20
0.0
 30
0.0
  3
19B Wall_ Fixings - ATTACHMENTS_STORY_MARKER
  1

  0
ENDBLK
  5
1EA
330
1E8
100
AcDbEntity
  8
0
100
AcDbBlockEnd
  0
ENDSEC
  0
SECTION
  2
ENTITIES
  0
HATCH
  5
16F
330
1F
100
AcDbEntity
  8
Specialized_Fills
  6
Continuous
 62
   254
420
 14671839
370
    13
100
AcDbHatch
 10
0.0
 20
0.0
 30
0.0
210
0.0
220
0.0
230
1.0
  2
SOLID
 70
     1
 71
     1
 91
        1
 92
        2
 72
     0
 73
     1
 93
        4
 10
11602.51587468979
 20
-871.3344151908241
 10
11600.51587468979
 20
-871.3344151908241
 10
11600.51587468979
 20
-1030.375895042136
 10
11602.51587468979
 20
-1030.375895042136
 97
        1
330
170
 75
     0
 76
     1
 98
        0
450
        0
451
        0
460
0.0
461
0.0
452
        1
462
0.0
453
        0
470

  0
LWPOLYLINE
  5
170
102
{ACAD_REACTORS
330
16F
102
}
330
1F
100
AcDbEntity
  8
Specialized_Fills
  6
Continuous
100
AcDbPolyline
 90
        4
 70
   129
 43
0.0
 10
11602.51587468979
 20
-871.3344151908241
 10
11600.51587468979
 20
-871.3344151908241
 10
11600.51587468979
 20
-1030.375895042136
 10
11602.51587468979
 20
-1030.375895042136
  0
HATCH
  5
171
330
1F
100
AcDbEntity
  8
Specialized_Fills
  6
Continuous
 62
   254
420
 14671839
370
    13
100
AcDbHatch
 10
0.0
 20
0.0
 30
0.0
210
0.0
220
0.0
230
1.0
  2
SOLID
 70
     1
 71
     1
 91
        1
 92
        2
 72
     0
 73
     1
 93
        4
 10
11698.51587468979
 20
-871.3344151908241
 10
11700.51587468979
 20
-871.3344151908241
 10
11700.51587468979
 20
-1030.375895042136
 10
11698.51587468979
 20
-1030.375895042136
 97
        1
330
172
 75
     0
 76
     1
 98
        0
450
        0
451
        0
460
0.0
461
0.0
452
        1
462
0.0
453
        0
470

  0
LWPOLYLINE
  5
172
102
{ACAD_REACTORS
330
171
102
}
330
1F
100
AcDbEntity
  8
Specialized_Fills
  6
Continuous
100
AcDbPolyline
 90
        4
 70
   129
 43
0.0
 10
11698.51587468979
 20
-871.3344151908241
 10
11700.51587468979
 20
-871.3344151908241
 10
11700.51587468979
 20
-1030.375895042136
 10
11698.51587468979
 20
-1030.375895042136
  0
HATCH
  5
173
330
1F
100
AcDbEntity
  8
Specialized_Fills
  6
Continuous
 62
   254
420
 14671839
370
    13
100
AcDbHatch
 10
0.0
 20
0.0
 30
0.0
210
0.0
220
0.0
230
1.0
  2
SOLID
 70
     1
 71
     1
 91
        1
 92
        2
 72
     0
 73
     1
 93
        4
 10
11591.56715439872
 20
-938.8341417598898
 10
11591.56715439872
 20
-961.4393766029419
 10
11592.43799816192
 20
-961.4393766029419
 10
11592.43799816192
 20
-938.8341417598898
 97
        1
330
174
 75
     0
 76
     1
 98
        0
450
        0
451
        0
460
0.0
461
0.0
452
        1
462
0.0
453
        0
470

  0
LWPOLYLINE
  5
174
102
{ACAD_REACTORS
330
173
102
}
330
1F
100
AcDbEntity
  8
Specialized_Fills
  6
Continuous
100
AcDbPolyline
 90
        4
 70
   129
 43
0.0
 10
11591.56715439872
 20
-938.8341417598898
 10
11591.56715439872
 20
-961.4393766029419
 10
11592.43799816192
 20
-961.4393766029419
 10
11592.43799816192
 20
-938.8341417598898
  0
HATCH
  5
175
330
1F
100
AcDbEntity
  8
Specialized_Fills
  6
Continuous
 62
   254
420
 14671839
370
    13
100
AcDbHatch
 10
0.0
 20
0.0
 30
0.0
210
0.0
220
0.0
230
1.0
  2
SOLID
 70
     1
 71
     1
 91
        1
 92
        1
 93
       13
 72
     2
 10
11437.21724964448
 20
-892.8819783566579
 40
22.50000002685518
 50
179.1094927875135
 51
184.2491484935775
 73
     0
 72
     1
 10
11414.77909567462
 20
-891.214870791747
 11
11414.77909567462
 21
-871.3344151908259
 72
     1
 10
11414.77909567462
 20
-871.3344151908259
 11
11404.77909567461
 21
-871.3344151908259
 72
     1
 10
11404.77909567461
 20
-871.3344151908259
 11
11404.77909567461
 21
-1030.51682114852
 72
     1
 10
11404.77909567461
 20
-1030.51682114852
 11
11414.738070665
 21
-1030.51682114852
 72
     2
 10
11437.21724968267
 20
-1029.549085699099
 40
22.50000002685563
 50
177.5349214933067
 51
184.2491471812008
 73
     0
 72
     1
 10
11414.77909567462
 20
-1027.881978648141
 11
11414.77909567462
 21
-986.9051114370158
 72
     2
 10
11437.15540333338
 20
-984.549085807126
 40
22.50000002685586
 50
173.9894116843875
 51
184.2491484935379
 73
     0
 72
     2
 10
11437.21724956441
 20
-982.8819782422653
 40
22.50000020089465
 50
180.0000000000889
 51
184.2491572106472
 73
     0
 72
     1
 10
11414.77909567462
 20
-981.2148672506831
 11
11414.77909567462
 21
-939.5490852995736
 72
     2
 10
11437.21724968267
 20
-937.8819782486127
 40
22.50000002685582
 50
175.7508528187931
 51
184.2491471812071
 73
     0
 72
     1
 10
11414.77909567462
 20
-936.2148711976518
 11
11414.77909567462
 21
-894.5490859215443
 72
     2
 10
11437.21724964448
 20
-892.8819783566266
 40
22.50000002685567
 50
175.7508515064057
 51
179.1094927874336
 73
     0
 97
        1
330
176
 75
     0
 76
     1
 98
        0
450
        0
451
        0
460
0.0
461
0.0
452
        1
462
0.0
453
        0
470

  0
LWPOLYLINE
  5
176
102
{ACAD_REACTORS
330
175
102
}
330
1F
100
AcDbEntity
  8
Specialized_Fills
  6
Continuous
100
AcDbPolyline
 90
       13
 70
   129
 43
0.0
 10
11414.71996714169
 20
-893.231665642709
 42
-0.0224297389037131
 10
11414.77909567462
 20
-891.214870791747
 10
11414.77909567462
 20
-871.3344151908259
 10
11404.77909567461
 20
-871.3344151908259
 10
11404.77909567461
 20
-1030.51682114852
 10
11414.738070665
 20
-1030.51682114852
 42
-0.0293047205631286
 10
11414.77909567462
 20
-1027.881978648141
 10
11414.77909567462
 20
-986.9051114370158
 42
-0.0447964756243319
 10
11414.71724936351
 20
-982.8819782422304
 42
-0.0185425706464971
 10
11414.77909567462
 20
-981.2148672506831
 10
11414.77909567462
 20
-939.5490852995736
 42
-0.0370978089056775
 10
11414.77909567462
 20
-936.2148711976518
 10
11414.77909567462
 20
-894.5490859215443
 42
-0.0146558863886866
  0
LINE
  5
178
330
1F
100
AcDbEntity
  8
Specialized_Lines
  6
DASHEDX2
100
AcDbLine
 10
11600.51587468979
 20
-938.8341417598898
 30
0.0
 11
11700.51587468979
 21
-938.8341417598898
 31
0.0
  0
LINE
  5
17A
330
1F
100
AcDbEntity
  8
Specialized_Lines
  6
DASHEDX2
100
AcDbLine
 10
11600.51587468979
 20
-961.4393766029419
 30
0.0
 11
11700.51587468979
 21
-961.4393766029419
 31
0.0
  0
LINE
  5
17B
330
1F
100
AcDbEntity
  8
Specialized_Lines
  6
Continuous
100
AcDbLine
 10
11700.51587468979
 20
-1030.516821148519
 30
0.0
 11
11700.51587468979
 21
-871.3344151908225
 31
0.0
  0
LINE
  5
17C
330
1F
100
AcDbEntity
  8
Specialized_Lines
  6
Continuous
100
AcDbLine
 10
11600.51587468979
 20
-1030.516821148519
 30
0.0
 11
11600.51587468979
 21
-871.3344151908225
 31
0.0
  0
LINE
  5
17D
330
1F
100
AcDbEntity
  8
Specialized_Text
  6
Continuous
100
AcDbLine
 10
11561.26770048727
 20
-961.3972207204694
 30
0.0
 11
11561.66633692076
 21
-961.3972207204694
 31
0.0
  0
LINE
  5
17F
330
1F
100
AcDbEntity
  8
Specialized_Text
  6
Continuous
100
AcDbLine
 10
11569.37397106283
 20
-961.3972207204694
 30
0.0
 11
11569.77260749632
 21
-961.3972207204694
 31
0.0
  0
LINE
  5
180
330
1F
100
AcDbEntity
  8
Specialized_Lines
  6
Continuous
100
AcDbLine
 10
11506.29096096448
 20
-1030.516821148519
 30
0.0
 11
11506.29096096448
 21
-871.3344151908225
 31
0.0
  0
LINE
  5
181
330
1F
100
AcDbEntity
  8
Specialized_Lines
  6
DASHEDX2
100
AcDbLine
 10
11508.29096096448
 20
-1030.516821148519
 30
0.0
 11
11508.29096096448
 21
-871.3344151908225
 31
0.0
  0
LINE
  5
182
330
1F
100
AcDbEntity
  8
Specialized_Lines
  6
Continuous
100
AcDbLine
 10
11414.77909567462
 20
-1030.516821148519
 30
0.0
 11
11414.77909567462
 21
-871.3344151908259
 31
0.0
  0
LINE
  5
183
330
1F
100
AcDbEntity
  8
Specialized_Lines
  6
Continuous
100
AcDbLine
 10
11404.77909567461
 20
-1030.516821148519
 30
0.0
 11
11404.77909567461
 21
-871.3344151908259
 31
0.0
  0
LINE
  5
184
330
1F
100
AcDbEntity
  8
Specialized_Text
  6
Continuous
100
AcDbLine
 10
11589.89894896433
 20
-944.4408275026816
 30
0.0
 11
11591.56715439872
 21
-944.4408275026816
 31
0.0
  0
LINE
  5
185
330
1F
100
AcDbEntity
  8
Specialized_Text
  6
Continuous
100
AcDbLine
 10
11589.89894896433
 20
-956.197713277837
 30
0.0
 11
11591.56715439872
 21
-956.197713277837
 31
0.0
  0
LINE
  5
186
330
1F
100
AcDbEntity
  8
Specialized_Text
  6
Continuous
100
AcDbLine
 10
11591.56715439872
 20
-961.4393766029419
 30
0.0
 11
11591.56715439872
 21
-938.8341417598898
 31
0.0
  0
LINE
  5
187
330
1F
100
AcDbEntity
  8
Specialized_Text
  6
Continuous
100
AcDbLine
 10
11592.43799816192
 20
-961.4393766029419
 30
0.0
 11
11592.43799816192
 21
-938.8341417598898
 31
0.0
  0
LINE
  5
188
330
1F
100
AcDbEntity
  8
Specialized_Text
  6
Continuous
100
AcDbLine
 10
11592.43799816192
 20
-946.7492012962107
 30
0.0
 11
11592.43799816192
 21
-954.0116378092887
 31
0.0
  0
LINE
  5
189
330
1F
100
AcDbEntity
  8
Specialized_Text
  6
Continuous
100
AcDbLine
 10
11593.6280668442
 20
-946.5526703947785
 30
0.0
 11
11593.6280668442
 21
-954.2081687107209
 31
0.0
  0
LINE
  5
18A
330
1F
100
AcDbEntity
  8
Specialized_Text
  6
Continuous
100
AcDbLine
 10
11592.62625054791
 20
-946.5873444977507
 30
0.0
 11
11592.62625054791
 21
-954.1734952901769
 31
0.0
  0
LINE
  5
18B
330
1F
100
AcDbEntity
  8
Specialized_Text
  6
Continuous
100
AcDbLine
 10
11553.13014610104
 20
-961.3972207204694
 30
0.0
 11
11553.52878253453
 21
-961.3972207204694
 31
0.0
  0
LINE
  5
18C
330
1F
100
AcDbEntity
  8
Specialized_Text
  6
Continuous
100
AcDbLine
 10
11581.28158581035
 20
-938.8341417598898
 30
0.0
 11
11581.46600312681
 21
-938.8341417598898
 31
0.0
  0
LINE
  5
18D
330
1F
100
AcDbEntity
  8
Specialized_Text
  6
Continuous
100
AcDbLine
 10
11543.31853338508
 20
-954.5019812433665
 30
0.0
 11
11535.75391822992
 21
-950.3192703902591
 31
0.0
  0
LINE
  5
18E
330
1F
100
AcDbEntity
  8
Specialized_Text
  6
Continuous
100
AcDbLine
 10
11551.34768820696
 20
-945.740420849426
 30
0.0
 11
11555.26070415743
 21
-945.740420849426
 31
0.0
  0
LINE
  5
18F
330
1F
100
AcDbEntity
  8
Specialized_Text
  6
Continuous
100
AcDbLine
 10
11575.6977837443
 20
-945.740420849426
 30
0.0
 11
11579.63416522755
 21
-945.740420849426
 31
0.0
  0
LINE
  5
190
330
1F
100
AcDbEntity
  8
Specialized_Text
  6
Continuous
100
AcDbLine
 10
11544.93712928279
 20
-961.3972207204694
 30
0.0
 11
11545.33576571629
 21
-961.3972207204694
 31
0.0
  0
LINE
  5
191
330
1F
100
AcDbEntity
  8
Specialized_Text
  6
Continuous
100
AcDbLine
 10
11543.42658502807
 20
-945.740420849426
 30
0.0
 11
11547.11384238573
 21
-945.740420849426
 31
0.0
  0
LINE
  5
192
330
1F
100
AcDbEntity
  8
Specialized_Text
  6
Continuous
100
AcDbLine
 10
11559.48524259318
 20
-945.740420849426
 30
0.0
 11
11563.36697473299
 21
-945.740420849426
 31
0.0
  0
LINE
  5
193
330
1F
100
AcDbEntity
  8
Specialized_Text
  6
Continuous
100
AcDbLine
 10
11543.42658502807
 20
-945.740420849426
 30
0.0
 11
11535.75391822992
 21
-950.3192703902593
 31
0.0
  0
LINE
  5
194
330
1F
100
AcDbEntity
  8
Specialized_Text
  6
Continuous
100
AcDbLine
 10
11567.59151316874
 20
-945.740420849426
 30
0.0
 11
11571.47324530855
 21
-945.740420849426
 31
0.0
  0
LINE
  5
195
330
1F
100
AcDbEntity
  8
Specialized_Text
  6
Continuous
100
AcDbLine
 10
11547.68346775342
 20
-954.5812816326129
 30
0.0
 11
11551.51750620821
 21
-954.5812816326129
 31
0.0
  0
LINE
  5
196
330
1F
100
AcDbEntity
  8
Specialized_Text
  6
Continuous
100
AcDbLine
 10
11555.87648457167
 20
-954.5812816326129
 30
0.0
 11
11559.65845244549
 21
-954.5812816326129
 31
0.0
  0
LINE
  5
197
330
1F
100
AcDbEntity
  8
Specialized_Text
  6
Continuous
100
AcDbLine
 10
11564.01403895789
 20
-954.5812816326129
 30
0.0
 11
11567.76193632285
 21
-954.5812816326129
 31
0.0
  0
LINE
  5
198
330
1F
100
AcDbEntity
  8
Specialized_Text
  6
Continuous
100
AcDbLine
 10
11543.10673025098
 20
-950.2856589521357
 30
0.0
 11
11543.52526626642
 21
-950.6974443866859
 31
0.0
  0
LINE
  5
199
330
1F
100
AcDbEntity
  8
Specialized_Text
  6
Continuous
100
AcDbLine
 10
11572.12030953345
 20
-954.5812816326129
 30
0.0
 11
11575.872256338
 21
-954.5812816326129
 31
0.0
  0
LINE
  5
19A
330
1F
100
AcDbEntity
  8
Specialized_Text
  6
Continuous
100
AcDbLine
 10
11580.22658010901
 20
-954.5812816326129
 30
0.0
 11
11584.05332086555
 21
-954.5812816326129
 31
0.0
  0
LINE
  5
19B
330
1F
100
AcDbEntity
  8
Specialized_Text
  6
Continuous
100
AcDbLine
 10
11586.64918489251
 20
-961.4393766029419
 30
0.0
 11
11589.89894896433
 21
-961.4393766029419
 31
0.0
  0
LINE
  5
19C
330
1F
100
AcDbEntity
  8
Specialized_Text
  6
Continuous
100
AcDbLine
 10
11586.64918489251
 20
-938.8341417598898
 30
0.0
 11
11586.64918489251
 21
-961.4393766029419
 31
0.0
  0
LINE
  5
19D
330
1F
100
AcDbEntity
  8
Specialized_Text
  6
Continuous
100
AcDbLine
 10
11585.65241685277
 20
-961.3972207204694
 30
0.0
 11
11586.05525362556
 21
-961.3972207204694
 31
0.0
  0
LINE
  5
19E
330
1F
100
AcDbEntity
  8
Specialized_Text
  6
Continuous
100
AcDbLine
 10
11589.66014929828
 20
-961.4393766029419
 30
0.0
 11
11589.66014929828
 21
-938.8341417598898
 31
0.0
  0
LINE
  5
19F
330
1F
100
AcDbEntity
  8
Specialized_Text
  6
Continuous
100
AcDbLine
 10
11583.86995895869
 20
-945.740420849426
 30
0.0
 11
11586.64918489251
 21
-945.740420849426
 31
0.0
  0
LINE
  5
1A0
330
1F
100
AcDbEntity
  8
Specialized_Text
  6
Continuous
100
AcDbLine
 10
11589.89894896433
 20
-961.4393766029419
 30
0.0
 11
11589.89894896433
 21
-938.8341417598898
 31
0.0
  0
LINE
  5
1A1
330
1F
100
AcDbEntity
  8
Specialized_Text
  6
Continuous
100
AcDbLine
 10
11586.64918489251
 20
-938.8341417598898
 30
0.0
 11
11589.89894896433
 21
-938.8341417598898
 31
0.0
  0
LINE
  5
1A4
330
1F
100
AcDbEntity
  8
Specialized_Lines
  6
PLASTER
 48
3.0
100
AcDbLine
 10
11586.87471167331
 20
-961.4393766029419
 30
0.0
 11
11586.87471167333
 21
-1030.375895042136
 31
0.0
  0
LINE
  5
1A5
330
1F
100
AcDbEntity
  8
Specialized_Lines
  6
DASHEDX2
100
AcDbLine
 10
11584.51591102886
 20
-1030.375895042136
 30
0.0
 11
11584.64747353637
 21
-959.8332462250061
 31
0.0
  0
LINE
  5
1A6
330
1F
100
AcDbEntity
  8
Specialized_Lines
  6
Continuous
100
AcDbLine
 10
11602.51587468979
 20
-1030.516821148519
 30
0.0
 11
11602.51587468979
 21
-871.3344151908225
 31
0.0
  0
LINE
  5
1A7
330
1F
100
AcDbEntity
  8
Specialized_Text
  6
Continuous
100
AcDbLine
 10
11703.87650064051
 20
-961.4393766029419
 30
0.0
 11
11703.87650064051
 21
-938.8341417598898
 31
0.0
  0
LINE
  5
1A8
330
1F
100
AcDbEntity
  8
Specialized_Lines
  6
Continuous
100
AcDbLine
 10
11591.56715439872
 20
-961.4393766029419
 30
0.0
 11
11600.51587468979
 21
-961.4393766029419
 31
0.0
  0
LINE
  5
1A9
330
1F
100
AcDbEntity
  8
Specialized_Lines
  6
PLASTER
 48
3.0
100
AcDbLine
 10
11586.87471167328
 20
-871.3344151908223
 30
0.0
 11
11586.8747116733
 21
-938.8341417598898
 31
0.0
  0
LINE
  5
1AA
330
1F
100
AcDbEntity
  8
Specialized_Lines
  6
DASHEDX2
100
AcDbLine
 10
11584.68409340396
 20
-945.740420849426
 30
0.0
 11
11584.58413009767
 21
-871.3344151908225
 31
0.0
  0
LINE
  5
1AB
330
1F
100
AcDbEntity
  8
Specialized_Lines
  6
Continuous
100
AcDbLine
 10
11700.51587468979
 20
-961.4393766029419
 30
0.0
 11
11703.87650064051
 21
-961.4393766029419
 31
0.0
  0
LINE
  5
1AC
330
1F
100
AcDbEntity
  8
Specialized_Lines
  6
Continuous
100
AcDbLine
 10
11591.56715439872
 20
-938.8341417598898
 30
0.0
 11
11600.51587468979
 21
-938.8341417598898
 31
0.0
  0
LINE
  5
1AD
330
1F
100
AcDbEntity
  8
Specialized_Lines
  6
Continuous
100
AcDbLine
 10
11700.51587468979
 20
-938.8341417598898
 30
0.0
 11
11703.87650064051
 21
-938.8341417598898
 31
0.0
  0
LINE
  5
1AE
330
1F
100
AcDbEntity
  8
Specialized_Lines
  6
Continuous
100
AcDbLine
 10
11698.51587468979
 20
-1030.516821148519
 30
0.0
 11
11698.51587468979
 21
-871.3344151908225
 31
0.0
  0
LWPOLYLINE
  5
1AF
330
1F
100
AcDbEntity
  8
Specialized_Lines
  6
Continuous
100
AcDbPolyline
 90
        2
 70
   128
 43
0.0
 10
11527.29096086448
 20
-871.3344151908241
 10
11527.29096086448
 20
-1030.51682114852
  0
LWPOLYLINE
  5
1B0
330
1F
100
AcDbEntity
  8
Specialized_Lines
  6
Continuous
100
AcDbPolyline
 90
        2
 70
   128
 43
0.0
 10
11582.4559714368
 20
-939.924297281337
 91
        1
 10
11582.4559714368
 20
-871.3344151908241
 91
        2
  0
LWPOLYLINE
  5
1B1
330
1F
100
AcDbEntity
  8
Specialized_Lines
  6
Continuous
100
AcDbPolyline
 90
        2
 70
   128
 43
0.0
 10
11582.4559714368
 20
-1030.375895042136
 10
11582.4559714368
 20
-954.5812816326129
  0
LWPOLYLINE
  5
1B3
330
1F
100
AcDbEntity
  8
Specialized_Fills
  6
DASHEDX2
 62
   253
420
 10461087
370
    20
100
AcDbPolyline
 90
        4
 70
   128
 43
0.0
 10
11505.54894397428
 20
-1009.48650502741
 42
0.656267497138051
 10
11469.68192721535
 20
-989.0438486441762
 10
11451.68192723677
 20
-1002.543848672813
 42
-0.6439562055307875
 10
11415.74377322214
 20
-982.8767411078946
  0
LWPOLYLINE
  5
1B4
330
1F
100
AcDbEntity
  8
Specialized_Fills
  6
DASHEDX2
 62
   253
420
 10461087
370
    20
100
AcDbPolyline
 90
        4
 70
   128
 43
0.0
 10
11415.76459452363
 20
-1030.511584014205
 42
-0.6329983779515662
 10
11451.74377358606
 20
-1011.543848564781
 10
11469.74377352645
 20
-1025.043848644176
 42
0.6240720422877373
 10
11505.74377372499
 20
-1007.043848644176
  0
LWPOLYLINE
  5
1B5
330
1F
100
AcDbEntity
  8
Specialized_Fills
  6
DASHEDX2
 62
   253
420
 10461087
370
    20
100
AcDbPolyline
 90
        2
 70
   128
 43
0.0
 10
11490.25687031662
 20
-1030.51682114852
 42
0.1482493634269842
 10
11477.20135992329
 20
-1030.51682114852
  0
LWPOLYLINE
  5
1B6
330
1F
100
AcDbEntity
  8
Specialized_Fills
  6
DASHEDX2
 62
   253
420
 10461087
370
    20
100
AcDbPolyline
 90
       10
 70
   128
 43
0.0
 10
11415.74377322214
 20
-982.8767411078946
 42
-0.6180339902741404
 10
11451.74377362424
 20
-964.8767410062641
 10
11469.74377356464
 20
-978.3767410856587
 42
2.000000011029643
 10
11469.74377356464
 20
-942.3767410856592
 10
11451.74377358606
 20
-955.8767411142973
 42
-2.000000003978641
 10
11451.74377358606
 20
-919.8767411142979
 10
11469.74377352645
 20
-933.3767411936927
 42
1.969837086033668
 10
11469.74377352645
 20
-897.3767411936929
 10
11451.74377354787
 20
-910.8767412223301
 42
-0.6439562055307875
 10
11415.80561953324
 20
-891.2096336574112
  0
LWPOLYLINE
  5
1B7
330
1F
100
AcDbEntity
  8
Specialized_Fills
  6
DASHEDX2
 62
   253
420
 10461087
370
    20
100
AcDbPolyline
 90
        4
 70
   128
 43
0.0
 10
11415.76459452363
 20
-894.5438487872291
 42
-0.6329983779515662
 10
11451.74377358606
 20
-875.5761133378047
 10
11469.74377352645
 20
-889.0761134171995
 42
0.6141547870126867
 10
11505.74235053083
 20
-871.32917805651
  0
LWPOLYLINE
  5
1B8
330
1F
100
AcDbEntity
  8
0
  6
Continuous
100
AcDbPolyline
 90
        6
 70
   128
 43
0.0
 10
11589.89979797305
 20
-871.3344151908225
 10
11465.17903934061
 20
-871.3344151908225
 10
11463.17903934062
 20
-865.8394603519136
 10
11459.17903934061
 20
-876.8293700297315
 10
11457.17903934061
 20
-871.3344151908225
 10
11401.97929535744
 20
-871.3344151908225
  0
LWPOLYLINE
  5
1B9
330
1F
100
AcDbEntity
  8
0
  6
Continuous
100
AcDbPolyline
 90
        6
 70
   128
 43
0.0
 10
11704.60017639779
 20
-871.3344151908225
 10
11655.4519218095
 20
-871.3344151908225
 10
11653.45192180951
 20
-865.8394603519136
 10
11649.4519218095
 20
-876.8293700297315
 10
11647.45192180951
 20
-871.3344151908225
 10
11598.42309659118
 20
-871.3344151908225
  0
LWPOLYLINE
  5
1BA
330
1F
100
AcDbEntity
  8
0
  6
Continuous
100
AcDbPolyline
 90
        6
 70
   128
 43
0.0
 10
11589.89979797305
 20
-1030.375895042136
 10
11465.17903934061
 20
-1030.375895042136
 10
11463.17903934062
 20
-1024.880940203227
 10
11459.17903934061
 20
-1035.870849881045
 10
11457.17903934061
 20
-1030.375895042136
 10
11401.97929535744
 20
-1030.375895042136
  0
LWPOLYLINE
  5
1BB
330
1F
100
AcDbEntity
  8
0
  6
Continuous
100
AcDbPolyline
 90
        6
 70
   128
 43
0.0
 10
11704.60017639779
 20
-1030.375895042136
 10
11655.4519218095
 20
-1030.375895042136
 10
11653.45192180951
 20
-1024.880940203227
 10
11649.4519218095
 20
-1035.870849881045
 10
11647.45192180951
 20
-1030.375895042136
 10
11598.42309659118
 20
-1030.375895042136
  0
SPLINE
  5
1BC
330
1F
100
AcDbEntity
  8
Specialized_Lines
  6
Continuous
100
AcDbSpline
210
0.0
220
0.0
230
1.0
 70
     8
 71
     3
 72
    14
 73
    10
 74
     0
 42
0.00001
 43
0.0000000001
 40
0.0
 40
0.0
 40
0.0
 40
0.0
 40
1.0
 40
1.0
 40
1.0
 40
2.0
 40
2.0
 40
2.0
 40
3.0
 40
3.0
 40
3.0
 40
3.0
 10
11547.11384238573
 20
-945.740420849426
 30
0.0
 10
11547.11384238573
 20
-945.740420849426
 30
0.0
 10
11548.01579443591
 20
-945.8167866096722
 30
0.0
 10
11548.84519583836
 20
-946.1409411229517
 30
0.0
 10
11549.4372439139
 20
-946.3723309604823
 30
0.0
 10
11549.98529150512
 20
-946.7168475297809
 30
0.0
 10
11550.38736438689
 20
-947.208596271928
 30
0.0
 10
11551.11383224396
 20
-948.0970910477031
 30
0.0
 10
11551.25919254544
 20
-949.3026739701276
 30
0.0
 10
11551.25919254544
 20
-949.3026739701276
 30
0.0
  0
SPLINE
  5
1BD
330
1F
100
AcDbEntity
  8
Specialized_Lines
  6
Continuous
100
AcDbSpline
210
0.0
220
0.0
230
1.0
 70
     8
 71
     3
 72
    53
 73
    49
 74
     0
 42
0.00001
 43
0.0000000001
 40
0.0
 40
0.0
 40
0.0
 40
0.0
 40
1.0
 40
1.0
 40
1.0
 40
2.0
 40
2.0
 40
2.0
 40
3.0
 40
3.0
 40
3.0
 40
4.0
 40
4.0
 40
4.0
 40
5.0
 40
5.0
 40
5.0
 40
6.0
 40
6.0
 40
6.0
 40
7.0
 40
7.0
 40
7.0
 40
8.0
 40
8.0
 40
8.0
 40
9.0
 40
9.0
 40
9.0
 40
10.0
 40
10.0
 40
10.0
 40
11.0
 40
11.0
 40
11.0
 40
12.0
 40
12.0
 40
12.0
 40
13.0
 40
13.0
 40
13.0
 40
14.0
 40
14.0
 40
14.0
 40
15.0
 40
15.0
 40
15.0
 40
16.0
 40
16.0
 40
16.0
 40
16.0
 10
11546.89376242611
 20
-945.740420849426
 30
0.0
 10
11546.89376242611
 20
-945.740420849426
 30
0.0
 10
11546.96962009986
 20
-944.6026412974058
 30
0.0
 10
11547.12566096062
 20
-943.4743080733349
 30
0.0
 10
11547.27578674335
 20
-942.3887468451905
 30
0.0
 10
11547.50141869945
 20
-941.3147816289537
 30
0.0
 10
11547.84454641761
 20
-940.2741082970559
 30
0.0
 10
11547.98007406851
 20
-939.8630659808372
 30
0.0
 10
11548.13183692393
 20
-939.4519620037094
 30
0.0
 10
11548.40110290044
 20
-939.1146156244909
 30
0.0
 10
11548.50869796417
 20
-938.9798165472303
 30
0.0
 10
11548.63300143496
 20
-938.8595272365266
 30
0.0
 10
11548.63300143496
 20
-938.8595272365266
 30
0.0
 10
11548.63300143496
 20
-938.8595272365266
 30
0.0
 10
11548.79583891355
 20
-938.8086075412434
 30
0.0
 10
11548.95765938327
 20
-938.8363373830754
 30
0.0
 10
11549.1873063003
 20
-938.8756900848511
 30
0.0
 10
11549.35049555886
 20
-939.0643885131893
 30
0.0
 10
11549.49102601265
 20
-939.2537547451988
 30
0.0
 10
11549.92598354493
 20
-939.8398644939851
 30
0.0
 10
11550.14448218579
 20
-940.5460639164367
 30
0.0
 10
11550.34905059035
 20
-941.2480821420103
 30
0.0
 10
11550.79234331316
 20
-942.7693315810095
 30
0.0
 10
11551.13943006418
 20
-944.318957238819
 30
0.0
 10
11551.36940414221
 20
-945.8860528322698
 30
0.0
 10
11551.62942877489
 20
-947.6579197294299
 30
0.0
 10
11551.66446771751
 20
-949.4529620679575
 30
0.0
 10
11551.74044179743
 20
-951.2429089795197
 30
0.0
 10
11551.81663479775
 20
-953.0380136487185
 30
0.0
 10
11551.92473742933
 20
-954.8317359495198
 30
0.0
 10
11552.06509974575
 20
-956.6229549802208
 30
0.0
 10
11552.1420834273
 20
-957.6053741861764
 30
0.0
 10
11552.231544531
 20
-958.5887805531839
 30
0.0
 10
11552.4559811876
 20
-959.5477752467658
 30
0.0
 10
11552.5750776981
 20
-960.0566623569383
 30
0.0
 10
11552.73126847924
 20
-960.5631592085369
 30
0.0
 10
11553.04270595201
 20
-960.9808580885207
 30
0.0
 10
11553.22373749946
 20
-961.2236569846977
 30
0.0
 10
11553.46064510992
 20
-961.4404705420465
 30
0.0
 10
11553.75844216964
 20
-961.4393766029419
 30
0.0
 10
11554.11844328304
 20
-961.4380541610879
 30
0.0
 10
11554.36384667306
 20
-961.1203280040939
 30
0.0
 10
11554.55246203608
 20
-960.8019240341127
 30
0.0
 10
11555.06269867248
 20
-959.9405871416008
 30
0.0
 10
11555.23775301457
 20
-958.9366910834185
 30
0.0
 10
11555.39336262477
 20
-957.943810383051
 30
0.0
 10
11555.6563611663
 20
-956.2657252327122
 30
0.0
 10
11555.87648457167
 20
-954.5812816326129
 30
0.0
 10
11555.87648457167
 20
-954.5812816326129
 30
0.0
  0
SPLINE
  5
1BE
330
1F
100
AcDbEntity
  8
Specialized_Lines
  6
Continuous
100
AcDbSpline
210
0.0
220
0.0
230
1.0
 70
     8
 71
     3
 72
    53
 73
    49
 74
     0
 42
0.00001
 43
0.0000000001
 40
0.0
 40
0.0
 40
0.0
 40
0.0
 40
1.0
 40
1.0
 40
1.0
 40
2.0
 40
2.0
 40
2.0
 40
3.0
 40
3.0
 40
3.0
 40
4.0
 40
4.0
 40
4.0
 40
5.0
 40
5.0
 40
5.0
 40
6.0
 40
6.0
 40
6.0
 40
7.0
 40
7.0
 40
7.0
 40
8.0
 40
8.0
 40
8.0
 40
9.0
 40
9.0
 40
9.0
 40
10.0
 40
10.0
 40
10.0
 40
11.0
 40
11.0
 40
11.0
 40
12.0
 40
12.0
 40
12.0
 40
13.0
 40
13.0
 40
13.0
 40
14.0
 40
14.0
 40
14.0
 40
15.0
 40
15.0
 40
15.0
 40
16.0
 40
16.0
 40
16.0
 40
16.0
 10
11555.03131681233
 20
-945.740420849426
 30
0.0
 10
11555.03131681233
 20
-945.740420849426
 30
0.0
 10
11555.10717448609
 20
-944.6026412974058
 30
0.0
 10
11555.26321534685
 20
-943.4743080733349
 30
0.0
 10
11555.41334112958
 20
-942.3887468451905
 30
0.0
 10
11555.63897308569
 20
-941.3147816289557
 30
0.0
 10
11555.98210080384
 20
-940.2741082970559
 30
0.0
 10
11556.11762845474
 20
-939.8630659808372
 30
0.0
 10
11556.26939131016
 20
-939.451962003711
 30
0.0
 10
11556.53865728667
 20
-939.1146156244909
 30
0.0
 10
11556.6462523504
 20
-938.9798165472303
 30
0.0
 10
11556.77055582118
 20
-938.8595272365266
 30
0.0
 10
11556.77055582118
 20
-938.8595272365266
 30
0.0
 10
11556.77055582118
 20
-938.8595272365266
 30
0.0
 10
11556.93339329977
 20
-938.8086075412429
 30
0.0
 10
11557.0952137695
 20
-938.8363373830754
 30
0.0
 10
11557.32486068652
 20
-938.8756900848511
 30
0.0
 10
11557.48804994508
 20
-939.06438851319
 30
0.0
 10
11557.62858039888
 20
-939.2537547451988
 30
0.0
 10
11558.06353793116
 20
-939.8398644939851
 30
0.0
 10
11558.28203657202
 20
-940.5460639164358
 30
0.0
 10
11558.48660497658
 20
-941.2480821420103
 30
0.0
 10
11558.92989769938
 20
-942.7693315810095
 30
0.0
 10
11559.2769844504
 20
-944.3189572388192
 30
0.0
 10
11559.50695852843
 20
-945.8860528322698
 30
0.0
 10
11559.76698316112
 20
-947.6579197294299
 30
0.0
 10
11559.80202210373
 20
-949.4529620679575
 30
0.0
 10
11559.87799618366
 20
-951.2429089795197
 30
0.0
 10
11559.95418918397
 20
-953.0380136487185
 30
0.0
 10
11560.06229181555
 20
-954.83173594952
 30
0.0
 10
11560.20265413197
 20
-956.6229549802208
 30
0.0
 10
11560.27963781352
 20
-957.6053741861764
 30
0.0
 10
11560.36909891722
 20
-958.5887805531847
 30
0.0
 10
11560.59353557383
 20
-959.5477752467658
 30
0.0
 10
11560.71263208433
 20
-960.0566623569383
 30
0.0
 10
11560.86882286547
 20
-960.5631592085348
 30
0.0
 10
11561.18026033823
 20
-960.9808580885207
 30
0.0
 10
11561.36129188569
 20
-961.2236569846977
 30
0.0
 10
11561.59819949615
 20
-961.4404705420465
 30
0.0
 10
11561.89599655586
 20
-961.4393766029419
 30
0.0
 10
11562.25599766927
 20
-961.4380541610879
 30
0.0
 10
11562.50140105929
 20
-961.120328004093
 30
0.0
 10
11562.6900164223
 20
-960.8019240341127
 30
0.0
 10
11563.2002530587
 20
-959.9405871416008
 30
0.0
 10
11563.3753074008
 20
-958.9366910834185
 30
0.0
 10
11563.53091701099
 20
-957.943810383051
 30
0.0
 10
11563.79391555253
 20
-956.2657252327122
 30
0.0
 10
11564.01403895789
 20
-954.5812816326129
 30
0.0
 10
11564.01403895789
 20
-954.5812816326129
 30
0.0
  0
SPLINE
  5
1BF
330
1F
100
AcDbEntity
  8
Specialized_Lines
  6
Continuous
100
AcDbSpline
210
0.0
220
0.0
230
1.0
 70
     8
 71
     3
 72
    29
 73
    25
 74
     0
 42
0.00001
 43
0.0000000001
 40
0.0
 40
0.0
 40
0.0
 40
0.0
 40
1.0
 40
1.0
 40
1.0
 40
2.0
 40
2.0
 40
2.0
 40
3.0
 40
3.0
 40
3.0
 40
4.0
 40
4.0
 40
4.0
 40
5.0
 40
5.0
 40
5.0
 40
6.0
 40
6.0
 40
6.0
 40
7.0
 40
7.0
 40
7.0
 40
8.0
 40
8.0
 40
8.0
 40
8.0
 10
11556.89686944484
 20
-938.8341417598898
 30
0.0
 10
11556.94318881004
 20
-938.8859211273359
 30
0.0
 10
11557.18480406208
 20
-939.1980983062641
 30
0.0
 10
11557.22610722652
 20
-939.2537547451988
 30
0.0
 10
11557.66106475879
 20
-939.8398644939851
 30
0.0
 10
11557.87956339966
 20
-940.5460639164365
 30
0.0
 10
11558.08413180422
 20
-941.2480821420103
 30
0.0
 10
11558.52742452702
 20
-942.7693315810095
 30
0.0
 10
11558.87451127804
 20
-944.3189572388192
 30
0.0
 10
11559.10448535607
 20
-945.8860528322698
 30
0.0
 10
11559.36450998876
 20
-947.6579197294299
 30
0.0
 10
11559.39954893137
 20
-949.4529620679573
 30
0.0
 10
11559.47552301129
 20
-951.2429089795197
 30
0.0
 10
11559.55171601161
 20
-953.0380136487185
 30
0.0
 10
11559.65981864319
 20
-954.8317359495198
 30
0.0
 10
11559.80018095961
 20
-956.6229549802208
 30
0.0
 10
11559.87716464116
 20
-957.6053741861764
 30
0.0
 10
11559.96662574486
 20
-958.5887805531843
 30
0.0
 10
11560.19106240147
 20
-959.5477752467658
 30
0.0
 10
11560.31015891197
 20
-960.0566623569383
 30
0.0
 10
11560.46634969311
 20
-960.5631592085352
 30
0.0
 10
11560.77778716587
 20
-960.9808580885207
 30
0.0
 10
11560.91043461278
 20
-961.1587643934841
 30
0.0
 10
11561.07308163189
 20
-961.3227193030459
 30
0.0
 10
11561.26770048727
 20
-961.3972207204694
 30
0.0
  0
SPLINE
  5
1C0
330
1F
100
AcDbEntity
  8
Specialized_Lines
  6
Continuous
100
AcDbSpline
210
0.0
220
0.0
230
1.0
 70
     8
 71
     3
 72
    53
 73
    49
 74
     0
 42
0.00001
 43
0.0000000001
 40
0.0
 40
0.0
 40
0.0
 40
0.0
 40
1.0
 40
1.0
 40
1.0
 40
2.0
 40
2.0
 40
2.0
 40
3.0
 40
3.0
 40
3.0
 40
4.0
 40
4.0
 40
4.0
 40
5.0
 40
5.0
 40
5.0
 40
6.0
 40
6.0
 40
6.0
 40
7.0
 40
7.0
 40
7.0
 40
8.0
 40
8.0
 40
8.0
 40
9.0
 40
9.0
 40
9.0
 40
10.0
 40
10.0
 40
10.0
 40
11.0
 40
11.0
 40
11.0
 40
12.0
 40
12.0
 40
12.0
 40
13.0
 40
13.0
 40
13.0
 40
14.0
 40
14.0
 40
14.0
 40
15.0
 40
15.0
 40
15.0
 40
16.0
 40
16.0
 40
16.0
 40
16.0
 10
11563.13758738789
 20
-945.740420849426
 30
0.0
 10
11563.13758738789
 20
-945.740420849426
 30
0.0
 10
11563.21344506165
 20
-944.6026412974054
 30
0.0
 10
11563.36948592241
 20
-943.4743080733349
 30
0.0
 10
11563.51961170514
 20
-942.3887468451905
 30
0.0
 10
11563.74524366125
 20
-941.3147816289557
 30
0.0
 10
11564.0883713794
 20
-940.2741082970559
 30
0.0
 10
11564.2238990303
 20
-939.8630659808372
 30
0.0
 10
11564.37566188572
 20
-939.4519620037142
 30
0.0
 10
11564.64492786223
 20
-939.1146156244909
 30
0.0
 10
11564.75252292596
 20
-938.9798165472303
 30
0.0
 10
11564.87682639674
 20
-938.8595272365266
 30
0.0
 10
11564.87682639674
 20
-938.8595272365266
 30
0.0
 10
11564.87682639674
 20
-938.8595272365266
 30
0.0
 10
11565.03966387533
 20
-938.8086075412427
 30
0.0
 10
11565.20148434506
 20
-938.8363373830754
 30
0.0
 10
11565.43113126209
 20
-938.8756900848511
 30
0.0
 10
11565.59432052064
 20
-939.0643885131902
 30
0.0
 10
11565.73485097444
 20
-939.2537547451988
 30
0.0
 10
11566.16980850672
 20
-939.8398644939851
 30
0.0
 10
11566.38830714758
 20
-940.546063916436
 30
0.0
 10
11566.59287555214
 20
-941.2480821420103
 30
0.0
 10
11567.03616827494
 20
-942.7693315810095
 30
0.0
 10
11567.38325502597
 20
-944.3189572388192
 30
0.0
 10
11567.613229104
 20
-945.8860528322698
 30
0.0
 10
11567.87325373668
 20
-947.6579197294299
 30
0.0
 10
11567.9082926793
 20
-949.4529620679573
 30
0.0
 10
11567.98426675922
 20
-951.2429089795197
 30
0.0
 10
11568.06045975953
 20
-953.0380136487185
 30
0.0
 10
11568.16856239111
 20
-954.8317359495202
 30
0.0
 10
11568.30892470753
 20
-956.6229549802208
 30
0.0
 10
11568.38590838908
 20
-957.6053741861764
 30
0.0
 10
11568.47536949278
 20
-958.5887805531845
 30
0.0
 10
11568.69980614939
 20
-959.5477752467658
 30
0.0
 10
11568.81890265989
 20
-960.0566623569383
 30
0.0
 10
11568.97509344103
 20
-960.5631592085348
 30
0.0
 10
11569.28653091379
 20
-960.9808580885207
 30
0.0
 10
11569.46756246125
 20
-961.2236569846977
 30
0.0
 10
11569.70447007171
 20
-961.4404705420465
 30
0.0
 10
11570.00226713142
 20
-961.4393766029419
 30
0.0
 10
11570.36226824483
 20
-961.4380541610879
 30
0.0
 10
11570.60767163485
 20
-961.1203280040932
 30
0.0
 10
11570.79628699786
 20
-960.8019240341127
 30
0.0
 10
11571.30652363426
 20
-959.9405871416008
 30
0.0
 10
11571.48157797636
 20
-958.9366910834185
 30
0.0
 10
11571.63718758655
 20
-957.943810383051
 30
0.0
 10
11571.90018612809
 20
-956.2657252327122
 30
0.0
 10
11572.12030953345
 20
-954.5812816326129
 30
0.0
 10
11572.12030953345
 20
-954.5812816326129
 30
0.0
  0
SPLINE
  5
1C1
330
1F
100
AcDbEntity
  8
Specialized_Lines
  6
Continuous
100
AcDbSpline
210
0.0
220
0.0
230
1.0
 70
     8
 71
     3
 72
    29
 73
    25
 74
     0
 42
0.00001
 43
0.0000000001
 40
0.0
 40
0.0
 40
0.0
 40
0.0
 40
1.0
 40
1.0
 40
1.0
 40
2.0
 40
2.0
 40
2.0
 40
3.0
 40
3.0
 40
3.0
 40
4.0
 40
4.0
 40
4.0
 40
5.0
 40
5.0
 40
5.0
 40
6.0
 40
6.0
 40
6.0
 40
7.0
 40
7.0
 40
7.0
 40
8.0
 40
8.0
 40
8.0
 40
8.0
 10
11548.75931505861
 20
-938.8341417598898
 30
0.0
 10
11548.80563442381
 20
-938.8859211273359
 30
0.0
 10
11549.04724967585
 20
-939.1980983062641
 30
0.0
 10
11549.08855284029
 20
-939.2537547451988
 30
0.0
 10
11549.52351037257
 20
-939.8398644939851
 30
0.0
 10
11549.74200901343
 20
-940.5460639164367
 30
0.0
 10
11549.94657741799
 20
-941.2480821420103
 30
0.0
 10
11550.38987014079
 20
-942.7693315810095
 30
0.0
 10
11550.73695689182
 20
-944.3189572388194
 30
0.0
 10
11550.96693096985
 20
-945.8860528322698
 30
0.0
 10
11551.22695560253
 20
-947.6579197294299
 30
0.0
 10
11551.26199454515
 20
-949.4529620679573
 30
0.0
 10
11551.33796862507
 20
-951.2429089795197
 30
0.0
 10
11551.41416162538
 20
-953.0380136487185
 30
0.0
 10
11551.52226425696
 20
-954.83173594952
 30
0.0
 10
11551.66262657338
 20
-956.6229549802208
 30
0.0
 10
11551.73961025493
 20
-957.6053741861764
 30
0.0
 10
11551.82907135863
 20
-958.5887805531855
 30
0.0
 10
11552.05350801524
 20
-959.5477752467658
 30
0.0
 10
11552.17260452574
 20
-960.0566623569383
 30
0.0
 10
11552.32879530689
 20
-960.5631592085339
 30
0.0
 10
11552.64023277964
 20
-960.9808580885207
 30
0.0
 10
11552.77288022655
 20
-961.1587643934841
 30
0.0
 10
11552.93552724566
 20
-961.3227193030459
 30
0.0
 10
11553.13014610104
 20
-961.3972207204694
 30
0.0
  0
SPLINE
  5
1C2
330
1F
100
AcDbEntity
  8
Specialized_Lines
  6
Continuous
100
AcDbSpline
210
0.0
220
0.0
230
1.0
 70
     8
 71
     3
 72
    47
 73
    43
 74
     0
 42
0.00001
 43
0.0000000001
 40
0.0
 40
0.0
 40
0.0
 40
0.0
 40
1.0
 40
1.0
 40
1.0
 40
2.0
 40
2.0
 40
2.0
 40
3.0
 40
3.0
 40
3.0
 40
4.0
 40
4.0
 40
4.0
 40
5.0
 40
5.0
 40
5.0
 40
6.0
 40
6.0
 40
6.0
 40
7.0
 40
7.0
 40
7.0
 40
8.0
 40
8.0
 40
8.0
 40
9.0
 40
9.0
 40
9.0
 40
10.0
 40
10.0
 40
10.0
 40
11.0
 40
11.0
 40
11.0
 40
12.0
 40
12.0
 40
12.0
 40
13.0
 40
13.0
 40
13.0
 40
14.0
 40
14.0
 40
14.0
 40
14.0
 10
11579.41603317784
 20
-945.740420849426
 30
0.0
 10
11579.41603317784
 20
-945.740420849426
 30
0.0
 10
11579.4918908516
 20
-944.6026412974058
 30
0.0
 10
11579.64793171235
 20
-943.4743080733349
 30
0.0
 10
11579.79805749508
 20
-942.3887468451905
 30
0.0
 10
11580.02368945119
 20
-941.3147816289557
 30
0.0
 10
11580.36681716934
 20
-940.2741082970559
 30
0.0
 10
11580.50234482025
 20
-939.8630659808372
 30
0.0
 10
11580.65410767567
 20
-939.4519620037142
 30
0.0
 10
11580.92337365218
 20
-939.1146156244909
 30
0.0
 10
11581.0309687159
 20
-938.9798165472303
 30
0.0
 10
11581.15527218669
 20
-938.8595272365266
 30
0.0
 10
11581.15527218669
 20
-938.8595272365266
 30
0.0
 10
11581.15527218669
 20
-938.8595272365266
 30
0.0
 10
11581.31810966528
 20
-938.8086075412429
 30
0.0
 10
11581.47993013501
 20
-938.8363373830754
 30
0.0
 10
11581.70957705203
 20
-938.8756900848511
 30
0.0
 10
11581.87276631059
 20
-939.0643885131893
 30
0.0
 10
11582.01329676439
 20
-939.2537547451988
 30
0.0
 10
11582.44825429666
 20
-939.8398644939851
 30
0.0
 10
11582.66675293752
 20
-940.5460639164367
 30
0.0
 10
11582.87132134208
 20
-941.2480821420103
 30
0.0
 10
11583.31461406489
 20
-942.7693315810095
 30
0.0
 10
11583.66170081591
 20
-944.3189572388192
 30
0.0
 10
11583.89167489394
 20
-945.8860528322698
 30
0.0
 10
11584.15169952663
 20
-947.6579197294299
 30
0.0
 10
11584.19135374332
 20
-949.4527721333932
 30
0.0
 10
11584.26271254916
 20
-951.2429089795197
 30
0.0
 10
11584.33428229589
 20
-953.0383375770203
 30
0.0
 10
11584.44690824687
 20
-954.8316768053982
 30
0.0
 10
11584.58737049748
 20
-956.6229549802208
 30
0.0
 10
11584.66439901098
 20
-957.6052793732253
 30
0.0
 10
11584.75522855822
 20
-958.5886309670277
 30
0.0
 10
11584.97825193933
 20
-959.5477752467658
 30
0.0
 10
11585.09660883469
 20
-960.0567861790942
 30
0.0
 10
11585.25838144491
 20
-960.5596178610095
 30
0.0
 10
11585.56497670374
 20
-960.9808580885207
 30
0.0
 10
11585.74507342603
 20
-961.2282982627759
 30
0.0
 10
11585.98183880575
 20
-961.4564495665222
 30
0.0
 10
11586.28071292137
 20
-961.4393766029419
 30
0.0
 10
11586.41159294466
 20
-961.4319001780717
 30
0.0
 10
11586.53321892893
 20
-961.3783749956905
 30
0.0
 10
11586.64918489251
 20
-961.3149360874309
 30
0.0
  0
SPLINE
  5
1C3
330
1F
100
AcDbEntity
  8
Specialized_Lines
  6
Continuous
100
AcDbSpline
210
0.0
220
0.0
230
1.0
 70
     8
 71
     3
 72
    29
 73
    25
 74
     0
 42
0.00001
 43
0.0000000001
 40
0.0
 40
0.0
 40
0.0
 40
0.0
 40
1.0
 40
1.0
 40
1.0
 40
2.0
 40
2.0
 40
2.0
 40
3.0
 40
3.0
 40
3.0
 40
4.0
 40
4.0
 40
4.0
 40
5.0
 40
5.0
 40
5.0
 40
6.0
 40
6.0
 40
6.0
 40
7.0
 40
7.0
 40
7.0
 40
8.0
 40
8.0
 40
8.0
 40
8.0
 10
11543.52526626642
 20
-950.6974443866859
 30
0.0
 10
11543.53241600153
 20
-950.879298728886
 30
0.0
 10
11543.53970939793
 20
-951.0611301300658
 30
0.0
 10
11543.54742497918
 20
-951.2429089795197
 30
0.0
 10
11543.6236179795
 20
-953.0380136487185
 30
0.0
 10
11543.73172061108
 20
-954.8317359495198
 30
0.0
 10
11543.8720829275
 20
-956.6229549802208
 30
0.0
 10
11543.94906660905
 20
-957.6053741861764
 30
0.0
 10
11544.03852771274
 20
-958.5887805531848
 30
0.0
 10
11544.26296436935
 20
-959.5477752467658
 30
0.0
 10
11544.38206087986
 20
-960.0566623569383
 30
0.0
 10
11544.538251661
 20
-960.5631592085366
 30
0.0
 10
11544.84968913376
 20
-960.9808580885207
 30
0.0
 10
11545.03072068121
 20
-961.2236569846977
 30
0.0
 10
11545.26762829167
 20
-961.4404705420465
 30
0.0
 10
11545.56542535139
 20
-961.4393766029419
 30
0.0
 10
11545.9254264648
 20
-961.4380541610879
 30
0.0
 10
11546.17082985481
 20
-961.120328004093
 30
0.0
 10
11546.35944521783
 20
-960.8019240341127
 30
0.0
 10
11546.86968185423
 20
-959.9405871416008
 30
0.0
 10
11547.04473619633
 20
-958.9366910834186
 30
0.0
 10
11547.20034580652
 20
-957.943810383051
 30
0.0
 10
11547.46334434806
 20
-956.2657252327122
 30
0.0
 10
11547.68346775342
 20
-954.5812816326129
 30
0.0
 10
11547.68346775342
 20
-954.5812816326129
 30
0.0
  0
SPLINE
  5
1C4
330
1F
100
AcDbEntity
  8
Specialized_Lines
  6
Continuous
100
AcDbSpline
210
0.0
220
0.0
230
1.0
 70
     8
 71
     3
 72
    20
 73
    16
 74
     0
 42
0.00001
 43
0.0000000001
 40
0.0
 40
0.0
 40
0.0
 40
0.0
 40
1.0
 40
1.0
 40
1.0
 40
2.0
 40
2.0
 40
2.0
 40
3.0
 40
3.0
 40
3.0
 40
4.0
 40
4.0
 40
4.0
 40
5.0
 40
5.0
 40
5.0
 40
5.0
 10
11543.10673025098
 20
-950.2856589521357
 30
0.0
 10
11543.11917406491
 20
-950.6047974486884
 30
0.0
 10
11543.13141295755
 20
-950.9239341205629
 30
0.0
 10
11543.14495180682
 20
-951.2429089795197
 30
0.0
 10
11543.22114480714
 20
-953.0380136487185
 30
0.0
 10
11543.32924743872
 20
-954.83173594952
 30
0.0
 10
11543.46960975514
 20
-956.6229549802208
 30
0.0
 10
11543.54659343669
 20
-957.6053741861764
 30
0.0
 10
11543.63605454038
 20
-958.5887805531848
 30
0.0
 10
11543.86049119699
 20
-959.5477752467658
 30
0.0
 10
11543.9795877075
 20
-960.0566623569383
 30
0.0
 10
11544.13577848864
 20
-960.5631592085369
 30
0.0
 10
11544.44721596139
 20
-960.9808580885207
 30
0.0
 10
11544.5798634083
 20
-961.1587643934841
 30
0.0
 10
11544.74251042741
 20
-961.3227193030459
 30
0.0
 10
11544.93712928279
 20
-961.3972207204694
 30
0.0
  0
SPLINE
  5
1C5
330
1F
100
AcDbEntity
  8
Specialized_Lines
  6
Continuous
100
AcDbSpline
210
0.0
220
0.0
230
1.0
 70
     8
 71
     3
 72
    29
 73
    25
 74
     0
 42
0.00001
 43
0.0000000001
 40
0.0
 40
0.0
 40
0.0
 40
0.0
 40
1.0
 40
1.0
 40
1.0
 40
2.0
 40
2.0
 40
2.0
 40
3.0
 40
3.0
 40
3.0
 40
4.0
 40
4.0
 40
4.0
 40
5.0
 40
5.0
 40
5.0
 40
6.0
 40
6.0
 40
6.0
 40
7.0
 40
7.0
 40
7.0
 40
8.0
 40
8.0
 40
8.0
 40
8.0
 10
11565.0031400204
 20
-938.8341417598898
 30
0.0
 10
11565.0494593856
 20
-938.8859211273359
 30
0.0
 10
11565.29107463764
 20
-939.1980983062643
 30
0.0
 10
11565.33237780208
 20
-939.2537547451988
 30
0.0
 10
11565.76733533436
 20
-939.8398644939851
 30
0.0
 10
11565.98583397522
 20
-940.546063916436
 30
0.0
 10
11566.19040237978
 20
-941.2480821420103
 30
0.0
 10
11566.63369510258
 20
-942.7693315810095
 30
0.0
 10
11566.9807818536
 20
-944.318957238819
 30
0.0
 10
11567.21075593163
 20
-945.8860528322698
 30
0.0
 10
11567.47078056431
 20
-947.6579197294299
 30
0.0
 10
11567.50581950693
 20
-949.4529620679573
 30
0.0
 10
11567.58179358685
 20
-951.2429089795197
 30
0.0
 10
11567.65798658717
 20
-953.0380136487185
 30
0.0
 10
11567.76608921875
 20
-954.83173594952
 30
0.0
 10
11567.90645153517
 20
-956.6229549802208
 30
0.0
 10
11567.98343521672
 20
-957.6053741861764
 30
0.0
 10
11568.07289632042
 20
-958.5887805531847
 30
0.0
 10
11568.29733297702
 20
-959.5477752467658
 30
0.0
 10
11568.41642948753
 20
-960.0566623569383
 30
0.0
 10
11568.57262026867
 20
-960.5631592085352
 30
0.0
 10
11568.88405774143
 20
-960.9808580885207
 30
0.0
 10
11569.01670518834
 20
-961.1587643934841
 30
0.0
 10
11569.17935220745
 20
-961.3227193030459
 30
0.0
 10
11569.37397106283
 20
-961.3972207204694
 30
0.0
  0
SPLINE
  5
1C6
330
1F
100
AcDbEntity
  8
Specialized_Lines
  6
Continuous
100
AcDbSpline
210
0.0
220
0.0
230
1.0
 70
     8
 71
     3
 72
    53
 73
    49
 74
     0
 42
0.00001
 43
0.0000000001
 40
0.0
 40
0.0
 40
0.0
 40
0.0
 40
1.0
 40
1.0
 40
1.0
 40
2.0
 40
2.0
 40
2.0
 40
3.0
 40
3.0
 40
3.0
 40
4.0
 40
4.0
 40
4.0
 40
5.0
 40
5.0
 40
5.0
 40
6.0
 40
6.0
 40
6.0
 40
7.0
 40
7.0
 40
7.0
 40
8.0
 40
8.0
 40
8.0
 40
9.0
 40
9.0
 40
9.0
 40
10.0
 40
10.0
 40
10.0
 40
11.0
 40
11.0
 40
11.0
 40
12.0
 40
12.0
 40
12.0
 40
13.0
 40
13.0
 40
13.0
 40
14.0
 40
14.0
 40
14.0
 40
15.0
 40
15.0
 40
15.0
 40
16.0
 40
16.0
 40
16.0
 40
16.0
 10
11571.24385796346
 20
-945.740420849426
 30
0.0
 10
11571.24385796346
 20
-945.740420849426
 30
0.0
 10
11571.31971563721
 20
-944.6026412974054
 30
0.0
 10
11571.47575649797
 20
-943.4743080733349
 30
0.0
 10
11571.6258822807
 20
-942.3887468451905
 30
0.0
 10
11571.85151423681
 20
-941.314781628956
 30
0.0
 10
11572.19464195496
 20
-940.2741082970559
 30
0.0
 10
11572.33016960586
 20
-939.8630659808372
 30
0.0
 10
11572.48193246128
 20
-939.4519620037142
 30
0.0
 10
11572.75119843779
 20
-939.1146156244909
 30
0.0
 10
11572.85879350152
 20
-938.9798165472303
 30
0.0
 10
11572.9830969723
 20
-938.8595272365266
 30
0.0
 10
11572.9830969723
 20
-938.8595272365266
 30
0.0
 10
11572.9830969723
 20
-938.8595272365266
 30
0.0
 10
11573.14593445089
 20
-938.8086075412427
 30
0.0
 10
11573.30775492062
 20
-938.8363373830754
 30
0.0
 10
11573.53740183765
 20
-938.8756900848511
 30
0.0
 10
11573.7005910962
 20
-939.0643885131893
 30
0.0
 10
11573.84112155
 20
-939.2537547451988
 30
0.0
 10
11574.27607908228
 20
-939.8398644939851
 30
0.0
 10
11574.49457772314
 20
-940.5460639164365
 30
0.0
 10
11574.6991461277
 20
-941.2480821420103
 30
0.0
 10
11575.1424388505
 20
-942.7693315810095
 30
0.0
 10
11575.48952560152
 20
-944.3189572388192
 30
0.0
 10
11575.71949967955
 20
-945.8860528322698
 30
0.0
 10
11575.97952431224
 20
-947.6579197294299
 30
0.0
 10
11576.01456325486
 20
-949.4529620679573
 30
0.0
 10
11576.09053733478
 20
-951.2429089795197
 30
0.0
 10
11576.1667303351
 20
-953.0380136487185
 30
0.0
 10
11576.27483296667
 20
-954.8317359495202
 30
0.0
 10
11576.41519528309
 20
-956.6229549802208
 30
0.0
 10
11576.49217896464
 20
-957.6053741861764
 30
0.0
 10
11576.58164006835
 20
-958.5887805531843
 30
0.0
 10
11576.80607672495
 20
-959.5477752467658
 30
0.0
 10
11576.92517323545
 20
-960.0566623569383
 30
0.0
 10
11577.08136401659
 20
-960.5631592085366
 30
0.0
 10
11577.39280148935
 20
-960.9808580885207
 30
0.0
 10
11577.57383303681
 20
-961.2236569846977
 30
0.0
 10
11577.81074064727
 20
-961.4404705420465
 30
0.0
 10
11578.10853770699
 20
-961.4393766029419
 30
0.0
 10
11578.46853882039
 20
-961.4380541610879
 30
0.0
 10
11578.71394221041
 20
-961.1203280040941
 30
0.0
 10
11578.90255757342
 20
-960.8019240341127
 30
0.0
 10
11579.41279420982
 20
-959.9405871416008
 30
0.0
 10
11579.58784855192
 20
-958.9366910834186
 30
0.0
 10
11579.74345816211
 20
-957.943810383051
 30
0.0
 10
11580.00645670365
 20
-956.2657252327122
 30
0.0
 10
11580.22658010901
 20
-954.5812816326129
 30
0.0
 10
11580.22658010901
 20
-954.5812816326129
 30
0.0
  0
SPLINE
  5
1C7
330
1F
100
AcDbEntity
  8
Specialized_Lines
  6
Continuous
100
AcDbSpline
210
0.0
220
0.0
230
1.0
 70
     8
 71
     3
 72
    29
 73
    25
 74
     0
 42
0.00001
 43
0.0000000001
 40
0.0
 40
0.0
 40
0.0
 40
0.0
 40
1.0
 40
1.0
 40
1.0
 40
2.0
 40
2.0
 40
2.0
 40
3.0
 40
3.0
 40
3.0
 40
4.0
 40
4.0
 40
4.0
 40
5.0
 40
5.0
 40
5.0
 40
6.0
 40
6.0
 40
6.0
 40
7.0
 40
7.0
 40
7.0
 40
8.0
 40
8.0
 40
8.0
 40
8.0
 10
11573.10941059596
 20
-938.8341417598898
 30
0.0
 10
11573.15572996116
 20
-938.8859211273359
 30
0.0
 10
11573.3973452132
 20
-939.1980983062641
 30
0.0
 10
11573.43864837764
 20
-939.2537547451988
 30
0.0
 10
11573.87360590992
 20
-939.8398644939851
 30
0.0
 10
11574.09210455078
 20
-940.5460639164363
 30
0.0
 10
11574.29667295533
 20
-941.2480821420103
 30
0.0
 10
11574.73996567814
 20
-942.7693315810095
 30
0.0
 10
11575.08705242916
 20
-944.3189572388192
 30
0.0
 10
11575.31702650719
 20
-945.8860528322698
 30
0.0
 10
11575.57705113988
 20
-947.6579197294299
 30
0.0
 10
11575.61209008249
 20
-949.4529620679575
 30
0.0
 10
11575.68806416241
 20
-951.2429089795197
 30
0.0
 10
11575.76425716273
 20
-953.0380136487185
 30
0.0
 10
11575.87235979431
 20
-954.8317359495197
 30
0.0
 10
11576.01272211073
 20
-956.6229549802208
 30
0.0
 10
11576.08970579228
 20
-957.6053741861764
 30
0.0
 10
11576.17916689598
 20
-958.5887805531847
 30
0.0
 10
11576.40360355258
 20
-959.5477752467658
 30
0.0
 10
11576.52270006309
 20
-960.0566623569383
 30
0.0
 10
11576.67889084423
 20
-960.5631592085369
 30
0.0
 10
11576.99032831699
 20
-960.9808580885207
 30
0.0
 10
11577.1229757639
 20
-961.1587643934841
 30
0.0
 10
11577.28562278301
 20
-961.3227193030459
 30
0.0
 10
11577.48024163839
 20
-961.3972207204694
 30
0.0
  0
SPLINE
  5
1C8
330
1F
100
AcDbEntity
  8
Specialized_Lines
  6
Continuous
100
AcDbSpline
210
0.0
220
0.0
230
1.0
 70
     8
 71
     3
 72
    29
 73
    25
 74
     0
 42
0.00001
 43
0.0000000001
 40
0.0
 40
0.0
 40
0.0
 40
0.0
 40
1.0
 40
1.0
 40
1.0
 40
2.0
 40
2.0
 40
2.0
 40
3.0
 40
3.0
 40
3.0
 40
4.0
 40
4.0
 40
4.0
 40
5.0
 40
5.0
 40
5.0
 40
6.0
 40
6.0
 40
6.0
 40
7.0
 40
7.0
 40
7.0
 40
8.0
 40
8.0
 40
8.0
 40
8.0
 10
11581.28158581035
 20
-938.8341417598898
 30
0.0
 10
11581.32790517555
 20
-938.8859211273359
 30
0.0
 10
11581.56952042758
 20
-939.1980983062639
 30
0.0
 10
11581.61082359202
 20
-939.2537547451988
 30
0.0
 10
11582.0457811243
 20
-939.8398644939851
 30
0.0
 10
11582.26427976516
 20
-940.5460639164362
 30
0.0
 10
11582.46884816972
 20
-941.2480821420103
 30
0.0
 10
11582.91214089252
 20
-942.7693315810095
 30
0.0
 10
11583.25922764354
 20
-944.3189572388192
 30
0.0
 10
11583.48920172158
 20
-945.8860528322698
 30
0.0
 10
11583.74922635426
 20
-947.6579197294299
 30
0.0
 10
11583.78426529688
 20
-949.4529620679573
 30
0.0
 10
11583.8602393768
 20
-951.2429089795197
 30
0.0
 10
11583.93643237712
 20
-953.0380136487185
 30
0.0
 10
11584.0445350087
 20
-954.8317359495197
 30
0.0
 10
11584.18489732512
 20
-956.6229549802208
 30
0.0
 10
11584.26188100666
 20
-957.6053741861764
 30
0.0
 10
11584.35134211037
 20
-958.5887805531843
 30
0.0
 10
11584.57577876697
 20
-959.5477752467658
 30
0.0
 10
11584.69487527747
 20
-960.0566623569383
 30
0.0
 10
11584.85106605861
 20
-960.5631592085352
 30
0.0
 10
11585.16250353138
 20
-960.9808580885207
 30
0.0
 10
11585.29515097828
 20
-961.1587643934841
 30
0.0
 10
11585.4577979974
 20
-961.3227193030459
 30
0.0
 10
11585.65241685277
 20
-961.3972207204694
 30
0.0
  0
SPLINE
  5
1C9
330
1F
100
AcDbEntity
  8
Specialized_Lines
  6
Continuous
100
AcDbSpline
210
0.0
220
0.0
230
1.0
 70
     8
 71
     3
 72
    11
 73
     7
 74
     0
 42
0.00001
 43
0.0000000001
 40
0.0
 40
0.0
 40
0.0
 40
0.0
 40
1.0
 40
1.0
 40
1.0
 40
2.0
 40
2.0
 40
2.0
 40
2.0
 10
11586.64918489251
 20
-954.1743700227341
 30
0.0
 10
11586.06337127995
 20
-953.9430434353789
 30
0.0
 10
11585.5216728716
 20
-953.6003475558224
 30
0.0
 10
11585.12328541233
 20
-953.1131062101108
 30
0.0
 10
11584.39681755525
 20
-952.2246114343356
 30
0.0
 10
11584.25145725378
 20
-951.0190285119112
 30
0.0
 10
11584.25145725378
 20
-951.0190285119112
 30
0.0
  0
SPLINE
  5
1CA
330
1F
100
AcDbEntity
  8
Specialized_Lines
  6
Continuous
100
AcDbSpline
210
0.0
220
0.0
230
1.0
 70
     8
 71
     3
 72
    14
 73
    10
 74
     0
 42
0.00001
 43
0.0000000001
 40
0.0
 40
0.0
 40
0.0
 40
0.0
 40
1.0
 40
1.0
 40
1.0
 40
2.0
 40
2.0
 40
2.0
 40
3.0
 40
3.0
 40
3.0
 40
3.0
 10
11555.87648457167
 20
-954.5812816326129
 30
0.0
 10
11555.87648457167
 20
-954.5812816326129
 30
0.0
 10
11554.97453252149
 20
-954.504915872366
 30
0.0
 10
11554.14513111903
 20
-954.180761359087
 30
0.0
 10
11553.5530830435
 20
-953.9493715215566
 30
0.0
 10
11553.00503545227
 20
-953.604854952259
 30
0.0
 10
11552.60296257051
 20
-953.1131062101108
 30
0.0
 10
11551.87649471344
 20
-952.2246114343356
 30
0.0
 10
11551.73113441196
 20
-951.0190285119112
 30
0.0
 10
11551.73113441196
 20
-951.0190285119112
 30
0.0
  0
SPLINE
  5
1CB
330
1F
100
AcDbEntity
  8
Specialized_Lines
  6
Continuous
100
AcDbSpline
210
0.0
220
0.0
230
1.0
 70
     8
 71
     3
 72
    14
 73
    10
 74
     0
 42
0.00001
 43
0.0000000001
 40
0.0
 40
0.0
 40
0.0
 40
0.0
 40
1.0
 40
1.0
 40
1.0
 40
2.0
 40
2.0
 40
2.0
 40
3.0
 40
3.0
 40
3.0
 40
3.0
 10
11547.68346775342
 20
-954.5812816326129
 30
0.0
 10
11547.68346775342
 20
-954.5812816326129
 30
0.0
 10
11546.78151570325
 20
-954.5049158723671
 30
0.0
 10
11545.95211430079
 20
-954.180761359087
 30
0.0
 10
11545.36006622525
 20
-953.9493715215566
 30
0.0
 10
11544.81201863403
 20
-953.604854952259
 30
0.0
 10
11544.40994575226
 20
-953.1131062101108
 30
0.0
 10
11543.68347789519
 20
-952.2246114343356
 30
0.0
 10
11543.53811759371
 20
-951.0190285119112
 30
0.0
 10
11543.53811759371
 20
-951.0190285119112
 30
0.0
  0
SPLINE
  5
1CC
330
1F
100
AcDbEntity
  8
Specialized_Lines
  6
Continuous
100
AcDbSpline
210
0.0
220
0.0
230
1.0
 70
     8
 71
     3
 72
    14
 73
    10
 74
     0
 42
0.00001
 43
0.0000000001
 40
0.0
 40
0.0
 40
0.0
 40
0.0
 40
1.0
 40
1.0
 40
1.0
 40
2.0
 40
2.0
 40
2.0
 40
3.0
 40
3.0
 40
3.0
 40
3.0
 10
11555.26070415743
 20
-945.740420849426
 30
0.0
 10
11555.26070415743
 20
-945.740420849426
 30
0.0
 10
11556.1626562076
 20
-945.8167866096722
 30
0.0
 10
11556.99205761006
 20
-946.1409411229517
 30
0.0
 10
11557.58410568559
 20
-946.3723309604823
 30
0.0
 10
11558.13215327682
 20
-946.7168475297798
 30
0.0
 10
11558.53422615858
 20
-947.208596271928
 30
0.0
 10
11559.26069401566
 20
-948.0970910477031
 30
0.0
 10
11559.40605431714
 20
-949.3026739701276
 30
0.0
 10
11559.40605431714
 20
-949.3026739701276
 30
0.0
  0
SPLINE
  5
1CD
330
1F
100
AcDbEntity
  8
Specialized_Lines
  6
Continuous
100
AcDbSpline
210
0.0
220
0.0
230
1.0
 70
     8
 71
     3
 72
    14
 73
    10
 74
     0
 42
0.00001
 43
0.0000000001
 40
0.0
 40
0.0
 40
0.0
 40
0.0
 40
1.0
 40
1.0
 40
1.0
 40
2.0
 40
2.0
 40
2.0
 40
3.0
 40
3.0
 40
3.0
 40
3.0
 10
11564.02334634337
 20
-954.5812816326129
 30
0.0
 10
11564.02334634337
 20
-954.5812816326129
 30
0.0
 10
11563.12139429319
 20
-954.5049158723671
 30
0.0
 10
11562.29199289073
 20
-954.180761359087
 30
0.0
 10
11561.6999448152
 20
-953.9493715215566
 30
0.0
 10
11561.15189722398
 20
-953.6048549522597
 30
0.0
 10
11560.74982434221
 20
-953.1131062101108
 30
0.0
 10
11560.02335648513
 20
-952.2246114343356
 30
0.0
 10
11559.87799618366
 20
-951.0190285119112
 30
0.0
 10
11559.87799618366
 20
-951.0190285119112
 30
0.0
  0
SPLINE
  5
1CE
330
1F
100
AcDbEntity
  8
Specialized_Lines
  6
Continuous
100
AcDbSpline
210
0.0
220
0.0
230
1.0
 70
     8
 71
     3
 72
    14
 73
    10
 74
     0
 42
0.00001
 43
0.0000000001
 40
0.0
 40
0.0
 40
0.0
 40
0.0
 40
1.0
 40
1.0
 40
1.0
 40
2.0
 40
2.0
 40
2.0
 40
3.0
 40
3.0
 40
3.0
 40
3.0
 10
11563.36697473299
 20
-945.740420849426
 30
0.0
 10
11563.36697473299
 20
-945.740420849426
 30
0.0
 10
11564.26892678316
 20
-945.816786609671
 30
0.0
 10
11565.09832818562
 20
-946.1409411229517
 30
0.0
 10
11565.69037626116
 20
-946.3723309604823
 30
0.0
 10
11566.23842385238
 20
-946.716847529781
 30
0.0
 10
11566.64049673414
 20
-947.208596271928
 30
0.0
 10
11567.36696459122
 20
-948.0970910477031
 30
0.0
 10
11567.51232489269
 20
-949.3026739701276
 30
0.0
 10
11567.51232489269
 20
-949.3026739701276
 30
0.0
  0
SPLINE
  5
1CF
330
1F
100
AcDbEntity
  8
Specialized_Lines
  6
Continuous
100
AcDbSpline
210
0.0
220
0.0
230
1.0
 70
     8
 71
     3
 72
    14
 73
    10
 74
     0
 42
0.00001
 43
0.0000000001
 40
0.0
 40
0.0
 40
0.0
 40
0.0
 40
1.0
 40
1.0
 40
1.0
 40
2.0
 40
2.0
 40
2.0
 40
3.0
 40
3.0
 40
3.0
 40
3.0
 10
11572.12961691893
 20
-954.5812816326129
 30
0.0
 10
11572.12961691893
 20
-954.5812816326129
 30
0.0
 10
11571.22766486875
 20
-954.5049158723671
 30
0.0
 10
11570.39826346629
 20
-954.180761359087
 30
0.0
 10
11569.80621539076
 20
-953.9493715215566
 30
0.0
 10
11569.25816779953
 20
-953.604854952259
 30
0.0
 10
11568.85609491777
 20
-953.1131062101108
 30
0.0
 10
11568.12962706069
 20
-952.2246114343356
 30
0.0
 10
11567.98426675922
 20
-951.0190285119112
 30
0.0
 10
11567.98426675922
 20
-951.0190285119112
 30
0.0
  0
SPLINE
  5
1D0
330
1F
100
AcDbEntity
  8
Specialized_Lines
  6
Continuous
100
AcDbSpline
210
0.0
220
0.0
230
1.0
 70
     8
 71
     3
 72
    14
 73
    10
 74
     0
 42
0.00001
 43
0.0000000001
 40
0.0
 40
0.0
 40
0.0
 40
0.0
 40
1.0
 40
1.0
 40
1.0
 40
2.0
 40
2.0
 40
2.0
 40
3.0
 40
3.0
 40
3.0
 40
3.0
 10
11571.47324530855
 20
-945.740420849426
 30
0.0
 10
11571.47324530855
 20
-945.740420849426
 30
0.0
 10
11572.37519735872
 20
-945.816786609671
 30
0.0
 10
11573.20459876118
 20
-946.1409411229517
 30
0.0
 10
11573.79664683672
 20
-946.3723309604823
 30
0.0
 10
11574.34469442794
 20
-946.7168475297796
 30
0.0
 10
11574.7467673097
 20
-947.208596271928
 30
0.0
 10
11575.47323516678
 20
-948.0970910477031
 30
0.0
 10
11575.61859546826
 20
-949.3026739701276
 30
0.0
 10
11575.61859546826
 20
-949.3026739701276
 30
0.0
  0
SPLINE
  5
1D1
330
1F
100
AcDbEntity
  8
Specialized_Lines
  6
Continuous
100
AcDbSpline
210
0.0
220
0.0
230
1.0
 70
     8
 71
     3
 72
    14
 73
    10
 74
     0
 42
0.00001
 43
0.0000000001
 40
0.0
 40
0.0
 40
0.0
 40
0.0
 40
1.0
 40
1.0
 40
1.0
 40
2.0
 40
2.0
 40
2.0
 40
3.0
 40
3.0
 40
3.0
 40
3.0
 10
11580.23588749449
 20
-954.5812816326129
 30
0.0
 10
11580.23588749449
 20
-954.5812816326129
 30
0.0
 10
11579.33393544431
 20
-954.5049158723671
 30
0.0
 10
11578.50453404185
 20
-954.180761359087
 30
0.0
 10
11577.91248596632
 20
-953.9493715215566
 30
0.0
 10
11577.36443837509
 20
-953.604854952259
 30
0.0
 10
11576.96236549333
 20
-953.1131062101108
 30
0.0
 10
11576.23589763625
 20
-952.2246114343356
 30
0.0
 10
11576.09053733478
 20
-951.0190285119112
 30
0.0
 10
11576.09053733478
 20
-951.0190285119112
 30
0.0
  0
SPLINE
  5
1D2
330
1F
100
AcDbEntity
  8
Specialized_Lines
  6
Continuous
100
AcDbSpline
210
0.0
220
0.0
230
1.0
 70
     8
 71
     3
 72
    14
 73
    10
 74
     0
 42
0.00001
 43
0.0000000001
 40
0.0
 40
0.0
 40
0.0
 40
0.0
 40
1.0
 40
1.0
 40
1.0
 40
2.0
 40
2.0
 40
2.0
 40
3.0
 40
3.0
 40
3.0
 40
3.0
 10
11579.63416522755
 20
-945.740420849426
 30
0.0
 10
11579.63416522755
 20
-945.740420849426
 30
0.0
 10
11580.53611727772
 20
-945.8167866096715
 30
0.0
 10
11581.36551868018
 20
-946.1409411229517
 30
0.0
 10
11581.95756675571
 20
-946.3723309604823
 30
0.0
 10
11582.50561434694
 20
-946.7168475297796
 30
0.0
 10
11582.9076872287
 20
-947.208596271928
 30
0.0
 10
11583.63415508578
 20
-948.0970910477031
 30
0.0
 10
11583.77951538726
 20
-949.3026739701276
 30
0.0
 10
11583.77951538726
 20
-949.3026739701276
 30
0.0
  0
SPLINE
  5
1D3
330
1F
100
AcDbEntity
  8
Specialized_Lines
  6
Continuous
100
AcDbSpline
210
0.0
220
0.0
230
1.0
 70
     8
 71
     3
 72
    20
 73
    16
 74
     0
 42
0.00001
 43
0.0000000001
 40
0.0
 40
0.0
 40
0.0
 40
0.0
 40
1.0
 40
1.0
 40
1.0
 40
2.0
 40
2.0
 40
2.0
 40
3.0
 40
3.0
 40
3.0
 40
4.0
 40
4.0
 40
4.0
 40
5.0
 40
5.0
 40
5.0
 40
5.0
 10
11594.61194782059
 20
-950.3533064767237
 30
0.0
 10
11594.6118911506
 20
-950.3804195527498
 30
0.0
 10
11594.61180536215
 20
-950.407521334656
 30
0.0
 10
11594.61169606256
 20
-950.4346093457412
 30
0.0
 10
11594.60670983357
 20
-951.670359816306
 30
0.0
 10
11594.56618312013
 20
-952.954095495337
 30
0.0
 10
11593.84267685547
 20
-953.9399061966228
 30
0.0
 10
11593.74101894934
 20
-954.0784197888783
 30
0.0
 10
11593.6280668442
 20
-954.2081687107209
 30
0.0
 10
11593.6280668442
 20
-954.2081687107209
 30
0.0
 10
11593.6280668442
 20
-954.2081687107209
 30
0.0
 10
11593.32234129758
 20
-954.3840516933224
 30
0.0
 10
11593.00212097797
 20
-954.3333578839666
 30
0.0
 10
11592.67614699745
 20
-954.2817532173957
 30
0.0
 10
11592.43799816191
 20
-954.0116378092887
 30
0.0
 10
11592.43799816192
 20
-954.0116378092887
 30
0.0
  0
SPLINE
  5
1D4
330
1F
100
AcDbEntity
  8
Specialized_Lines
  6
Continuous
100
AcDbSpline
210
0.0
220
0.0
230
1.0
 70
     8
 71
     3
 72
    20
 73
    16
 74
     0
 42
0.00001
 43
0.0000000001
 40
0.0
 40
0.0
 40
0.0
 40
0.0
 40
1.0
 40
1.0
 40
1.0
 40
2.0
 40
2.0
 40
2.0
 40
3.0
 40
3.0
 40
3.0
 40
4.0
 40
4.0
 40
4.0
 40
5.0
 40
5.0
 40
5.0
 40
5.0
 10
11594.61194782059
 20
-950.4075326287757
 30
0.0
 10
11594.6118911506
 20
-950.3804195527498
 30
0.0
 10
11594.61180283485
 20
-950.3533306580125
 30
0.0
 10
11594.61169606256
 20
-950.3262297597583
 30
0.0
 10
11594.60682785462
 20
-949.0905832899468
 30
0.0
 10
11594.56569423188
 20
-947.8066406680614
 30
0.0
 10
11593.84267685547
 20
-946.8209329088765
 30
0.0
 10
11593.7410574626
 20
-946.6823926368054
 30
0.0
 10
11593.6280668442
 20
-946.5526703947785
 30
0.0
 10
11593.6280668442
 20
-946.5526703947785
 30
0.0
 10
11593.6280668442
 20
-946.5526703947785
 30
0.0
 10
11593.32234234873
 20
-946.3767863219024
 30
0.0
 10
11593.00212097797
 20
-946.4274812215325
 30
0.0
 10
11592.67614838116
 20
-946.479086609513
 30
0.0
 10
11592.43799816192
 20
-946.7492012962107
 30
0.0
 10
11592.43799816192
 20
-946.7492012962107
 30
0.0
  0
MTEXT
  5
1D6
102
{ACAD_REACTORS
330
1D7
102
}
330
1F
100
AcDbEntity
  8
Specialized_Text
  6
Continuous
100
AcDbMText
 10
11712.29095500974
 20
-840.5353179746498
 30
0.0
 40
5.5
 41
69.48941082323578
 46
0.0
 71
     4
 72
     1
  1
{PVC downpipe}
  7
GENERATED_STYLE_1
 73
     1
 44
1.0
  0
LEADER
  5
1D7
330
1F
100
AcDbEntity
  8
Specialized_Text
  6
Continuous
 62
   251
420
  6250335
370
    13
100
AcDbLeader
  3
GENERATED_STYLE__1
 73
     0
 74
     0
 75
     1
 40
7.124488403819918
 41
49.93519781718964
 76
     3
 10
11680.02604910364
 20
-871.3344151908225
 30
0.0
 10
11697.60895500974
 20
-840.5353179746498
 30
0.0
 10
11704.90495500974
 20
-840.5353179746498
 30
0.0
340
1D6
213
-7.296000000000276
223
0.0
233
0.0
  0
MTEXT
  5
1DE
102
{ACAD_REACTORS
330
1DF
102
}
330
1F
100
AcDbEntity
  8
Specialized_Text
  6
Continuous
100
AcDbMText
 10
11712.32205451346
 20
-887.4155852996629
 30
0.0
 40
5.5
 41
59.17204376577972
 46
23.16617635675733
 71
     4
 72
     1
  1
{reinforcing mesh and selected plaster finish}
  7
GENERATED_STYLE_1
 73
     1
 44
1.0
  0
LEADER
  5
1DF
330
1F
100
AcDbEntity
  8
Specialized_Text
  6
Continuous
 62
   251
420
  6250335
370
    13
100
AcDbLeader
  3
GENERATED_STYLE__1
 73
     0
 40
25.55161437016826
 41
55.79911323328786
 76
     2
 10
11587.75527493444
 20
-898.2565052562113
 30
0.0
 10
11707.94562626377
 20
-887.7888985048365
 30
0.0
340
1DE
213
-4.286428249684831
223
-0.3733132051735311
233
0.0
  0
MTEXT
  5
1E0
102
{ACAD_REACTORS
330
1E1
102
}
330
1F
100
AcDbEntity
  8
Specialized_Text
  6
Continuous
100
AcDbMText
 10
11712.32205451346
 20
-951.1328514056589
 30
0.0
 40
5.5
 41
62.97223895914719
 46
12.81969823817621
 71
     4
 72
     1
  1
{stainless steel fixing to suit,  fixed into spiral fixing}
  7
GENERATED_STYLE_1
 73
     1
 44
1.0
  0
LEADER
  5
1E1
330
1F
100
AcDbEntity
  8
Specialized_Text
  6
Continuous
 62
   251
420
  6250335
370
    13
100
AcDbLeader
  3
GENERATED_STYLE__1
 73
     0
 40
25.63415188722147
 41
62.60470668485675
 76
     2
 10
11594.61194782059
 20
-950.3533064767237
 30
0.0
 10
11712.23205451346
 20
-951.1328514056589
 30
0.0
340
1E0
  0
MTEXT
  5
1E2
102
{ACAD_REACTORS
330
1E3
102
}
330
1F
100
AcDbEntity
  8
Specialized_Text
  6
Continuous
100
AcDbMText
 10
11712.32205451346
 20
-928.5667369373673
 30
0.0
 40
5.5
 41
69.48941082323578
 46
0.0
 71
     4
 72
     1
  1
{20mm cavity}
  7
GENERATED_STYLE_1
 73
     1
 44
1.0
  0
LEADER
  5
1E3
330
1F
100
AcDbEntity
  8
Specialized_Text
  6
Continuous
 62
   251
420
  6250335
370
    13
100
AcDbLeader
  3
GENERATED_STYLE__1
 73
     0
 40
7.139495225102319
 41
42.82571623465211
 76
     2
 10
11515.94031899124
 20
-927.7694175377201
 30
0.0
 10
11712.23205451346
 20
-928.5667369373673
 30
0.0
340
1E2
  0
MTEXT
  5
1E4
102
{ACAD_REACTORS
330
1E5
102
}
330
1F
100
AcDbEntity
  8
Specialized_Text
  6
Continuous
100
AcDbMText
 10
11712.32205451346
 20
-980.8960143993326
 30
0.0
 40
5.5
 41
69.48941082323578
 46
0.0
 71
     4
 72
     1
  1
{spiral fixing}
  7
GENERATED_STYLE_1
 73
     1
 44
1.0
  0
LEADER
  5
1E5
330
1F
100
AcDbEntity
  8
Specialized_Text
  6
Continuous
 62
   251
420
  6250335
370
    13
100
AcDbLeader
  3
GENERATED_STYLE__1
 73
     0
 40
7.207025920873125
 41
37.69713506139154
 76
     3
 10
11569.37397106283
 20
-961.3972207204694
 30
0.0
 10
11596.22027678857
 20
-980.8960143993326
 30
0.0
 10
11712.23205451346
 20
-980.8960143993326
 30
0.0
340
1E4
  0
MTEXT
  5
1E6
102
{ACAD_REACTORS
330
1E7
102
}
330
1F
100
AcDbEntity
  8
Specialized_Text
  6
Continuous
100
AcDbMText
 10
11712.32205451346
 20
-1005.093254469981
 30
0.0
 40
5.5
 41
69.48941082323489
 46
0.0
 71
     4
 72
     1
  1
50mm EPS or {\C30;\c30975;75mm Neopor® EPS}
  7
GENERATED_STYLE_1
 73
     1
 44
1.0
  0
LEADER
  5
1E7
330
1F
100
AcDbEntity
  8
Specialized_Text
  6
Continuous
 62
   251
420
  6250335
370
    13
100
AcDbLeader
  3
GENERATED_STYLE__1
 73
     0
 40
24.20850386539336
 41
53.97578444747613
 76
     2
 10
11557.84578978034
 20
-1004.351086248151
 30
0.0
 10
11712.23205451346
 20
-1005.093254469981
 30
0.0
340
1E6
  0
LINE
  5
255
330
1F
100
AcDbEntity
  8
Viewport
 62
     7
420
 16777215
100
AcDbLine
 10
11775.20984817733
 20
-661.6869136025343
 30
0.0
 11
11775.20984817733
 21
-1201.73652924133
 31
0.0
  0
LINE
  5
256
330
1F
100
AcDbEntity
  8
Viewport
 62
     7
420
 16777215
100
AcDbLine
 10
11775.20984817733
 20
-1201.73652924133
 30
0.0
 11
11402.06812109135
 21
-1201.73652924133
 31
0.0
  0
MTEXT
  5
259
330
1F
100
AcDbEntity
  8
Specialized_Lines
 62
    30
420
 16742400
100
AcDbMText
 10
11480.36448588182
 20
-1160.403662981008
 30
0.0
 40
7.0
 41
63.23088711380842
 46
0.0
 71
     1
 72
     5
  1
CAVITECLAD
  7
GENERATED_STYLE_2
 73
     1
 44
1.0
1001
ACAD
1000
ACAD_MTEXT_COLUMN_INFO_BEGIN
1070
    75
1070
     2
1070
    79
1070
     0
1070
    76
1070
     1
1070
    78
1070
     0
1070
    48
1040
63.23088711380842
1070
    49
1040
12.5
1070
    50
1070
     1
1040
0.0
1000
ACAD_MTEXT_COLUMN_INFO_END
  0
LINE
  5
25A
330
1F
100
AcDbEntity
  8
Viewport
 62
     7
420
 16777215
100
AcDbLine
 10
11402.06812109135
 20
-1201.73652924133
 30
0.0
 11
11402.06812109135
 21
-661.6869136025343
 31
0.0
  0
LINE
  5
25B
330
1F
100
AcDbEntity
  8
Viewport
 62
     7
420
 16777215
100
AcDbLine
 10
11775.20984817733
 20
-661.6869136025343
 30
0.0
 11
11402.06812109135
 21
-661.6869136025343
 31
0.0
  0
MTEXT
  5
25C
330
1F
100
AcDbEntity
  8
Specialized_Lines
100
AcDbMText
 10
11478.89752089627
 20
-1144.808376001837
 30
0.0
 40
10.0
 41
274.4271239417576
 46
0.0
 71
     1
 72
     5
  1
{\fArial|b1|i0|c0|p34;Wall: Fixings - ATTACHMENTS < 5KG}
 73
     1
 44
1.0
1001
ACAD
1000
ACAD_MTEXT_COLUMN_INFO_BEGIN
1070
    75
1070
     2
1070
    79
1070
     0
1070
    76
1070
     1
1070
    78
1070
     0
1070
    48
1040
274.4271239417576
1070
    49
1040
12.5
1070
    50
1070
     1
1040
0.0
1000
ACAD_MTEXT_COLUMN_INFO_END
  0
MTEXT
  5
25D
330
1F
100
AcDbEntity
  8
Specialized_Lines
 62
    30
420
 16742400
100
AcDbMText
 10
11450.1126654149
 20
-1164.351347521492
 30
0.0
 40
4.0
 41
34.37092666967328
 46
0.0
 71
     5
 72
     5
  1
SCALE: 1:2
  7
GENERATED_STYLE_2
 73
     1
 44
1.0
1001
ACAD
1000
ACAD_MTEXT_COLUMN_INFO_BEGIN
1070
    75
1070
     2
1070
    79
1070
     0
1070
    76
1070
     1
1070
    78
1070
     0
1070
    48
1040
34.37092666967328
1070
    49
1040
12.5
1070
    50
1070
     1
1040
0.0
1000
ACAD_MTEXT_COLUMN_INFO_END
  0
HATCH
  5
25E
330
1F
100
AcDbEntity
  8
0
 62
    30
420
 16742400
370
     5
100
AcDbHatch
 10
0.0
 20
0.0
 30
0.0
210
0.0
220
0.0
230
1.0
  2
SOLID
 70
     1
 71
     0
 91
        1
 92
        1
 93
        4
 72
     1
 10
11473.26665079642
 20
-1159.328388021101
 11
11473.26665079642
 21
-1139.328388021101
 72
     1
 10
11473.26665079642
 20
-1139.328388021101
 11
11428.26665079642
 21
-1139.328388021101
 72
     1
 10
11428.26665079642
 20
-1139.328388021101
 11
11428.26665079642
 21
-1159.328388021101
 72
     1
 10
11428.26665079642
 20
-1159.328388021101
 11
11473.26665079642
 21
-1159.328388021101
 97
        0
 75
     1
 76
     1
 98
        1
 10
11458.68182398595
 20
-1153.194707517976
450
        0
451
        0
460
0.0
461
0.0
452
        0
462
1.0
453
        2
463
0.0
 63
     5
421
      255
463
1.0
 63
     2
421
 16776960
470
LINEAR
1001
GradientColor1ACI
1070
     5
1001
GradientColor2ACI
1070
     2
1001
ACAD
1010
0.0
1020
0.0
1030
0.0
  0
LWPOLYLINE
  5
25F
330
1F
100
AcDbEntity
  8
0
370
     5
100
AcDbPolyline
 90
        5
 70
     0
 43
0.0
 10
11428.26665079642
 20
-1139.328388021101
 10
11428.26665079642
 20
-1159.328388021101
 10
11473.26665079642
 20
-1159.328388021101
 10
11473.26665079642
 20
-1139.328388021101
 10
11428.26665079642
 20
-1139.328388021101
  0
MTEXT
  5
260
330
1F
100
AcDbEntity
  8
Specialized_Lines
100
AcDbMText
 10
11450.97146588531
 20
-1149.523232667489
 30
0.0
 40
10.0
 41
90.34063603881987
 46
0.0
 71
     5
 72
     5
  1
{\fArial|b1|i0|c0|p34;19B}
 73
     1
 44
1.0
1001
ACAD
1000
ACAD_MTEXT_COLUMN_INFO_BEGIN
1070
    75
1070
     2
1070
    79
1070
     0
1070
    76
1070
     1
1070
    78
1070
     0
1070
    48
1040
90.34063603881987
1070
    49
1040
12.5
1070
    50
1070
     1
1040
0.0
1000
ACAD_MTEXT_COLUMN_INFO_END
  0
LWPOLYLINE
  5
261
330
1F
100
AcDbEntity
  8
0
370
     5
100
AcDbPolyline
 90
        4
 70
     0
 43
0.0
 10
11428.26665079642
 20
-1159.328388021101
 10
11428.26665079642
 20
-1169.328388021101
 10
11473.26665079642
 20
-1169.328388021101
 10
11473.26665079642
 20
-1159.328388021101
  0
HATCH
  5
A33
330
1F
100
AcDbEntity
  8
0
 62
   251
420
  6250335
100
AcDbHatch
 10
0.0
 20
0.0
 30
0.0
210
0.0
220
0.0
230
1.0
  2
HPCRC1E0
 70
     0
 71
     0
 91
        1
 92
        5
 93
       82
 72
     1
 10
11582.4559714368
 20
-871.3344151908225
 11
11527.29096086448
 21
-871.3344151908225
 72
     1
 10
11527.29096086448
 20
-871.3344151908225
 11
11527.29096086448
 21
-1030.375895042136
 72
     1
 10
11527.29096086448
 20
-1030.375895042136
 11
11582.4559714368
 21
-1030.375895042136
 72
     1
 10
11582.4559714368
 20
-1030.375895042136
 11
11582.4559714368
 21
-960.5402588431564
 72
     1
 10
11582.4559714368
 20
-960.5402588431564
 11
11576.41805195561
 21
-959.6087049201731
 72
     4
 94
        3
 73
     0
 74
     0
 95
        8
 96
        4
 40
6.039921492756898
 40
6.039921492756898
 40
6.039921492756898
 40
6.039921492756898
 40
7.0
 40
7.0
 40
7.0
 40
7.0
 10
11576.41805195561
 20
-959.6087049201694
 10
11576.53541822199
 20
-960.0969610581241
 10
11576.69132389304
 20
-960.5798343713487
 10
11576.99032831699
 20
-960.9808580885207
 97
        0
 72
     4
 94
        3
 73
     0
 74
     0
 95
        8
 96
        4
 40
7.0
 40
7.0
 40
7.0
 40
7.0
 40
8.0
 40
8.0
 40
8.0
 40
8.0
 10
11577.48024163839
 20
-961.3972207204694
 10
11577.28562278301
 20
-961.3227193030459
 10
11577.1229757639
 20
-961.1587643934841
 10
11576.99032831699
 20
-960.9808580885207
 97
        0
 72
     4
 94
        3
 73
     0
 74
     0
 95
        8
 96
        4
 40
6.039921492756899
 40
6.039921492756899
 40
6.039921492756899
 40
6.039921492756899
 40
7.0
 40
7.0
 40
7.0
 40
7.0
 10
11576.99032831699
 20
-960.9808580885207
 10
11576.69132389304
 20
-960.5798343713487
 10
11576.53541822199
 20
-960.0969610581241
 10
11576.41805195561
 20
-959.6087049201694
 97
        0
 72
     1
 10
11576.41805195561
 20
-959.6087049201731
 11
11568.0759794343
 21
-958.3216572198423
 72
     4
 94
        3
 73
     0
 74
     0
 95
        8
 96
        4
 40
5.577693180934224
 40
5.577693180934224
 40
5.577693180934224
 40
5.577693180934224
 40
6.0
 40
6.0
 40
6.0
 40
6.0
 10
11568.0759794343
 20
-958.3216572198425
 10
11568.13184266766
 20
-958.7334415973908
 10
11568.20255184649
 20
-959.1427852482185
 10
11568.29733297702
 20
-959.5477752467658
 97
        0
 72
     4
 94
        3
 73
     0
 74
     0
 95
        8
 96
        4
 40
6.0
 40
6.0
 40
6.0
 40
6.0
 40
7.0
 40
7.0
 40
7.0
 40
7.0
 10
11568.29733297702
 20
-959.5477752467658
 10
11568.41642948753
 20
-960.0566623569383
 10
11568.57262026867
 20
-960.5631592085352
 10
11568.88405774143
 20
-960.9808580885207
 97
        0
 72
     4
 94
        3
 73
     0
 74
     0
 95
        8
 96
        4
 40
7.0
 40
7.0
 40
7.0
 40
7.0
 40
8.0
 40
8.0
 40
8.0
 40
8.0
 10
11568.88405774143
 20
-960.9808580885207
 10
11569.01670518834
 20
-961.1587643934841
 10
11569.17935220745
 20
-961.3227193030459
 10
11569.37397106283
 20
-961.3972207204694
 97
        0
 72
     1
 10
11569.25786534156
 20
-961.3972207204694
 11
11569.37397106283
 21
-961.3972207204694
 72
     4
 94
        3
 73
     0
 74
     0
 95
        8
 96
        4
 40
7.0
 40
7.0
 40
7.0
 40
7.0
 40
8.0
 40
8.0
 40
8.0
 40
8.0
 10
11569.37397106283
 20
-961.3972207204694
 10
11569.17935220745
 20
-961.3227193030459
 10
11569.01670518834
 20
-961.1587643934841
 10
11568.88405774143
 20
-960.9808580885207
 97
        0
 72
     4
 94
        3
 73
     0
 74
     0
 95
        8
 96
        4
 40
6.0
 40
6.0
 40
6.0
 40
6.0
 40
7.0
 40
7.0
 40
7.0
 40
7.0
 10
11568.88405774143
 20
-960.9808580885207
 10
11568.57262026867
 20
-960.5631592085352
 10
11568.41642948753
 20
-960.0566623569383
 10
11568.29733297702
 20
-959.5477752467658
 97
        0
 72
     4
 94
        3
 73
     0
 74
     0
 95
        8
 96
        4
 40
5.577693180934225
 40
5.577693180934225
 40
5.577693180934225
 40
5.577693180934225
 40
6.0
 40
6.0
 40
6.0
 40
6.0
 10
11568.29733297702
 20
-959.5477752467658
 10
11568.20255184649
 20
-959.1427852482185
 10
11568.13184266766
 20
-958.7334415973908
 10
11568.0759794343
 20
-958.3216572198425
 97
        0
 72
     1
 10
11568.0759794343
 20
-958.3216572198423
 11
11559.83481971981
 21
-957.050178743543
 72
     4
 94
        3
 73
     0
 74
     0
 95
        8
 96
        4
 40
5.144961505391789
 40
5.144961505391789
 40
5.144961505391789
 40
5.144961505391789
 40
6.0
 40
6.0
 40
6.0
 40
6.0
 10
11559.83481971981
 20
-957.050178743543
 10
11559.9059378281
 20
-957.8899733379714
 10
11559.99916042047
 20
-958.7277978676286
 10
11560.19106240147
 20
-959.5477752467658
 97
        0
 72
     4
 94
        3
 73
     0
 74
     0
 95
        8
 96
        4
 40
6.0
 40
6.0
 40
6.0
 40
6.0
 40
7.0
 40
7.0
 40
7.0
 40
7.0
 10
11560.19106240147
 20
-959.5477752467658
 10
11560.31015891197
 20
-960.0566623569383
 10
11560.46634969311
 20
-960.5631592085352
 10
11560.77778716587
 20
-960.9808580885207
 97
        0
 72
     4
 94
        3
 73
     0
 74
     0
 95
        8
 96
        4
 40
7.0
 40
7.0
 40
7.0
 40
7.0
 40
8.0
 40
8.0
 40
8.0
 40
8.0
 10
11560.77778716587
 20
-960.9808580885207
 10
11560.91043461278
 20
-961.1587643934841
 10
11561.07308163189
 20
-961.3227193030459
 10
11561.26770048727
 20
-961.3972207204694
 97
        0
 72
     1
 10
11561.151594766
 20
-961.3972207204694
 11
11561.26770048727
 21
-961.3972207204694
 72
     4
 94
        3
 73
     0
 74
     0
 95
        8
 96
        4
 40
7.0
 40
7.0
 40
7.0
 40
7.0
 40
8.0
 40
8.0
 40
8.0
 40
8.0
 10
11561.26770048727
 20
-961.3972207204694
 10
11561.07308163189
 20
-961.3227193030459
 10
11560.91043461278
 20
-961.1587643934841
 10
11560.77778716587
 20
-960.9808580885207
 97
        0
 72
     4
 94
        3
 73
     0
 74
     0
 95
        8
 96
        4
 40
6.0
 40
6.0
 40
6.0
 40
6.0
 40
7.0
 40
7.0
 40
7.0
 40
7.0
 10
11560.77778716587
 20
-960.9808580885207
 10
11560.46634969311
 20
-960.5631592085352
 10
11560.31015891197
 20
-960.0566623569383
 10
11560.19106240147
 20
-959.5477752467658
 97
        0
 72
     4
 94
        3
 73
     0
 74
     0
 95
        8
 96
        4
 40
5.144961505391789
 40
5.144961505391789
 40
5.144961505391789
 40
5.144961505391789
 40
6.0
 40
6.0
 40
6.0
 40
6.0
 10
11560.19106240147
 20
-959.5477752467658
 10
11559.99916042047
 20
-958.7277978676286
 10
11559.9059378281
 20
-957.8899733379714
 10
11559.83481971981
 20
-957.050178743543
 97
        0
 72
     1
 10
11559.83481971981
 20
-957.050178743543
 11
11551.59892937996
 21
-955.77951324705
 72
     4
 94
        3
 73
     0
 74
     0
 95
        8
 96
        4
 40
4.843075001293131
 40
4.843075001293131
 40
4.843075001293131
 40
4.843075001293131
 40
5.0
 40
5.0
 40
5.0
 40
5.0
 10
11551.59892937996
 20
-955.77951324705
 10
11551.61936827016
 20
-956.0607192479022
 10
11551.64060021706
 20
-956.3418679361445
 10
11551.66262657338
 20
-956.6229549802208
 97
        0
 72
     4
 94
        3
 73
     0
 74
     0
 95
        8
 96
        4
 40
5.0
 40
5.0
 40
5.0
 40
5.0
 40
6.0
 40
6.0
 40
6.0
 40
6.0
 10
11551.66262657338
 20
-956.6229549802208
 10
11551.73961025493
 20
-957.6053741861764
 10
11551.82907135863
 20
-958.5887805531855
 10
11552.05350801524
 20
-959.5477752467658
 97
        0
 72
     4
 94
        3
 73
     0
 74
     0
 95
        8
 96
        4
 40
6.0
 40
6.0
 40
6.0
 40
6.0
 40
7.0
 40
7.0
 40
7.0
 40
7.0
 10
11552.05350801524
 20
-959.5477752467658
 10
11552.17260452574
 20
-960.0566623569383
 10
11552.32879530689
 20
-960.5631592085339
 10
11552.64023277964
 20
-960.9808580885207
 97
        0
 72
     4
 94
        3
 73
     0
 74
     0
 95
        8
 96
        4
 40
7.0
 40
7.0
 40
7.0
 40
7.0
 40
8.0
 40
8.0
 40
8.0
 40
8.0
 10
11552.64023277964
 20
-960.9808580885207
 10
11552.77288022655
 20
-961.1587643934841
 10
11552.93552724566
 20
-961.3227193030459
 10
11553.13014610104
 20
-961.3972207204694
 97
        0
 72
     1
 10
11553.01404037977
 20
-961.3972207204694
 11
11553.13014610104
 21
-961.3972207204694
 72
     4
 94
        3
 73
     0
 74
     0
 95
        8
 96
        4
 40
7.0
 40
7.0
 40
7.0
 40
7.0
 40
8.0
 40
8.0
 40
8.0
 40
8.0
 10
11553.13014610104
 20
-961.3972207204694
 10
11552.93552724566
 20
-961.3227193030459
 10
11552.77288022655
 20
-961.1587643934841
 10
11552.64023277964
 20
-960.9808580885207
 97
        0
 72
     4
 94
        3
 73
     0
 74
     0
 95
        8
 96
        4
 40
6.0
 40
6.0
 40
6.0
 40
6.0
 40
7.0
 40
7.0
 40
7.0
 40
7.0
 10
11552.64023277964
 20
-960.9808580885207
 10
11552.32879530689
 20
-960.5631592085339
 10
11552.17260452574
 20
-960.0566623569383
 10
11552.05350801524
 20
-959.5477752467658
 97
        0
 72
     4
 94
        3
 73
     0
 74
     0
 95
        8
 96
        4
 40
5.0
 40
5.0
 40
5.0
 40
5.0
 40
6.0
 40
6.0
 40
6.0
 40
6.0
 10
11552.05350801524
 20
-959.5477752467658
 10
11551.82907135863
 20
-958.5887805531855
 10
11551.73961025493
 20
-957.6053741861764
 10
11551.66262657338
 20
-956.6229549802208
 97
        0
 72
     4
 94
        3
 73
     0
 74
     0
 95
        8
 96
        4
 40
4.843075001293131
 40
4.843075001293131
 40
4.843075001293131
 40
4.843075001293131
 40
5.0
 40
5.0
 40
5.0
 40
5.0
 10
11551.66262657338
 20
-956.6229549802208
 10
11551.64060021706
 20
-956.3418679361445
 10
11551.61936827016
 20
-956.0607192479022
 10
11551.59892937996
 20
-955.77951324705
 97
        0
 72
     1
 10
11551.59892937996
 20
-955.77951324705
 11
11547.60532724009
 21
-955.1633646296629
 72
     4
 94
        3
 73
     0
 74
     0
 95
        8
 96
        4
 40
7.0
 40
7.0
 40
7.0
 40
7.0
 40
7.637972457652828
 40
7.637972457652828
 40
7.637972457652828
 40
7.637972457652828
 10
11547.60532724009
 20
-955.1633646296629
 10
11547.51846689817
 20
-955.8000782226589
 10
11547.36813163242
 20
-956.8732382755387
 10
11547.20034580652
 20
-957.943810383051
 97
        0
 72
     4
 94
        3
 73
     0
 74
     0
 95
        8
 96
        4
 40
6.0
 40
6.0
 40
6.0
 40
6.0
 40
7.0
 40
7.0
 40
7.0
 40
7.0
 10
11547.20034580652
 20
-957.943810383051
 10
11547.04473619633
 20
-958.9366910834186
 10
11546.86968185423
 20
-959.9405871416008
 10
11546.35944521783
 20
-960.8019240341127
 97
        0
 72
     4
 94
        3
 73
     0
 74
     0
 95
        8
 96
        4
 40
5.0
 40
5.0
 40
5.0
 40
5.0
 40
6.0
 40
6.0
 40
6.0
 40
6.0
 10
11546.35944521783
 20
-960.8019240341127
 10
11546.17082985481
 20
-961.120328004093
 10
11545.9254264648
 20
-961.4380541610879
 10
11545.56542535139
 20
-961.4393766029419
 97
        0
 72
     4
 94
        3
 73
     0
 74
     0
 95
        8
 96
        4
 40
4.0
 40
4.0
 40
4.0
 40
4.0
 40
5.0
 40
5.0
 40
5.0
 40
5.0
 10
11545.56542535139
 20
-961.4393766029419
 10
11545.26762829167
 20
-961.4404705420465
 10
11545.03072068121
 20
-961.2236569846977
 10
11544.84968913376
 20
-960.9808580885207
 97
        0
 72
     1
 10
11545.44255019383
 20
-961.3972207204694
 11
11544.93712928279
 21
-961.3972207204694
 72
     4
 94
        3
 73
     0
 74
     0
 95
        8
 96
        4
 40
4.0
 40
4.0
 40
4.0
 40
4.0
 40
5.0
 40
5.0
 40
5.0
 40
5.0
 10
11544.93712928279
 20
-961.3972207204694
 10
11544.74251042741
 20
-961.3227193030459
 10
11544.5798634083
 20
-961.1587643934841
 10
11544.44721596139
 20
-960.9808580885207
 97
        0
 72
     4
 94
        3
 73
     0
 74
     0
 95
        8
 96
        4
 40
3.0
 40
3.0
 40
3.0
 40
3.0
 40
4.0
 40
4.0
 40
4.0
 40
4.0
 10
11544.44721596139
 20
-960.9808580885207
 10
11544.13577848864
 20
-960.5631592085369
 10
11543.9795877075
 20
-960.0566623569383
 10
11543.86049119699
 20
-959.5477752467658
 97
        0
 72
     4
 94
        3
 73
     0
 74
     0
 95
        8
 96
        4
 40
2.0
 40
2.0
 40
2.0
 40
2.0
 40
3.0
 40
3.0
 40
3.0
 40
3.0
 10
11543.86049119699
 20
-959.5477752467658
 10
11543.63605454038
 20
-958.5887805531848
 10
11543.54659343669
 20
-957.6053741861764
 10
11543.46960975514
 20
-956.6229549802208
 97
        0
 72
     4
 94
        3
 73
     0
 74
     0
 95
        8
 96
        4
 40
1.605506306040409
 40
1.605506306040409
 40
1.605506306040409
 40
1.605506306040409
 40
2.0
 40
2.0
 40
2.0
 40
2.0
 10
11543.46960975514
 20
-956.6229549802208
 10
11543.41423770644
 20
-955.916330368109
 10
11543.36388608006
 20
-955.2093161839005
 10
11543.31853338507
 20
-954.5019812433256
 97
        0
 72
     1
 10
11543.31853338508
 20
-954.5019812433661
 11
11535.75391822992
 21
-950.3192703902593
 72
     1
 10
11535.75391822992
 20
-950.3192703902593
 11
11543.42658502807
 21
-945.740420849426
 72
     1
 10
11543.42658502807
 20
-945.740420849426
 11
11546.93471169145
 21
-945.2176430134375
 72
     4
 94
        3
 73
     0
 74
     0
 95
        8
 96
        4
 40
0.4224991434360593
 40
0.4224991434360593
 40
0.4224991434360593
 40
0.4224991434360593
 40
1.0
 40
1.0
 40
1.0
 40
1.0
 10
11546.93471169145
 20
-945.2176430134379
 10
11546.97217517247
 20
-944.7806852988721
 10
11547.03554722988
 20
-944.1259214767255
 10
11547.12566096062
 20
-943.4743080733349
 97
        0
 72
     4
 94
        3
 73
     0
 74
     0
 95
        8
 96
        4
 40
1.0
 40
1.0
 40
1.0
 40
1.0
 40
2.0
 40
2.0
 40
2.0
 40
2.0
 10
11547.12566096062
 20
-943.4743080733349
 10
11547.27578674335
 20
-942.3887468451905
 10
11547.50141869945
 20
-941.3147816289537
 10
11547.84454641761
 20
-940.2741082970559
 97
        0
 72
     4
 94
        3
 73
     0
 74
     0
 95
        8
 96
        4
 40
2.0
 40
2.0
 40
2.0
 40
2.0
 40
3.0
 40
3.0
 40
3.0
 40
3.0
 10
11547.84454641761
 20
-940.2741082970559
 10
11547.98007406851
 20
-939.8630659808372
 10
11548.13183692393
 20
-939.4519620037094
 10
11548.40110290044
 20
-939.1146156244909
 97
        0
 72
     4
 94
        3
 73
     0
 74
     0
 95
       11
 96
        7
 40
3.0
 40
3.0
 40
3.0
 40
3.0
 40
3.99999
 40
3.99999
 40
3.99999
 40
3.99999
 40
4.0
 40
4.0
 40
4.0
 10
11548.40110290044
 20
-939.1146156244909
 10
11548.50869688822
 20
-938.9798178952212
 10
11548.63299894889
 20
-938.8595296423144
 10
11548.63300143492
 20
-938.8595272365629
 10
11548.63300143492
 20
-938.8595272365629
 10
11548.63300143494
 20
-938.8595272365387
 10
11548.63300143496
 20
-938.8595272365266
 97
        0
 72
     4
 94
        3
 73
     0
 74
     0
 95
        8
 96
        4
 40
0.0
 40
0.0
 40
0.0
 40
0.0
 40
1.0
 40
1.0
 40
1.0
 40
1.0
 10
11549.08855284029
 20
-939.2537547451988
 10
11549.04724967585
 20
-939.1980983062641
 10
11548.80563442381
 20
-938.8859211273359
 10
11548.75931505861
 20
-938.8341417598898
 97
        0
 72
     4
 94
        3
 73
     0
 74
     0
 95
        8
 96
        4
 40
1.0
 40
1.0
 40
1.0
 40
1.0
 40
2.0
 40
2.0
 40
2.0
 40
2.0
 10
11549.08855284029
 20
-939.2537547451988
 10
11549.52351037257
 20
-939.8398644939851
 10
11549.74200901343
 20
-940.5460639164367
 10
11549.94657741799
 20
-941.2480821420103
 97
        0
 72
     4
 94
        3
 73
     0
 74
     0
 95
        8
 96
        4
 40
2.0
 40
2.0
 40
2.0
 40
2.0
 40
2.735736055552669
 40
2.735736055552669
 40
2.735736055552669
 40
2.735736055552669
 10
11549.94657741799
 20
-941.2480821420103
 10
11550.27272385732
 20
-942.3673202037711
 10
11550.5467932784
 20
-943.5019185268288
 10
11550.76045938935
 20
-944.6475335805532
 97
        0
 72
     1
 10
11550.76045938935
 20
-944.6475335805534
 11
11555.19749869516
 21
-943.9863300297506
 72
     4
 94
        3
 73
     0
 74
     0
 95
        8
 96
        4
 40
0.8477356342727617
 40
0.8477356342727617
 40
0.8477356342727617
 40
0.8477356342727617
 40
1.0
 40
1.0
 40
1.0
 40
1.0
 10
11555.19749869516
 20
-943.9863300297504
 10
11555.21755542352
 20
-943.8181369665151
 10
11555.23945588416
 20
-943.6461130160271
 10
11555.26321534685
 20
-943.4743080733349
 97
        0
 72
     4
 94
        3
 73
     0
 74
     0
 95
        8
 96
        4
 40
1.0
 40
1.0
 40
1.0
 40
1.0
 40
2.0
 40
2.0
 40
2.0
 40
2.0
 10
11555.26321534685
 20
-943.4743080733349
 10
11555.41334112958
 20
-942.3887468451905
 10
11555.63897308569
 20
-941.3147816289557
 10
11555.98210080384
 20
-940.2741082970559
 97
        0
 72
     4
 94
        3
 73
     0
 74
     0
 95
        8
 96
        4
 40
2.0
 40
2.0
 40
2.0
 40
2.0
 40
3.0
 40
3.0
 40
3.0
 40
3.0
 10
11555.98210080384
 20
-940.2741082970559
 10
11556.11762845474
 20
-939.8630659808372
 10
11556.26939131016
 20
-939.451962003711
 10
11556.53865728667
 20
-939.1146156244909
 97
        0
 72
     4
 94
        3
 73
     0
 74
     0
 95
       11
 96
        7
 40
3.0
 40
3.0
 40
3.0
 40
3.0
 40
3.99999
 40
3.99999
 40
3.99999
 40
3.99999
 40
4.0
 40
4.0
 40
4.0
 10
11556.53865728667
 20
-939.1146156244909
 10
11556.64625127445
 20
-938.9798178952212
 10
11556.77055333511
 20
-938.8595296423144
 10
11556.77055582114
 20
-938.8595272365629
 10
11556.77055582114
 20
-938.8595272365629
 10
11556.77055582117
 20
-938.8595272365387
 10
11556.77055582118
 20
-938.8595272365266
 97
        0
 72
     4
 94
        3
 73
     0
 74
     0
 95
        8
 96
        4
 40
0.0
 40
0.0
 40
0.0
 40
0.0
 40
1.0
 40
1.0
 40
1.0
 40
1.0
 10
11557.22610722652
 20
-939.2537547451988
 10
11557.18480406208
 20
-939.1980983062641
 10
11556.94318881004
 20
-938.8859211273359
 10
11556.89686944484
 20
-938.8341417598898
 97
        0
 72
     4
 94
        3
 73
     0
 74
     0
 95
        8
 96
        4
 40
1.0
 40
1.0
 40
1.0
 40
1.0
 40
2.0
 40
2.0
 40
2.0
 40
2.0
 10
11557.22610722652
 20
-939.2537547451988
 10
11557.66106475879
 20
-939.8398644939851
 10
11557.87956339966
 20
-940.5460639164365
 10
11558.08413180422
 20
-941.2480821420103
 97
        0
 72
     4
 94
        3
 73
     0
 74
     0
 95
        8
 96
        4
 40
2.0
 40
2.0
 40
2.0
 40
2.0
 40
2.482964206968562
 40
2.482964206968562
 40
2.482964206968562
 40
2.482964206968562
 10
11558.08413180422
 20
-941.2480821420103
 10
11558.29822632254
 20
-941.9827911709178
 10
11558.48988037221
 20
-942.7241190784339
 10
11558.65673873937
 20
-943.4708372331675
 97
        0
 72
     1
 10
11558.65673873937
 20
-943.4708372331673
 11
11563.48133302397
 21
-942.7518805928738
 72
     4
 94
        3
 73
     0
 74
     0
 95
        8
 96
        4
 40
1.222430996868921
 40
1.222430996868921
 40
1.222430996868921
 40
1.222430996868921
 40
2.0
 40
2.0
 40
2.0
 40
2.0
 10
11563.48133302397
 20
-942.7518805928738
 10
11563.62579995424
 20
-941.9126276721248
 10
11563.82156590165
 20
-941.0833036223262
 10
11564.0883713794
 20
-940.2741082970559
 97
        0
 72
     4
 94
        3
 73
     0
 74
     0
 95
        8
 96
        4
 40
2.0
 40
2.0
 40
2.0
 40
2.0
 40
3.0
 40
3.0
 40
3.0
 40
3.0
 10
11564.0883713794
 20
-940.2741082970559
 10
11564.2238990303
 20
-939.8630659808372
 10
11564.37566188572
 20
-939.4519620037142
 10
11564.64492786223
 20
-939.1146156244909
 97
        0
 72
     4
 94
        3
 73
     0
 74
     0
 95
       11
 96
        7
 40
3.0
 40
3.0
 40
3.0
 40
3.0
 40
3.99999
 40
3.99999
 40
3.99999
 40
3.99999
 40
4.0
 40
4.0
 40
4.0
 10
11564.64492786223
 20
-939.1146156244909
 10
11564.75252185001
 20
-938.9798178952212
 10
11564.87682391067
 20
-938.8595296423144
 10
11564.8768263967
 20
-938.8595272365629
 10
11564.8768263967
 20
-938.8595272365629
 10
11564.87682639673
 20
-938.8595272365387
 10
11564.87682639674
 20
-938.8595272365266
 97
        0
 72
     4
 94
        3
 73
     0
 74
     0
 95
        8
 96
        4
 40
0.0
 40
0.0
 40
0.0
 40
0.0
 40
1.0
 40
1.0
 40
1.0
 40
1.0
 10
11565.33237780208
 20
-939.2537547451988
 10
11565.29107463764
 20
-939.1980983062643
 10
11565.0494593856
 20
-938.8859211273359
 10
11565.0031400204
 20
-938.8341417598898
 97
        0
 72
     4
 94
        3
 73
     0
 74
     0
 95
        8
 96
        4
 40
1.0
 40
1.0
 40
1.0
 40
1.0
 40
2.0
 40
2.0
 40
2.0
 40
2.0
 10
11565.33237780208
 20
-939.2537547451988
 10
11565.76733533436
 20
-939.8398644939851
 10
11565.98583397522
 20
-940.546063916436
 10
11566.19040237978
 20
-941.2480821420103
 97
        0
 72
     4
 94
        3
 73
     0
 74
     0
 95
        8
 96
        4
 40
2.0
 40
2.0
 40
2.0
 40
2.0
 40
2.230584845924752
 40
2.230584845924752
 40
2.230584845924752
 40
2.230584845924752
 10
11566.19040237978
 20
-941.2480821420103
 10
11566.29261896396
 20
-941.5988592095152
 10
11566.38972033713
 20
-941.9511450227302
 10
11566.48145018204
 20
-942.3048058700649
 97
        0
 72
     1
 10
11566.48145018204
 20
-942.3048058700647
 11
11571.84429551938
 21
-941.505639548774
 72
     4
 94
        3
 73
     0
 74
     0
 95
        8
 96
        4
 40
1.609987666541588
 40
1.609987666541588
 40
1.609987666541588
 40
1.609987666541588
 40
2.0
 40
2.0
 40
2.0
 40
2.0
 10
11571.84429551938
 20
-941.505639548774
 10
11571.94486610664
 20
-941.0909231820239
 10
11572.06081791293
 20
-940.6799837315983
 10
11572.19464195496
 20
-940.2741082970559
 97
        0
 72
     4
 94
        3
 73
     0
 74
     0
 95
        8
 96
        4
 40
2.0
 40
2.0
 40
2.0
 40
2.0
 40
3.0
 40
3.0
 40
3.0
 40
3.0
 10
11572.19464195496
 20
-940.2741082970559
 10
11572.33016960586
 20
-939.8630659808372
 10
11572.48193246128
 20
-939.4519620037142
 10
11572.75119843779
 20
-939.1146156244909
 97
        0
 72
     4
 94
        3
 73
     0
 74
     0
 95
       11
 96
        7
 40
3.0
 40
3.0
 40
3.0
 40
3.0
 40
3.99999
 40
3.99999
 40
3.99999
 40
3.99999
 40
4.0
 40
4.0
 40
4.0
 10
11572.75119843779
 20
-939.1146156244909
 10
11572.85879242557
 20
-938.9798178952212
 10
11572.98309448623
 20
-938.8595296423144
 10
11572.98309697227
 20
-938.8595272365629
 10
11572.98309697227
 20
-938.8595272365629
 10
11572.98309697229
 20
-938.8595272365387
 10
11572.9830969723
 20
-938.8595272365266
 97
        0
 72
     4
 94
        3
 73
     0
 74
     0
 95
        8
 96
        4
 40
0.0
 40
0.0
 40
0.0
 40
0.0
 40
1.0
 40
1.0
 40
1.0
 40
1.0
 10
11573.43864837764
 20
-939.2537547451988
 10
11573.3973452132
 20
-939.1980983062641
 10
11573.15572996116
 20
-938.8859211273359
 10
11573.10941059596
 20
-938.8341417598898
 97
        0
 72
     4
 94
        3
 73
     0
 74
     0
 95
        8
 96
        4
 40
1.0
 40
1.0
 40
1.0
 40
1.0
 40
1.95091734677695
 40
1.95091734677695
 40
1.95091734677695
 40
1.95091734677695
 10
11573.43864837764
 20
-939.2537547451988
 10
11573.85225704019
 20
-939.8110966724347
 10
11574.07013409214
 20
-940.4770289425744
 10
11574.2664260488
 20
-941.1446958662473
 97
        0
 72
     1
 10
11574.2664260488
 20
-941.1446958662471
 11
11580.38022258717
 21
-940.2336234818402
 72
     4
 94
        3
 73
     0
 74
     0
 95
        8
 96
        4
 40
2.032832976858554
 40
2.032832976858554
 40
2.032832976858554
 40
2.032832976858554
 40
3.0
 40
3.0
 40
3.0
 40
3.0
 10
11580.38022258717
 20
-940.2336234818404
 10
11580.51243714177
 20
-939.8361499571151
 10
11580.66294847924
 20
-939.4408859178518
 10
11580.92337365218
 20
-939.1146156244909
 97
        0
 72
     4
 94
        3
 73
     0
 74
     0
 95
       11
 96
        7
 40
3.0
 40
3.0
 40
3.0
 40
3.0
 40
3.99999
 40
3.99999
 40
3.99999
 40
3.99999
 40
4.0
 40
4.0
 40
4.0
 10
11580.92337365218
 20
-939.1146156244909
 10
11581.03096763995
 20
-938.9798178952212
 10
11581.15526970062
 20
-938.8595296423144
 10
11581.15527218665
 20
-938.8595272365629
 10
11581.15527218665
 20
-938.8595272365629
 10
11581.15527218668
 20
-938.8595272365387
 10
11581.15527218669
 20
-938.8595272365266
 97
        0
 72
     4
 94
        3
 73
     0
 74
     0
 95
        8
 96
        4
 40
0.0
 40
0.0
 40
0.0
 40
0.0
 40
1.0
 40
1.0
 40
1.0
 40
1.0
 10
11581.61082359202
 20
-939.2537547451988
 10
11581.56952042758
 20
-939.1980983062639
 10
11581.32790517555
 20
-938.8859211273359
 10
11581.28158581035
 20
-938.8341417598898
 97
        0
 72
     4
 94
        3
 73
     0
 74
     0
 95
        8
 96
        4
 40
1.0
 40
1.0
 40
1.0
 40
1.0
 40
1.3901912139755
 40
1.3901912139755
 40
1.3901912139755
 40
1.3901912139755
 10
11581.61082359202
 20
-939.2537547451988
 10
11581.78054019957
 20
-939.4824496196006
 10
11581.91730111765
 20
-939.7294280487603
 10
11582.03313782302
 20
-939.9873075608411
 97
        0
 72
     1
 10
11582.03313782302
 20
-939.9873075608411
 11
11582.4559714368
 21
-939.924297281337
 72
     1
 10
11582.4559714368
 20
-939.924297281337
 11
11582.4559714368
 21
-871.3344151908225
 97
        0
 75
     1
 76
     2
 52
0.0
 41
0.12
 77
     0
 78
    78
 53
82.8749847
 43
0.0
 44
4.2
 45
-0.0000004961129005
 46
8.399999852931037
 79
     2
 49
0.9674709324
 49
-66.75549316799998
 53
75.96376039999999
 43
0.12
 44
5.16
 45
-0.000000348785556
 46
8.399999709154096
 79
     2
 49
0.4947726600000001
 49
-34.139315184
 53
63.43495179999999
 43
0.24
 44
5.639999999999999
 45
-0.0000000286036308
 46
8.400000041591663
 79
     2
 49
1.073312639999999
 49
-17.70965881199999
 53
45.0
 43
0.72
 44
6.599999999999999
 45
0.0000000000000009
 46
8.400000002875099
 79
     2
 49
1.527350688
 49
-10.352043456
 53
33.6900673
 43
1.799999999999999
 44
7.679999999999999
 45
0.0000001596020127
 46
8.399999824188462
 79
     2
 49
0.4326661440000001
 49
-29.85396423600001
 53
33.6900673
 43
10.2
 44
7.679999999999999
 45
0.0000001596020127
 46
8.399999824188462
 79
     2
 49
0.4326661440000001
 49
-29.85396423600001
 53
33.6900673
 43
18.6
 44
7.679999999999999
 45
0.0000001596020127
 46
8.399999824188462
 79
     2
 49
0.4326661440000001
 49
-29.85396423600001
 53
26.5650501
 43
2.16
 44
7.919999999999999
 45
-0.0000000460215162
 46
8.400000143556356
 79
     2
 49
0.26832816
 49
-18.514643556
 53
26.5650501
 43
10.56
 44
7.919999999999999
 45
-0.0000000460215162
 46
8.400000143556356
 79
     2
 49
0.26832816
 49
-18.514643556
 53
18.434948
 43
2.399999999999999
 44
8.039999999999999
 45
0.0000002686412607
 46
8.399999851558131
 79
     2
 49
0.3794733239999999
 49
-26.183659056
 53
18.434948
 43
10.8
 44
8.039999999999999
 45
0.0000002686412607
 46
8.399999851558131
 79
     2
 49
0.3794733239999999
 49
-26.183659056
 53
18.434948
 43
19.2
 44
8.039999999999999
 45
0.0000002686412607
 46
8.399999851558131
 79
     2
 49
0.3794733239999999
 49
-26.183659056
 53
26.5650501
 43
2.759999999999999
 44
8.16
 45
-0.0000000460215162
 46
8.400000143556356
 79
     2
 49
0.26832816
 49
-18.514643556
 53
26.5650501
 43
11.16
 44
8.16
 45
-0.0000000460215162
 46
8.400000143556356
 79
     2
 49
0.26832816
 49
-18.514643556
 53
11.3099327
 43
3.0
 44
8.279999999999999
 45
-0.0000000543109101
 46
8.400000069389928
 79
     2
 49
0.6118823435999998
 49
-42.21988036799999
 53
11.3099327
 43
11.4
 44
8.279999999999999
 45
-0.0000000543109101
 46
8.400000069389928
 79
     2
 49
0.6118823435999998
 49
-42.21988036799999
 53
11.3099327
 43
19.8
 44
8.279999999999999
 45
-0.0000000543109101
 46
8.400000069389928
 79
     2
 49
0.6118823435999998
 49
-42.21988036799999
 53
11.3099327
 43
28.2
 44
8.279999999999999
 45
-0.0000000543109101
 46
8.400000069389928
 79
     2
 49
0.6118823435999998
 49
-42.21988036799999
 53
11.3099327
 43
36.6
 44
8.279999999999999
 45
-0.0000000543109101
 46
8.400000069389928
 79
     2
 49
0.6118823435999998
 49
-42.21988036799999
 53
0.0
 43
3.599999999999999
 44
8.4
 45
0.0
 46
8.4
 79
     2
 49
1.199999999999999
 49
-7.199999999999999
 53
348.6900673
 43
4.799999999999999
 44
8.4
 45
0.0000000543109101
 46
8.400000069389928
 79
     2
 49
0.6118823435999998
 49
-42.21988036799999
 53
348.6900673
 43
13.2
 44
8.4
 45
0.0000000543109101
 46
8.400000069389928
 79
     2
 49
0.6118823435999998
 49
-42.21988036799999
 53
348.6900673
 43
21.6
 44
8.4
 45
0.0000000543109101
 46
8.400000069389928
 79
     2
 49
0.6118823435999998
 49
-42.21988036799999
 53
348.6900673
 43
30.0
 44
8.4
 45
0.0000000543109101
 46
8.400000069389928
 79
     2
 49
0.6118823435999998
 49
-42.21988036799999
 53
348.6900673
 43
38.4
 44
8.4
 45
0.0000000543109101
 46
8.400000069389928
 79
     2
 49
0.6118823435999998
 49
-42.21988036799999
 53
333.4349499
 43
5.399999999999999
 44
8.279999999999999
 45
0.0000000460215162
 46
8.400000143556356
 79
     2
 49
0.2683281599999999
 49
-18.514643556
 53
333.4349499
 43
13.8
 44
8.279999999999999
 45
0.0000000460215162
 46
8.400000143556356
 79
     2
 49
0.2683281599999999
 49
-18.514643556
 53
341.565052
 43
5.639999999999999
 44
8.16
 45
-0.0000002686412607
 46
8.399999851558131
 79
     2
 49
0.379473324
 49
-26.183659056
 53
341.565052
 43
14.04
 44
8.16
 45
-0.0000002686412607
 46
8.399999851558131
 79
     2
 49
0.379473324
 49
-26.183659056
 53
341.565052
 43
22.44
 44
8.16
 45
-0.0000002686412607
 46
8.399999851558131
 79
     2
 49
0.379473324
 49
-26.183659056
 53
333.4349499
 43
6.0
 44
8.039999999999999
 45
0.0000000460215162
 46
8.400000143556356
 79
     2
 49
0.2683281599999999
 49
-18.514643556
 53
333.4349499
 43
14.4
 44
8.039999999999999
 45
0.0000000460215162
 46
8.400000143556356
 79
     2
 49
0.2683281599999999
 49
-18.514643556
 53
326.3099327
 43
6.24
 44
7.919999999999999
 45
-0.0000001596020127
 46
8.399999824188462
 79
     2
 49
0.4326661440000001
 49
-29.85396423600001
 53
326.3099327
 43
14.64
 44
7.919999999999999
 45
-0.0000001596020127
 46
8.399999824188462
 79
     2
 49
0.4326661440000001
 49
-29.85396423600001
 53
326.3099327
 43
23.04
 44
7.919999999999999
 45
-0.0000001596020127
 46
8.399999824188462
 79
     2
 49
0.4326661440000001
 49
-29.85396423600001
 53
315.0
 43
6.599999999999999
 44
7.679999999999999
 45
-0.0000000000000009
 46
8.400000002875099
 79
     2
 49
1.527350688
 49
-10.352043456
 53
296.5650482
 43
7.679999999999999
 44
6.599999999999999
 45
0.0000000286036308
 46
8.400000041591663
 79
     2
 49
1.073312639999999
 49
-17.70965881199999
 53
284.0362396
 43
8.16
 44
5.639999999999999
 45
0.000000348785556
 46
8.399999709154096
 79
     2
 49
0.4947726600000001
 49
-34.139315184
 53
277.1250153
 43
8.279999999999999
 44
5.16
 45
0.0000004961129005
 46
8.399999852931037
 79
     2
 49
0.9674709324
 49
-66.75549316799998
 53
277.1250153
 43
0.0
 44
4.2
 45
0.0000004961129005
 46
8.399999852931037
 79
     2
 49
0.9674709324
 49
-66.75549316799998
 53
284.0362396
 43
0.12
 44
3.239999999999999
 45
0.000000348785556
 46
8.399999709154096
 79
     2
 49
0.4947726600000001
 49
-34.139315184
 53
296.5650482
 43
0.24
 44
2.759999999999999
 45
0.0000000286036308
 46
8.400000041591663
 79
     2
 49
1.073312639999999
 49
-17.70965881199999
 53
315.0
 43
0.72
 44
1.799999999999999
 45
-0.0000000000000009
 46
8.400000002875099
 79
     2
 49
1.527350688
 49
-10.352043456
 53
326.3099327
 43
1.799999999999999
 44
0.72
 45
-0.0000001596020127
 46
8.399999824188462
 79
     2
 49
0.4326661440000001
 49
-29.85396423600001
 53
326.3099327
 43
10.2
 44
0.72
 45
-0.0000001596020127
 46
8.399999824188462
 79
     2
 49
0.4326661440000001
 49
-29.85396423600001
 53
326.3099327
 43
18.6
 44
0.72
 45
-0.0000001596020127
 46
8.399999824188462
 79
     2
 49
0.4326661440000001
 49
-29.85396423600001
 53
333.4349499
 43
2.16
 44
0.48
 45
0.0000000460215162
 46
8.400000143556356
 79
     2
 49
0.2683281599999999
 49
-18.514643556
 53
333.4349499
 43
10.56
 44
0.48
 45
0.0000000460215162
 46
8.400000143556356
 79
     2
 49
0.2683281599999999
 49
-18.514643556
 53
341.565052
 43
2.399999999999999
 44
0.36
 45
-0.0000002686412607
 46
8.399999851558131
 79
     2
 49
0.379473324
 49
-26.183659056
 53
341.565052
 43
10.8
 44
0.36
 45
-0.0000002686412607
 46
8.399999851558131
 79
     2
 49
0.379473324
 49
-26.183659056
 53
341.565052
 43
19.2
 44
0.36
 45
-0.0000002686412607
 46
8.399999851558131
 79
     2
 49
0.379473324
 49
-26.183659056
 53
333.4349499
 43
2.759999999999999
 44
0.24
 45
0.0000000460215162
 46
8.400000143556356
 79
     2
 49
0.2683281599999999
 49
-18.514643556
 53
333.4349499
 43
11.16
 44
0.24
 45
0.0000000460215162
 46
8.400000143556356
 79
     2
 49
0.2683281599999999
 49
-18.514643556
 53
348.6900673
 43
3.0
 44
0.12
 45
0.0000000543109101
 46
8.400000069389928
 79
     2
 49
0.6118823435999998
 49
-42.21988036799999
 53
348.6900673
 43
11.4
 44
0.12
 45
0.0000000543109101
 46
8.400000069389928
 79
     2
 49
0.6118823435999998
 49
-42.21988036799999
 53
348.6900673
 43
19.8
 44
0.12
 45
0.0000000543109101
 46
8.400000069389928
 79
     2
 49
0.6118823435999998
 49
-42.21988036799999
 53
348.6900673
 43
28.2
 44
0.12
 45
0.0000000543109101
 46
8.400000069389928
 79
     2
 49
0.6118823435999998
 49
-42.21988036799999
 53
348.6900673
 43
36.6
 44
0.12
 45
0.0000000543109101
 46
8.400000069389928
 79
     2
 49
0.6118823435999998
 49
-42.21988036799999
 53
0.0
 43
3.599999999999999
 44
0.0
 45
0.0
 46
8.4
 79
     2
 49
1.199999999999999
 49
-7.199999999999999
 53
11.3099327
 43
4.799999999999999
 44
0.0
 45
-0.0000000543109101
 46
8.400000069389928
 79
     2
 49
0.6118823435999998
 49
-42.21988036799999
 53
11.3099327
 43
13.2
 44
0.0
 45
-0.0000000543109101
 46
8.400000069389928
 79
     2
 49
0.6118823435999998
 49
-42.21988036799999
 53
11.3099327
 43
21.6
 44
0.0
 45
-0.0000000543109101
 46
8.400000069389928
 79
     2
 49
0.6118823435999998
 49
-42.21988036799999
 53
11.3099327
 43
30.0
 44
0.0
 45
-0.0000000543109101
 46
8.400000069389928
 79
     2
 49
0.6118823435999998
 49
-42.21988036799999
 53
11.3099327
 43
38.4
 44
0.0
 45
-0.0000000543109101
 46
8.400000069389928
 79
     2
 49
0.6118823435999998
 49
-42.21988036799999
 53
26.5650501
 43
5.399999999999999
 44
0.12
 45
-0.0000000460215162
 46
8.400000143556356
 79
     2
 49
0.26832816
 49
-18.514643556
 53
26.5650501
 43
13.8
 44
0.12
 45
-0.0000000460215162
 46
8.400000143556356
 79
     2
 49
0.26832816
 49
-18.514643556
 53
18.434948
 43
5.639999999999999
 44
0.24
 45
0.0000002686412607
 46
8.399999851558131
 79
     2
 49
0.3794733239999999
 49
-26.183659056
 53
18.434948
 43
14.04
 44
0.24
 45
0.0000002686412607
 46
8.399999851558131
 79
     2
 49
0.3794733239999999
 49
-26.183659056
 53
18.434948
 43
22.44
 44
0.24
 45
0.0000002686412607
 46
8.399999851558131
 79
     2
 49
0.3794733239999999
 49
-26.183659056
 53
26.5650501
 43
6.0
 44
0.36
 45
-0.0000000460215162
 46
8.400000143556356
 79
     2
 49
0.26832816
 49
-18.514643556
 53
26.5650501
 43
14.4
 44
0.36
 45
-0.0000000460215162
 46
8.400000143556356
 79
     2
 49
0.26832816
 49
-18.514643556
 53
33.6900673
 43
6.24
 44
0.48
 45
0.0000001596020127
 46
8.399999824188462
 79
     2
 49
0.4326661440000001
 49
-29.85396423600001
 53
33.6900673
 43
14.64
 44
0.48
 45
0.0000001596020127
 46
8.399999824188462
 79
     2
 49
0.4326661440000001
 49
-29.85396423600001
 53
33.6900673
 43
23.04
 44
0.48
 45
0.0000001596020127
 46
8.399999824188462
 79
     2
 49
0.4326661440000001
 49
-29.85396423600001
 53
45.0
 43
6.599999999999999
 44
0.72
 45
0.0000000000000009
 46
8.400000002875099
 79
     2
 49
1.527350688
 49
-10.352043456
 53
63.43495179999999
 43
7.679999999999999
 44
1.799999999999999
 45
-0.0000000286036308
 46
8.400000041591663
 79
     2
 49
1.073312639999999
 49
-17.70965881199999
 53
75.96376039999999
 43
8.16
 44
2.759999999999999
 45
-0.000000348785556
 46
8.399999709154096
 79
     2
 49
0.4947726600000001
 49
-34.139315184
 53
82.8749847
 43
8.279999999999999
 44
3.239999999999999
 45
-0.0000004961129005
 46
8.399999852931037
 79
     2
 49
0.9674709324
 49
-66.75549316799998
 47
0.3306655061892795
 98
        1
 10
11558.52292241542
 20
-905.0487123184536
1001
GradientColor1ACI
1070
     5
1001
GradientColor2ACI
1070
     2
1001
ACAD
1010
0.0
1020
0.0
1030
0.0
  0
HATCH
  5
ABD
330
1F
100
AcDbEntity
  8
0
 62
    30
420
 16742400
100
AcDbHatch
 10
0.0
 20
0.0
 30
0.0
210
0.0
220
0.0
230
1.0
  2
SOLID
 70
     1
 71
     1
 91
        1
 92
        7
 72
     0
 73
     1
 93
        4
 10
11428.18772775627
 20
-1183.149988748964
 10
11428.18772775627
 20
-1188.149988748964
 10
11433.18772775627
 20
-1188.149988748963
 10
11433.18772775626
 20
-1183.149988748963
 97
        1
330
ABE
 75
     1
 76
     1
 47
0.0321901215665183
 98
        1
 10
11429.97717588497
 20
-1184.572969339207
450
        0
451
        0
460
0.0
461
0.0
452
        0
462
1.0
453
        2
463
0.0
 63
     5
421
      255
463
1.0
 63
     2
421
 16776960
470
LINEAR
1001
GradientColor1ACI
1070
     5
1001
GradientColor2ACI
1070
     2
1001
ACAD
1010
0.0
1020
0.0
1030
0.0
  0
LWPOLYLINE
  5
ABE
102
{ACAD_REACTORS
330
ABD
102
}
330
1F
100
AcDbEntity
  8
0
 62
    30
420
 16742400
100
AcDbPolyline
 90
        4
 70
     1
 43
0.0
 10
11428.18772775627
 20
-1183.149988748964
 10
11433.18772775626
 20
-1183.149988748963
 10
11433.18772775627
 20
-1188.149988748963
 10
11428.18772775627
 20
-1188.149988748964
  0
LINE
  5
ABF
330
1F
100
AcDbEntity
  8
0
 62
    30
420
 16742400
100
AcDbLine
 10
11428.18772775627
 20
-1183.149988748964
 30
0.0
 11
11433.18772775627
 21
-1183.149988748964
 31
0.0
  0
LWPOLYLINE
  5
AC0
330
1F
100
AcDbEntity
  8
0
370
     5
100
AcDbPolyline
 90
        2
 70
     0
 43
0.0
 10
11433.18772775627
 20
-1185.649988748964
 10
11754.34178567995
 20
-1185.649988748964
  0
MTEXT
  5
AC1
330
1F
100
AcDbEntity
  8
Specialized_Text
  6
Continuous
100
AcDbMText
 10
11436.7514070714
 20
-1183.123521715372
 30
0.0
 40
3.0
 41
163.0041735515597
 46
0.0
 71
     4
 72
     1
  1
© copyright 2013 Specialized Building Products Ltd
  7
GENERATED_STYLE_2
 73
     1
 44
1.0
  0
MTEXT
  5
AC2
330
1F
100
AcDbEntity
  8
Specialized_Text
  6
Continuous
100
AcDbMText
 10
11614.65240774508
 20
-1183.123521715372
 30
0.0
 40
3.0
 41
163.0041735515597
 46
0.0
 71
     4
 72
     1
  1
All Dimensions to be site checked before construction & installation
  7
GENERATED_STYLE_2
 73
     1
 44
1.0
  0
MTEXT
  5
AC3
330
1F
100
AcDbEntity
  8
Specialized_Text
  6
Continuous
100
AcDbMText
 10
11431.09778939891
 20
-712.7622378799369
 30
0.0
 40
3.0
 41
48.87340123734884
 46
0.0
 71
     4
 72
     1
  1
Appraisal No.510 [2013]
  7
GENERATED_STYLE_2
 73
     1
 44
1.0
  0
IMAGE
  5
AC4
330
1F
100
AcDbEntity
  8
0
 62
     7
420
 16777215
160
               140
310
8C000000010000008400000006000000050000000C019D212252C64010CF54F4B22B86C000000000000000000C019D212252C64089108FCC7EAD84C000000000000000009AE51D67756BC64089108FCC7EAD84C000000000000000009AE51D67756BC64010CF54F4B22B86C000000000000000000C019D212252C64010CF54
310
F4B22B86C00000000000000000
100
AcDbRasterImage
 90
        0
 10
11428.26665079642
 20
-709.4623800874415
 30
0.0
 11
0.0611721721957824
 21
0.0
 31
0.0
 12
0.0
 22
0.0611721721957824
 32
0.0
 13
828.0
 23
781.0
340
A9F
 70
     7
280
     0
281
    50
282
    50
283
     0
290
     0
360
AC5
 71
     1
 91
        2
 14
-0.5
 24
-0.5
 14
827.5
 24
780.5
  0
MTEXT
  5
AC6
330
1F
100
AcDbEntity
  8
Specialized_Text
  6
Continuous
 62
    30
420
 16742400
370
    20
100
AcDbMText
 10
11653.20778153429
 20
-1196.247425535485
 30
0.0
 40
5.5
 41
111.9228601720179
 46
0.0
 71
     7
 72
     1
  1
{\fArial Unicode MS|b1|i0|c0|p34;web \fArial Unicode MS|b0|i0|c0|p34;\C256;www.specialized.co.nz}
  7
GENERATED_STYLE_2
 73
     1
 44
1.12662050634974
  0
IMAGE
  5
AC7
330
1F
100
AcDbEntity
  8
0
 62
     7
420
 16777215
160
               140
310
8C000000010000008400000006000000050000009D086E09CBC8C640E0BAB25EF7FB85C000000000000000009D086E09CBC8C640C9FE1D4588C284C0000000000000000062194EDC9AFFC640C9FE1D4588C284C0000000000000000062194EDC9AFFC640E0BAB25EF7FB85C000000000000000009D086E09CBC8C640E0BAB2
310
5EF7FB85C00000000000000000
100
AcDbRasterImage
 90
        0
 10
11665.58622527523
 20
-703.4957860911636
 30
0.0
 11
0.0434841820317712
 21
0.0
 31
0.0
 12
0.0
 22
0.0434841820317712
 32
0.0
 13
2521.0
 23
901.0
340
AA0
 70
     7
280
     0
281
    50
282
    50
283
     0
290
     0
360
AC8
 71
     1
 91
        2
 14
-0.5
 24
-0.5
 14
2520.5
 24
900.5
  0
ENDSEC
  0
SECTION
  2
OBJECTS
  0
DICTIONARY
  5
C
330
0
100
AcDbDictionary
281
     1
  3
ACAD_CIP_PREVIOUS_PRODUCT_INFO
350
229
  3
ACAD_COLOR
350
21D
  3
ACAD_DETAILVIEWSTYLE
350
222
  3
ACAD_GROUP
350
D
  3
ACAD_IMAGE_DICT
350
24F
  3
ACAD_IMAGE_VARS
350
254
  3
ACAD_LAYOUT
350
1A
  3
ACAD_MATERIAL
350
3B
  3
ACAD_MLEADERSTYLE
350
210
  3
ACAD_MLINESTYLE
350
17
  3
ACAD_PLOTSETTINGS
350
19
  3
ACAD_PLOTSTYLENAME
350
E
  3
ACAD_SCALELIST
350
14C
  3
ACAD_SECTIONVIEWSTYLE
350
220
  3
ACAD_TABLESTYLE
350
20F
  3
ACAD_VISUALSTYLE
350
2A
  3
ACDB_RECOMPOSE_DATA
350
B8C
  3
AcDbVariableDictionary
350
1ED
  3
AcDsDecomposeData
350
B92
  3
WATERMARKS
350
1EB
  0
DICTIONARY
  5
239
330
2
100
AcDbDictionary
280
     1
281
     1
  3
ACAD_LAYERSTATES
360
23A
  0
DICTIONARY
  5
266
330
10
100
AcDbDictionary
280
     1
281
     1
  3
ADSK_XREC_LAYER_RECONCILED
360
267
  0
DICTIONARY
  5
268
330
46
100
AcDbDictionary
280
     1
281
     1
  3
ADSK_XREC_LAYER_RECONCILED
360
269
  0
DICTIONARY
  5
26A
330
179
100
AcDbDictionary
280
     1
281
     1
  3
ADSK_XREC_LAYER_RECONCILED
360
26B
  0
DICTIONARY
  5
26C
330
17E
100
AcDbDictionary
280
     1
281
     1
  3
ADSK_XREC_LAYER_RECONCILED
360
26D
  0
DICTIONARY
  5
230
330
22F
100
AcDbDictionary
280
     1
281
     1
  3
ADSK_XREC_LAYER_RECONCILED
360
26E
  0
DICTIONARY
  5
2AE
330
1F
100
AcDbDictionary
280
     1
281
     1
  3
ACAD_SORTENTS
360
2AF
  0
IMAGEDEF_REACTOR
  5
AC5
330
AC4
100
AcDbRasterImageDefReactor
 90
        2
330
AC4
  0
IMAGEDEF_REACTOR
  5
AC8
330
AC7
100
AcDbRasterImageDefReactor
 90
        2
330
AC7
  0
XRECORD
  5
229
102
{ACAD_REACTORS
330
C
102
}
330
C
100
AcDbXrecord
280
     1
300
ACD
300
2014
300
BDSPRM_F_S
  0
DICTIONARY
  5
21D
102
{ACAD_REACTORS
330
C
102
}
330
C
100
AcDbDictionary
281
     1
  0
DICTIONARY
  5
222
102
{ACAD_REACTORS
330
C
102
}
330
C
100
AcDbDictionary
281
     1
  3
Imperial24
350
223
  0
DICTIONARY
  5
D
102
{ACAD_REACTORS
330
C
102
}
330
C
100
AcDbDictionary
281
     1
  0
DICTIONARY
  5
24F
102
{ACAD_REACTORS
330
C
102
}
330
C
100
AcDbDictionary
281
     1
  3
BRANZ logo. Do not place on drawing without number 510-
350
A9F
  3
logo sharp
350
AA0
  0
RASTERVARIABLES
  5
254
102
{ACAD_REACTORS
330
C
102
}
330
C
100
AcDbRasterVariables
 90
        0
 70
     1
 71
     1
 72
     0
  0
DICTIONARY
  5
1A
102
{ACAD_REACTORS
330
C
102
}
330
C
100
AcDbDictionary
281
     1
  3
Layout1
350
1E
  3
Layout2
350
26
  3
Model
350
22
  0
DICTIONARY
  5
3B
102
{ACAD_REACTORS
330
C
102
}
330
C
100
AcDbDictionary
281
     1
  3
ByBlock
350
3D
  3
ByLayer
350
3C
  3
Global
350
3E
  0
DICTIONARY
  5
210
102
{ACAD_REACTORS
330
C
102
}
330
C
100
AcDbDictionary
281
     1
  3
Standard
350
21F
  0
DICTIONARY
  5
17
102
{ACAD_REACTORS
330
C
102
}
330
C
100
AcDbDictionary
281
     1
  3
Standard
350
18
  0
DICTIONARY
  5
19
102
{ACAD_REACTORS
330
C
102
}
330
C
100
AcDbDictionary
281
     1
  0
ACDBDICTIONARYWDFLT
  5
E
102
{ACAD_REACTORS
330
C
102
}
330
C
100
AcDbDictionary
281
     1
  3
Normal
350
F
100
AcDbDictionaryWithDefault
340
F
  0
DICTIONARY
  5
14C
102
{ACAD_REACTORS
330
C
102
}
330
C
100
AcDbDictionary
281
     1
  3
A0
350
14D
  3
A1
350
14E
  3
A2
350
14F
  3
A3
350
150
  3
A4
350
151
  3
A5
350
152
  3
A6
350
153
  3
A7
350
154
  3
A8
350
155
  3
A9
350
156
  3
B0
350
157
  3
B1
350
158
  3
B2
350
159
  3
B3
350
15A
  3
B4
350
15B
  3
B5
350
15C
  3
B6
350
15D
  3
B7
350
15E
  3
B8
350
15F
  3
B9
350
160
  3
C0
350
161
  3
C1
350
162
  3
C2
350
163
  3
C3
350
164
  3
C4
350
165
  3
C5
350
166
  3
C6
350
167
  3
C7
350
168
  3
C8
350
169
  3
C9
350
16A
  3
D0
350
16B
  3
D1
350
16C
  3
D2
350
16D
  0
DICTIONARY
  5
220
102
{ACAD_REACTORS
330
C
102
}
330
C
100
AcDbDictionary
281
     1
  3
Imperial24
350
221
  0
DICTIONARY
  5
20F
102
{ACAD_REACTORS
330
C
102
}
330
C
100
AcDbDictionary
281
     1
  3
Standard
350
21E
  0
DICTIONARY
  5
2A
102
{ACAD_REACTORS
330
C
102
}
330
C
100
AcDbDictionary
281
     1
  3
2dWireframe
350
2F
  3
3D Hidden
350
31
  3
3dWireframe
350
30
  3
Basic
350
32
  3
Brighten
350
36
  3
ColorChange
350
3A
  3
Conceptual
350
34
  3
Dim
350
35
  3
EdgeColorOff
350
21C
  3
Facepattern
350
39
  3
Flat
350
2B
  3
FlatWithEdges
350
2C
  3
Gouraud
350
2D
  3
GouraudWithEdges
350
2E
  3
Hidden
350
214
  3
JitterOff
350
21A
  3
Linepattern
350
38
  3
OverhangOff
350
21B
  3
Realistic
350
33
  3
Shaded
350
219
  3
Shaded with edges
350
218
  3
Shades of Gray
350
215
  3
Sketchy
350
216
  3
Thicken
350
37
  3
Wireframe
350
213
  3
X-Ray
350
217
  0
XRECORD
  5
B8C
102
{ACAD_REACTORS
330
C
102
}
330
C
100
AcDbXrecord
280
     1
 90
        1
330
21E
330
259
330
25C
330
25D
330
260
  0
DICTIONARY
  5
1ED
102
{ACAD_REACTORS
330
C
102
}
330
C
100
AcDbDictionary
281
     1
  3
CANNOSCALE
350
1EE
  3
CMLEADERSTYLE
350
27C
  3
CTABLESTYLE
350
27B
  3
CVIEWDETAILSTYLE
350
27D
  3
CVIEWSECTIONSTYLE
350
27E
  3
HPCOLOR
350
927
  3
LAYEREVAL
350
27F
  3
LAYERNOTIFY
350
280
  0
DICTIONARY
  5
B92
102
{ACAD_REACTORS
330
C
102
}
330
C
100
AcDbDictionary
281
     1
  3
AcDsRecords
350
B94
  3
AcDsSchemas
350
B93
1001
ACAD
1070
     2
  0
DICTIONARY
  5
1EB
102
{ACAD_REACTORS
330
C
102
}
330
C
100
AcDbDictionary
281
     1
  3
AC_WATERMARK
350
1EC
  0
DICTIONARY
  5
23A
102
{ACAD_REACTORS
330
239
102
}
330
239
100
AcDbDictionary
281
     1
  0
XRECORD
  5
267
102
{ACAD_REACTORS
330
266
102
}
330
266
100
AcDbXrecord
280
     1
290
     1
  0
XRECORD
  5
269
102
{ACAD_REACTORS
330
268
102
}
330
268
100
AcDbXrecord
280
     1
290
     1
  0
XRECORD
  5
26B
102
{ACAD_REACTORS
330
26A
102
}
330
26A
100
AcDbXrecord
280
     1
290
     1
  0
XRECORD
  5
26D
102
{ACAD_REACTORS
330
26C
102
}
330
26C
100
AcDbXrecord
280
     1
290
     1
  0
XRECORD
  5
26E
102
{ACAD_REACTORS
330
230
102
}
330
230
100
AcDbXrecord
280
     1
290
     1
  0
SORTENTSTABLE
  5
2AF
102
{ACAD_REACTORS
330
2AE
102
}
330
2AE
100
AcDbSortentsTable
330
1F
331
1CC
  5
1D1
331
259
  5
25E
331
1E3
  5
255
331
182
  5
186
331
1A1
  5
1A5
331
17A
  5
17B
331
1C0
  5
1C5
331
199
  5
19B
331
172
  5
173
331
260
  5
2B1
331
1DF
  5
1E4
331
1B8
  5
1BD
331
191
  5
191
331
1D7
  5
1E2
331
1B0
  5
1B6
331
189
  5
18D
331
1A8
  5
1AA
331
25C
  5
260
331
1CF
  5
1D4
331
1E6
  5
259
331
185
  5
189
331
1A4
  5
1A6
331
17D
  5
182
331
19C
  5
19E
331
175
  5
176
331
1C3
  5
1C8
331
A33
  5
181
331
1BB
  5
1C0
331
194
  5
196
331
1B3
  5
1B8
331
18C
  5
190
331
25F
  5
263
331
1D2
  5
1DE
331
1AB
  5
1AD
331
1CA
  5
1CF
331
1E1
  5
1E6
331
1A7
  5
1A9
331
180
  5
184
331
178
  5
17A
331
1C6
  5
1CB
331
19F
  5
1A1
331
1BE
  5
1C3
331
197
  5
199
331
170
  5
171
331
1B6
  5
1BB
331
18F
  5
193
331
1AE
  5
1B4
331
1CD
  5
1D2
331
25A
  5
25F
331
1E4
  5
256
331
183
  5
187
331
17B
  5
17C
331
1C1
  5
1C6
331
19A
  5
19C
331
173
  5
174
331
261
  5
2AC
331
1B9
  5
1BE
331
192
  5
192
331
1B1
  5
1B7
331
18A
  5
18E
331
1A9
  5
1AB
331
25D
  5
261
331
1D0
  5
1D6
331
1E7
  5
25A
331
1C8
  5
1CD
331
255
  5
25B
331
186
  5
18A
331
1A5
  5
1A7
331
19D
  5
19F
331
176
  5
178
331
1C4
  5
1C9
331
1BC
  5
1C1
331
195
  5
197
331
1B4
  5
1B9
331
1D3
  5
1DF
331
1AC
  5
1AE
331
1CB
  5
1D0
331
1E2
  5
1E7
331
181
  5
185
331
1C7
  5
1CC
331
1A0
  5
1A4
331
1BF
  5
1C4
331
198
  5
19A
331
171
  5
172
331
1DE
  5
1E3
331
1B7
  5
1BC
331
190
  5
194
331
1D6
  5
1E1
331
1AF
  5
1B5
331
188
  5
18C
331
1CE
  5
1D3
331
1E5
  5
257
331
184
  5
188
331
17C
  5
17D
331
1C2
  5
1C7
331
19B
  5
19D
331
174
  5
175
331
1BA
  5
1BF
331
193
  5
195
331
18B
  5
18F
331
25E
  5
262
331
1D1
  5
1D7
331
1AA
  5
1AC
331
1C9
  5
1CE
331
256
  5
25C
331
187
  5
18B
331
1E0
  5
1E5
331
1A6
  5
1A8
331
17F
  5
183
331
1C5
  5
1CA
331
19E
  5
1A0
331
1BD
  5
1C2
331
196
  5
198
331
16F
  5
170
331
1B5
  5
1BA
331
1D4
  5
1E0
331
1AD
  5
1B3
  0
ACDBDETAILVIEWSTYLE
  5
223
102
{ACAD_XDICTIONARY
360
278
102
}
102
{ACAD_REACTORS
330
222
102
}
330
222
100
AcDbModelDocViewStyle
 70
     0
  3
Imperial24
290
     0
100
AcDbDetailViewStyle
 70
     0
 71
     0
 90
        3
 71
     1
340
11
 62
   256
 40
0.24
340
0
 62
   256
 40
0.24
300

 40
0.36
280
     3
 71
     2
340
16
 90
       25
 62
   256
 71
     3
340
11
 62
   256
 40
0.24
 90
        1
 40
0.75
 90
        1
300
%<\AcVar ViewType \f "%tc1">% %<\AcVar ViewDetailId>%\PSCALE %<\AcVar ViewScale \f "%sn">%
 71
     4
340
16
 90
       25
 62
   256
340
16
 90
       25
 62
   256
280
     0
  0
IMAGEDEF
  5
A9F
102
{ACAD_REACTORS
330
24F
330
AC5
102
}
330
24F
100
AcDbRasterImageDef
 90
        0
  1
P:\VERT-X CONSULTING LTD\2013\10 Oct\1310-015- Specialized Construction Products - Contract draughting\Drawings\BRANZ logo. Do not place on drawing without number 510-.jpg
 10
828.0
 20
781.0
 11
0.0846666666666667
 21
0.0846666666666667
280
     1
281
     5
  0
IMAGEDEF
  5
AA0
102
{ACAD_REACTORS
330
24F
330
AC8
102
}
330
24F
100
AcDbRasterImageDef
 90
        0
  1
P:\VERT-X CONSULTING LTD\2013\10 Oct\1310-015- Specialized Construction Products - Contract draughting\Drawings\logo sharp.JPG
 10
2521.0
 20
901.0
 11
0.2645833333333333
 21
0.2645833333333333
280
     1
281
     5
  0
LAYOUT
  5
1E
102
{ACAD_REACTORS
330
1A
102
}
330
1A
100
AcDbPlotSettings
  1

  2
none_device
  4

  6

 40
0.0
 41
0.0
 42
0.0
 43
0.0
 44
0.0
 45
0.0
 46
0.0
 47
0.0
 48
0.0
 49
0.0
140
0.0
141
0.0
142
1.0
143
1.0
 70
   688
 72
     0
 73
     0
 74
     5
  7

 75
    16
147
1.0
 76
     0
 77
     2
 78
   300
148
0.0
149
0.0
100
AcDbLayout
  1
Layout1
 70
     1
 71
     1
 10
0.0
 20
0.0
 11
12.0
 21
9.0
 12
0.0
 22
0.0
 32
0.0
 14
1.000000000000000E+20
 24
1.000000000000000E+20
 34
1.000000000000000E+20
 15
-1.000000000000000E+20
 25
-1.000000000000000E+20
 35
-1.000000000000000E+20
146
0.0
 13
0.0
 23
0.0
 33
0.0
 16
1.0
 26
0.0
 36
0.0
 17
0.0
 27
1.0
 37
0.0
 76
     0
330
1B
  0
LAYOUT
  5
26
102
{ACAD_REACTORS
330
1A
102
}
330
1A
100
AcDbPlotSettings
  1

  2
none_device
  4

  6

 40
0.0
 41
0.0
 42
0.0
 43
0.0
 44
0.0
 45
0.0
 46
0.0
 47
0.0
 48
0.0
 49
0.0
140
0.0
141
0.0
142
1.0
143
1.0
 70
   688
 72
     0
 73
     0
 74
     5
  7

 75
    16
147
1.0
 76
     0
 77
     2
 78
   300
148
0.0
149
0.0
100
AcDbLayout
  1
Layout2
 70
     1
 71
     2
 10
0.0
 20
0.0
 11
0.0
 21
0.0
 12
0.0
 22
0.0
 32
0.0
 14
0.0
 24
0.0
 34
0.0
 15
0.0
 25
0.0
 35
0.0
146
0.0
 13
0.0
 23
0.0
 33
0.0
 16
1.0
 26
0.0
 36
0.0
 17
0.0
 27
1.0
 37
0.0
 76
     0
330
23
  0
LAYOUT
  5
22
102
{ACAD_REACTORS
330
1A
102
}
330
1A
100
AcDbPlotSettings
  1

  2
none_device
  4

  6

 40
0.0
 41
0.0
 42
0.0
 43
0.0
 44
0.0
 45
0.0
 46
0.0
 47
0.0
 48
0.0
 49
0.0
140
0.0
141
0.0
142
1.0
143
1.0
 70
  1712
 72
     0
 73
     0
 74
     0
  7

 75
     0
147
1.0
 76
     0
 77
     2
 78
   300
148
0.0
149
0.0
100
AcDbLayout
  1
Model
 70
     1
 71
     0
 10
0.0
 20
0.0
 11
12.0
 21
9.0
 12
0.0
 22
0.0
 32
0.0
 14
1.000000000000000E+20
 24
1.000000000000000E+20
 34
1.000000000000000E+20
 15
-1.000000000000000E+20
 25
-1.000000000000000E+20
 35
-1.000000000000000E+20
146
0.0
 13
0.0
 23
0.0
 33
0.0
 16
1.0
 26
0.0
 36
0.0
 17
0.0
 27
1.0
 37
0.0
 76
     0
330
1F
331
29
  0
MATERIAL
  5
3D
102
{ACAD_REACTORS
330
3B
102
}
330
3B
100
AcDbMaterial
  1
ByBlock
 73
     1
 78
     1
172
     1
176
     1
270
     1
274
     1
  0
MATERIAL
  5
3C
102
{ACAD_REACTORS
330
3B
102
}
330
3B
100
AcDbMaterial
  1
ByLayer
 73
     1
 78
     1
172
     1
176
     1
270
     1
274
     1
  0
MATERIAL
  5
3E
102
{ACAD_REACTORS
330
3B
102
}
330
3B
100
AcDbMaterial
  1
Global
 73
     1
 78
     1
172
     1
176
     1
270
     1
274
     1
  0
MLEADERSTYLE
  5
21F
102
{ACAD_XDICTIONARY
360
BC9
102
}
102
{ACAD_REACTORS
330
210
102
}
330
210
100
AcDbMLeaderStyle
179
     2
170
     2
171
     1
172
     0
 90
        2
 40
0.0
 41
0.0
173
     1
 91
-1056964608
340
14
 92
       -2
290
     1
 42
0.09
291
     1
 43
0.36
  3
Standard
 44
0.18
300

342
11
174
     1
178
     6
175
     1
176
     0
 93
-1056964608
 45
0.18
292
     0
297
     0
 46
0.18
 94
-1056964608
 47
1.0
 49
1.0
140
1.0
293
     1
141
0.0
294
     1
177
     0
142
1.0
295
     0
296
     0
143
0.125
271
     0
272
     9
273
     9
  0
MLINESTYLE
  5
18
102
{ACAD_REACTORS
330
17
102
}
330
17
100
AcDbMlineStyle
  2
STANDARD
 70
     0
  3

 62
   256
 51
90.0
 52
90.0
 71
     2
 49
0.5
 62
   256
  6
BYLAYER
 49
-0.5
 62
   256
  6
BYLAYER
  0
ACDBPLACEHOLDER
  5
F
102
{ACAD_REACTORS
330
E
102
}
330
E
  0
SCALE
  5
14D
102
{ACAD_REACTORS
330
14C
102
}
330
14C
100
AcDbScale
 70
     0
300
1:1
140
1.0
141
1.0
290
     1
  0
SCALE
  5
14E
102
{ACAD_REACTORS
330
14C
102
}
330
14C
100
AcDbScale
 70
     0
300
1:2
140
1.0
141
2.0
290
     0
  0
SCALE
  5
14F
102
{ACAD_REACTORS
330
14C
102
}
330
14C
100
AcDbScale
 70
     0
300
1:4
140
1.0
141
4.0
290
     0
  0
SCALE
  5
150
102
{ACAD_REACTORS
330
14C
102
}
330
14C
100
AcDbScale
 70
     0
300
1:5
140
1.0
141
5.0
290
     0
  0
SCALE
  5
151
102
{ACAD_REACTORS
330
14C
102
}
330
14C
100
AcDbScale
 70
     0
300
1:8
140
1.0
141
8.0
290
     0
  0
SCALE
  5
152
102
{ACAD_REACTORS
330
14C
102
}
330
14C
100
AcDbScale
 70
     0
300
1:10
140
1.0
141
10.0
290
     0
  0
SCALE
  5
153
102
{ACAD_REACTORS
330
14C
102
}
330
14C
100
AcDbScale
 70
     0
300
1:16
140
1.0
141
16.0
290
     0
  0
SCALE
  5
154
102
{ACAD_REACTORS
330
14C
102
}
330
14C
100
AcDbScale
 70
     0
300
1:20
140
1.0
141
20.0
290
     0
  0
SCALE
  5
155
102
{ACAD_REACTORS
330
14C
102
}
330
14C
100
AcDbScale
 70
     0
300
1:30
140
1.0
141
30.0
290
     0
  0
SCALE
  5
156
102
{ACAD_REACTORS
330
14C
102
}
330
14C
100
AcDbScale
 70
     0
300
1:40
140
1.0
141
40.0
290
     0
  0
SCALE
  5
157
102
{ACAD_REACTORS
330
14C
102
}
330
14C
100
AcDbScale
 70
     0
300
1:50
140
1.0
141
50.0
290
     0
  0
SCALE
  5
158
102
{ACAD_REACTORS
330
14C
102
}
330
14C
100
AcDbScale
 70
     0
300
1:100
140
1.0
141
100.0
290
     0
  0
SCALE
  5
159
102
{ACAD_REACTORS
330
14C
102
}
330
14C
100
AcDbScale
 70
     0
300
2:1
140
2.0
141
1.0
290
     0
  0
SCALE
  5
15A
102
{ACAD_REACTORS
330
14C
102
}
330
14C
100
AcDbScale
 70
     0
300
4:1
140
4.0
141
1.0
290
     0
  0
SCALE
  5
15B
102
{ACAD_REACTORS
330
14C
102
}
330
14C
100
AcDbScale
 70
     0
300
8:1
140
8.0
141
1.0
290
     0
  0
SCALE
  5
15C
102
{ACAD_REACTORS
330
14C
102
}
330
14C
100
AcDbScale
 70
     0
300
10:1
140
10.0
141
1.0
290
     0
  0
SCALE
  5
15D
102
{ACAD_REACTORS
330
14C
102
}
330
14C
100
AcDbScale
 70
     0
300
100:1
140
100.0
141
1.0
290
     0
  0
SCALE
  5
15E
102
{ACAD_REACTORS
330
14C
102
}
330
14C
100
AcDbScale
 70
     0
300
1/128" = 1'-0"
140
0.0078125
141
12.0
290
     0
  0
SCALE
  5
15F
102
{ACAD_REACTORS
330
14C
102
}
330
14C
100
AcDbScale
 70
     0
300
1/64" = 1'-0"
140
0.015625
141
12.0
290
     0
  0
SCALE
  5
160
102
{ACAD_REACTORS
330
14C
102
}
330
14C
100
AcDbScale
 70
     0
300
1/32" = 1'-0"
140
0.03125
141
12.0
290
     0
  0
SCALE
  5
161
102
{ACAD_REACTORS
330
14C
102
}
330
14C
100
AcDbScale
 70
     0
300
1/16" = 1'-0"
140
0.0625
141
12.0
290
     0
  0
SCALE
  5
162
102
{ACAD_REACTORS
330
14C
102
}
330
14C
100
AcDbScale
 70
     0
300
3/32" = 1'-0"
140
0.09375
141
12.0
290
     0
  0
SCALE
  5
163
102
{ACAD_REACTORS
330
14C
102
}
330
14C
100
AcDbScale
 70
     0
300
1/8" = 1'-0"
140
0.125
141
12.0
290
     0
  0
SCALE
  5
164
102
{ACAD_REACTORS
330
14C
102
}
330
14C
100
AcDbScale
 70
     0
300
3/16" = 1'-0"
140
0.1875
141
12.0
290
     0
  0
SCALE
  5
165
102
{ACAD_REACTORS
330
14C
102
}
330
14C
100
AcDbScale
 70
     0
300
1/4" = 1'-0"
140
0.25
141
12.0
290
     0
  0
SCALE
  5
166
102
{ACAD_REACTORS
330
14C
102
}
330
14C
100
AcDbScale
 70
     0
300
3/8" = 1'-0"
140
0.375
141
12.0
290
     0
  0
SCALE
  5
167
102
{ACAD_REACTORS
330
14C
102
}
330
14C
100
AcDbScale
 70
     0
300
1/2" = 1'-0"
140
0.5
141
12.0
290
     0
  0
SCALE
  5
168
102
{ACAD_REACTORS
330
14C
102
}
330
14C
100
AcDbScale
 70
     0
300
3/4" = 1'-0"
140
0.75
141
12.0
290
     0
  0
SCALE
  5
169
102
{ACAD_REACTORS
330
14C
102
}
330
14C
100
AcDbScale
 70
     0
300
1" = 1'-0"
140
1.0
141
12.0
290
     0
  0
SCALE
  5
16A
102
{ACAD_REACTORS
330
14C
102
}
330
14C
100
AcDbScale
 70
     0
300
1-1/2" = 1'-0"
140
1.5
141
12.0
290
     0
  0
SCALE
  5
16B
102
{ACAD_REACTORS
330
14C
102
}
330
14C
100
AcDbScale
 70
     0
300
3" = 1'-0"
140
3.0
141
12.0
290
     0
  0
SCALE
  5
16C
102
{ACAD_REACTORS
330
14C
102
}
330
14C
100
AcDbScale
 70
     0
300
6" = 1'-0"
140
6.0
141
12.0
290
     0
  0
SCALE
  5
16D
102
{ACAD_REACTORS
330
14C
102
}
330
14C
100
AcDbScale
 70
     0
300
1'-0" = 1'-0"
140
12.0
141
12.0
290
     0
  0
ACDBSECTIONVIEWSTYLE
  5
221
102
{ACAD_XDICTIONARY
360
276
102
}
102
{ACAD_REACTORS
330
220
102
}
330
220
100
AcDbModelDocViewStyle
 70
     0
  3
Imperial24
290
     0
100
AcDbSectionViewStyle
 70
     0
 71
     0
 90
       78
 71
     1
340
11
 62
   256
 40
0.24
340
0
340
0
 62
   256
 40
0.24
300
I, O, Q, S, X, Z
 40
0.48
 90
        3
 40
0.18
 90
        1
 71
     2
340
16
 90
       25
 62
   256
340
16
 90
       50
 62
   256
 40
0.24
 40
0.0
 40
0.24
 71
     3
340
11
 62
   256
 40
0.24
 90
        1
 40
0.75
 90
        1
300
%<\AcVar ViewType \f "%tc1">% %<\AcVar ViewSectionStartId>%-%<\AcVar ViewSectionEndId>%\PSCALE %<\AcVar ViewScale \f "%sn">%
 71
     4
 62
   256
 62
   257
300
ANSI31
 40
1.0
 90
        0
290
     0
290
     0
 90
        6
 40
0.0
 40
1.570796326794896
 40
0.2617993877991494
 40
1.308996938995747
 40
-0.2617993877991494
 40
1.832595714594046
  0
TABLESTYLE
  5
21E
102
{ACAD_XDICTIONARY
360
B8A
102
}
102
{ACAD_REACTORS
330
20F
102
}
330
20F
100
AcDbTableStyle
280
     0
  3
Standard
 70
     0
 71
     0
 40
0.06
 41
0.06
280
     0
281
     0
  7
Standard
140
0.18
170
     2
 62
     0
 63
     7
283
     0
 90
      512
 91
        0
  1

274
    -2
284
     1
 64
     0
275
    -2
285
     1
 65
     0
276
    -2
286
     1
 66
     0
277
    -2
287
     1
 67
     0
278
    -2
288
     1
 68
     0
279
    -2
289
     1
 69
     0
  7
Standard
140
0.25
170
     5
 62
     0
 63
     7
283
     0
 90
      512
 91
        0
  1

274
    -2
284
     1
 64
     0
275
    -2
285
     1
 65
     0
276
    -2
286
     1
 66
     0
277
    -2
287
     1
 67
     0
278
    -2
288
     1
 68
     0
279
    -2
289
     1
 69
     0
  7
Standard
140
0.18
170
     5
 62
     0
 63
     7
283
     0
 90
      512
 91
        0
  1

274
    -2
284
     1
 64
     0
275
    -2
285
     1
 65
     0
276
    -2
286
     1
 66
     0
277
    -2
287
     1
 67
     0
278
    -2
288
     1
 68
     0
279
    -2
289
     1
 69
     0
  0
VISUALSTYLE
  5
2F
102
{ACAD_XDICTIONARY
360
B9D
102
}
102
{ACAD_REACTORS
330
2A
102
}
330
2A
100
AcDbVisualStyle
  2
2dWireframe
 70
     4
177
     2
291
     0
 71
     0
176
     1
 72
     2
176
     1
 73
     0
176
     1
 90
        0
176
     1
 40
0.6
176
     1
 41
30.0
176
     1
 63
     7
421
 16777215
176
     1
 74
     1
176
     1
 91
        4
176
     1
 64
     7
176
     1
 65
   257
176
     1
 75
     1
176
     1
175
     1
176
     1
 42
1.0
176
     1
 92
        0
176
     1
 66
   257
176
     1
 43
1.0
176
     1
 76
     1
176
     1
 77
     6
176
     1
 78
     2
176
     1
 67
     7
176
     1
 79
     5
176
     1
170
     0
176
     1
171
     0
176
     1
290
     0
176
     1
 93
        1
176
     1
 44
0.0
176
     1
173
     0
176
     1
1001
ACAD
1000
AcDbSavedByObjectVersion
1070
     0
  0
VISUALSTYLE
  5
31
102
{ACAD_XDICTIONARY
360
BA1
102
}
102
{ACAD_REACTORS
330
2A
102
}
330
2A
100
AcDbVisualStyle
  2
3D Hidden
 70
     6
177
     2
291
     0
 71
     1
176
     1
 72
     2
176
     1
 73
     2
176
     1
 90
        0
176
     1
 40
0.6
176
     1
 41
30.0
176
     1
 63
     7
421
 16777215
176
     1
 74
     2
176
     1
 91
        2
176
     1
 64
     7
176
     1
 65
   257
176
     1
 75
     2
176
     1
175
     1
176
     1
 42
40.0
176
     1
 92
        0
176
     1
 66
   257
176
     1
 43
1.0
176
     1
 76
     1
176
     1
 77
     6
176
     1
 78
     2
176
     1
 67
     7
176
     1
 79
     3
176
     1
170
     0
176
     1
171
     0
176
     1
290
     0
176
     1
 93
        1
176
     1
 44
0.0
176
     1
173
     0
176
     1
1001
ACAD
1000
AcDbSavedByObjectVersion
1070
     0
  0
VISUALSTYLE
  5
30
102
{ACAD_XDICTIONARY
360
B9F
102
}
102
{ACAD_REACTORS
330
2A
102
}
330
2A
100
AcDbVisualStyle
  2
3dWireframe
 70
     5
177
     2
291
     0
 71
     0
176
     1
 72
     2
176
     1
 73
     0
176
     1
 90
        0
176
     1
 40
0.6
176
     1
 41
30.0
176
     1
 63
     7
421
 16777215
176
     1
 74
     1
176
     1
 91
        4
176
     1
 64
     7
176
     1
 65
   257
176
     1
 75
     1
176
     1
175
     1
176
     1
 42
1.0
176
     1
 92
        0
176
     1
 66
   257
176
     1
 43
1.0
176
     1
 76
     1
176
     1
 77
     6
176
     1
 78
     2
176
     1
 67
     7
176
     1
 79
     5
176
     1
170
     0
176
     1
171
     0
176
     1
290
     0
176
     1
 93
        1
176
     1
 44
0.0
176
     1
173
     0
176
     1
1001
ACAD
1000
AcDbSavedByObjectVersion
1070
     0
  0
VISUALSTYLE
  5
32
102
{ACAD_XDICTIONARY
360
BA3
102
}
102
{ACAD_REACTORS
330
2A
102
}
330
2A
100
AcDbVisualStyle
  2
Basic
 70
     7
177
     2
291
     1
 71
     1
176
     1
 72
     0
176
     1
 73
     1
176
     1
 90
        0
176
     1
 40
0.6
176
     1
 41
30.0
176
     1
 63
     7
421
 16777215
176
     1
 74
     0
176
     1
 91
        4
176
     1
 64
     7
176
     1
 65
   257
176
     1
 75
     1
176
     1
175
     1
176
     1
 42
1.0
176
     1
 92
        8
176
     1
 66
     7
176
     1
 43
1.0
176
     1
 76
     1
176
     1
 77
     6
176
     1
 78
     2
176
     1
 67
     7
176
     1
 79
     5
176
     1
170
     0
176
     1
171
     0
176
     1
290
     0
176
     1
 93
        1
176
     1
 44
0.0
176
     1
173
     0
176
     1
1001
ACAD
1000
AcDbSavedByObjectVersion
1070
     0
  0
VISUALSTYLE
  5
36
102
{ACAD_XDICTIONARY
360
BAB
102
}
102
{ACAD_REACTORS
330
2A
102
}
330
2A
100
AcDbVisualStyle
  2
Brighten
 70
    12
177
     2
291
     1
 71
     2
176
     1
 72
     2
176
     1
 73
     0
176
     1
 90
        0
176
     1
 40
0.6
176
     1
 41
30.0
176
     1
 63
     7
421
 16777215
176
     1
 74
     1
176
     1
 91
        4
176
     1
 64
     7
176
     1
 65
   257
176
     1
 75
     1
176
     1
175
     1
176
     1
 42
1.0
176
     1
 92
        8
176
     1
 66
     7
176
     1
 43
1.0
176
     1
 76
     1
176
     1
 77
     6
176
     1
 78
     2
176
     1
 67
     7
176
     1
 79
     5
176
     1
170
     0
176
     1
171
     0
176
     1
290
     0
176
     1
 93
        1
176
     1
 44
50.0
176
     1
173
     0
176
     1
1001
ACAD
1000
AcDbSavedByObjectVersion
1070
     0
  0
VISUALSTYLE
  5
3A
102
{ACAD_XDICTIONARY
360
BB3
102
}
102
{ACAD_REACTORS
330
2A
102
}
330
2A
100
AcDbVisualStyle
  2
ColorChange
 70
    16
177
     2
291
     1
 71
     2
176
     1
 72
     2
176
     1
 73
     3
176
     1
 90
        0
176
     1
 40
0.6
176
     1
 41
30.0
176
     1
 63
     8
421
  8421504
176
     1
 74
     1
176
     1
 91
        4
176
     1
 64
     7
176
     1
 65
   257
176
     1
 75
     1
176
     1
175
     1
176
     1
 42
1.0
176
     1
 92
        8
176
     1
 66
     8
424
  8421504
176
     1
 43
1.0
176
     1
 76
     1
176
     1
 77
     6
176
     1
 78
     2
176
     1
 67
     7
176
     1
 79
     5
176
     1
170
     0
176
     1
171
     0
176
     1
290
     0
176
     1
 93
        1
176
     1
 44
0.0
176
     1
173
     0
176
     1
1001
ACAD
1000
AcDbSavedByObjectVersion
1070
     0
  0
VISUALSTYLE
  5
34
102
{ACAD_XDICTIONARY
360
BA7
102
}
102
{ACAD_REACTORS
330
2A
102
}
330
2A
100
AcDbVisualStyle
  2
Conceptual
 70
     9
177
     2
291
     0
 71
     3
176
     1
 72
     2
176
     1
 73
     0
176
     1
 90
        0
176
     1
 40
0.6
176
     1
 41
30.0
176
     1
 63
     7
421
 16777215
176
     1
 74
     2
176
     1
 91
        2
176
     1
 64
     7
176
     1
 65
   257
176
     1
 75
     1
176
     1
175
     1
176
     1
 42
40.0
176
     1
 92
        8
176
     1
 66
     7
176
     1
 43
1.0
176
     1
 76
     1
176
     1
 77
     6
176
     1
 78
     2
176
     1
 67
     7
176
     1
 79
     3
176
     1
170
     0
176
     1
171
     0
176
     1
290
     0
176
     1
 93
        1
176
     1
 44
0.0
176
     1
173
     0
176
     1
1001
ACAD
1000
AcDbSavedByObjectVersion
1070
     0
  0
VISUALSTYLE
  5
35
102
{ACAD_XDICTIONARY
360
BA9
102
}
102
{ACAD_REACTORS
330
2A
102
}
330
2A
100
AcDbVisualStyle
  2
Dim
 70
    11
177
     2
291
     1
 71
     2
176
     1
 72
     2
176
     1
 73
     0
176
     1
 90
        0
176
     1
 40
0.6
176
     1
 41
30.0
176
     1
 63
     7
421
 16777215
176
     1
 74
     1
176
     1
 91
        4
176
     1
 64
     7
176
     1
 65
   257
176
     1
 75
     1
176
     1
175
     1
176
     1
 42
1.0
176
     1
 92
        8
176
     1
 66
     7
176
     1
 43
1.0
176
     1
 76
     1
176
     1
 77
     6
176
     1
 78
     2
176
     1
 67
     7
176
     1
 79
     5
176
     1
170
     0
176
     1
171
     0
176
     1
290
     0
176
     1
 93
        1
176
     1
 44
-50.0
176
     1
173
     0
176
     1
1001
ACAD
1000
AcDbSavedByObjectVersion
1070
     0
  0
VISUALSTYLE
  5
21C
102
{ACAD_XDICTIONARY
360
BC7
102
}
102
{ACAD_REACTORS
330
2A
102
}
330
2A
100
AcDbVisualStyle
  2
EdgeColorOff
 70
    22
177
     2
291
     1
 71
     2
176
     0
 72
     2
176
     0
 73
     0
176
     0
 90
        0
176
     0
 40
0.6
176
     0
 41
30.0
176
     0
 63
     7
421
 16777215
176
     0
 74
     1
176
     0
 91
        4
176
     0
 64
     7
176
     0
 65
   257
176
     0
 75
     1
176
     0
175
     1
176
     0
 42
1.0
176
     0
 92
        8
176
     2
 66
     7
176
     0
 43
1.0
176
     0
 76
     1
176
     0
 77
     6
176
     0
 78
     2
176
     0
 67
     7
176
     0
 79
     5
176
     0
170
     0
176
     0
171
     0
176
     0
290
     0
176
     0
 93
        1
176
     0
 44
0.0
176
     0
173
     0
176
     0
1001
ACAD
1000
AcDbSavedByObjectVersion
1070
     0
  0
VISUALSTYLE
  5
39
102
{ACAD_XDICTIONARY
360
BB1
102
}
102
{ACAD_REACTORS
330
2A
102
}
330
2A
100
AcDbVisualStyle
  2
Facepattern
 70
    15
177
     2
291
     1
 71
     2
176
     1
 72
     2
176
     1
 73
     0
176
     1
 90
        0
176
     1
 40
0.6
176
     1
 41
30.0
176
     1
 63
     7
421
 16777215
176
     1
 74
     1
176
     1
 91
        4
176
     1
 64
     7
176
     1
 65
   257
176
     1
 75
     1
176
     1
175
     1
176
     1
 42
1.0
176
     1
 92
        8
176
     1
 66
     7
176
     1
 43
1.0
176
     1
 76
     1
176
     1
 77
     6
176
     1
 78
     2
176
     1
 67
     7
176
     1
 79
     5
176
     1
170
     0
176
     1
171
     0
176
     1
290
     0
176
     1
 93
        1
176
     1
 44
0.0
176
     1
173
     0
176
     1
1001
ACAD
1000
AcDbSavedByObjectVersion
1070
     0
  0
VISUALSTYLE
  5
2B
102
{ACAD_XDICTIONARY
360
B95
102
}
102
{ACAD_REACTORS
330
2A
102
}
330
2A
100
AcDbVisualStyle
  2
Flat
 70
     0
177
     2
291
     1
 71
     2
176
     1
 72
     1
176
     1
 73
     1
176
     1
 90
        2
176
     1
 40
0.6
176
     1
 41
30.0
176
     1
 63
     7
421
 16777215
176
     1
 74
     0
176
     1
 91
        4
176
     1
 64
     7
176
     1
 65
   257
176
     1
 75
     1
176
     1
175
     1
176
     1
 42
1.0
176
     1
 92
        8
176
     1
 66
     7
176
     1
 43
1.0
176
     1
 76
     1
176
     1
 77
     6
176
     1
 78
     2
176
     1
 67
     7
176
     1
 79
     5
176
     1
170
     0
176
     1
171
     0
176
     1
290
     0
176
     1
 93
       13
176
     1
 44
0.0
176
     1
173
     0
176
     1
1001
ACAD
1000
AcDbSavedByObjectVersion
1070
     0
  0
VISUALSTYLE
  5
2C
102
{ACAD_XDICTIONARY
360
B97
102
}
102
{ACAD_REACTORS
330
2A
102
}
330
2A
100
AcDbVisualStyle
  2
FlatWithEdges
 70
     1
177
     2
291
     1
 71
     2
176
     1
 72
     1
176
     1
 73
     1
176
     1
 90
        2
176
     1
 40
0.6
176
     1
 41
30.0
176
     1
 63
     7
421
 16777215
176
     1
 74
     1
176
     1
 91
        4
176
     1
 64
     7
176
     1
 65
   257
176
     1
 75
     1
176
     1
175
     1
176
     1
 42
1.0
176
     1
 92
        0
176
     1
 66
   257
176
     1
 43
1.0
176
     1
 76
     1
176
     1
 77
     6
176
     1
 78
     2
176
     1
 67
     7
176
     1
 79
     5
176
     1
170
     0
176
     1
171
     0
176
     1
290
     0
176
     1
 93
       13
176
     1
 44
0.0
176
     1
173
     0
176
     1
1001
ACAD
1000
AcDbSavedByObjectVersion
1070
     0
  0
VISUALSTYLE
  5
2D
102
{ACAD_XDICTIONARY
360
B99
102
}
102
{ACAD_REACTORS
330
2A
102
}
330
2A
100
AcDbVisualStyle
  2
Gouraud
 70
     2
177
     2
291
     1
 71
     2
176
     1
 72
     2
176
     1
 73
     1
176
     1
 90
        2
176
     1
 40
0.6
176
     1
 41
30.0
176
     1
 63
     7
421
 16777215
176
     1
 74
     0
176
     1
 91
        4
176
     1
 64
     7
176
     1
 65
   257
176
     1
 75
     1
176
     1
175
     1
176
     1
 42
1.0
176
     1
 92
        0
176
     1
 66
     7
176
     1
 43
1.0
176
     1
 76
     1
176
     1
 77
     6
176
     1
 78
     2
176
     1
 67
     7
176
     1
 79
     5
176
     1
170
     0
176
     1
171
     0
176
     1
290
     0
176
     1
 93
       13
176
     1
 44
0.0
176
     1
173
     0
176
     1
1001
ACAD
1000
AcDbSavedByObjectVersion
1070
     0
  0
VISUALSTYLE
  5
2E
102
{ACAD_XDICTIONARY
360
B9B
102
}
102
{ACAD_REACTORS
330
2A
102
}
330
2A
100
AcDbVisualStyle
  2
GouraudWithEdges
 70
     3
177
     2
291
     1
 71
     2
176
     1
 72
     2
176
     1
 73
     1
176
     1
 90
        2
176
     1
 40
0.6
176
     1
 41
30.0
176
     1
 63
     7
421
 16777215
176
     1
 74
     1
176
     1
 91
        4
176
     1
 64
     7
176
     1
 65
   257
176
     1
 75
     1
176
     1
175
     1
176
     1
 42
1.0
176
     1
 92
        0
176
     1
 66
   257
176
     1
 43
1.0
176
     1
 76
     1
176
     1
 77
     6
176
     1
 78
     2
176
     1
 67
     7
176
     1
 79
     5
176
     1
170
     0
176
     1
171
     0
176
     1
290
     0
176
     1
 93
       13
176
     1
 44
0.0
176
     1
173
     0
176
     1
1001
ACAD
1000
AcDbSavedByObjectVersion
1070
     0
  0
VISUALSTYLE
  5
214
102
{ACAD_XDICTIONARY
360
BB7
102
}
102
{ACAD_REACTORS
330
2A
102
}
330
2A
100
AcDbVisualStyle
  2
Hidden
 70
     6
177
     2
291
     0
 71
     1
176
     1
 72
     2
176
     1
 73
     2
176
     1
 90
        0
176
     1
 40
0.6
176
     1
 41
30.0
176
     1
 63
     7
421
 16777215
176
     1
 74
     2
176
     1
 91
        2
176
     1
 64
     7
176
     1
 65
   257
176
     1
 75
     2
176
     1
175
     1
176
     1
 42
40.0
176
     1
 92
        0
176
     1
 66
   257
176
     1
 43
1.0
176
     1
 76
     1
176
     1
 77
     6
176
     1
 78
     2
176
     1
 67
     7
176
     1
 79
     3
176
     1
170
     0
176
     1
171
     0
176
     1
290
     0
176
     1
 93
        1
176
     1
 44
0.0
176
     1
173
     0
176
     1
1001
ACAD
1000
AcDbSavedByObjectVersion
1070
     0
  0
VISUALSTYLE
  5
21A
102
{ACAD_XDICTIONARY
360
BC3
102
}
102
{ACAD_REACTORS
330
2A
102
}
330
2A
100
AcDbVisualStyle
  2
JitterOff
 70
    20
177
     2
291
     1
 71
     2
176
     0
 72
     2
176
     0
 73
     0
176
     0
 90
        0
176
     0
 40
0.6
176
     0
 41
30.0
176
     0
 63
     7
421
 16777215
176
     0
 74
     1
176
     0
 91
        4
176
     0
 64
     7
176
     0
 65
   257
176
     0
 75
     1
176
     0
175
     1
176
     0
 42
1.0
176
     0
 92
       10
176
     2
 66
     7
176
     0
 43
1.0
176
     0
 76
     1
176
     0
 77
     6
176
     0
 78
     2
176
     0
 67
     7
176
     0
 79
     5
176
     0
170
     0
176
     0
171
     0
176
     0
290
     0
176
     0
 93
        1
176
     0
 44
0.0
176
     0
173
     0
176
     0
1001
ACAD
1000
AcDbSavedByObjectVersion
1070
     0
  0
VISUALSTYLE
  5
38
102
{ACAD_XDICTIONARY
360
BAF
102
}
102
{ACAD_REACTORS
330
2A
102
}
330
2A
100
AcDbVisualStyle
  2
Linepattern
 70
    14
177
     2
291
     1
 71
     2
176
     1
 72
     2
176
     1
 73
     0
176
     1
 90
        0
176
     1
 40
0.6
176
     1
 41
30.0
176
     1
 63
     7
421
 16777215
176
     1
 74
     1
176
     1
 91
        4
176
     1
 64
     7
176
     1
 65
   257
176
     1
 75
     7
176
     1
175
     7
176
     1
 42
1.0
176
     1
 92
        8
176
     1
 66
     7
176
     1
 43
1.0
176
     1
 76
     1
176
     1
 77
     6
176
     1
 78
     2
176
     1
 67
     7
176
     1
 79
     5
176
     1
170
     0
176
     1
171
     0
176
     1
290
     0
176
     1
 93
        1
176
     1
 44
0.0
176
     1
173
     0
176
     1
1001
ACAD
1000
AcDbSavedByObjectVersion
1070
     0
  0
VISUALSTYLE
  5
21B
102
{ACAD_XDICTIONARY
360
BC5
102
}
102
{ACAD_REACTORS
330
2A
102
}
330
2A
100
AcDbVisualStyle
  2
OverhangOff
 70
    21
177
     2
291
     1
 71
     2
176
     0
 72
     2
176
     0
 73
     0
176
     0
 90
        0
176
     0
 40
0.6
176
     0
 41
30.0
176
     0
 63
     7
421
 16777215
176
     0
 74
     1
176
     0
 91
        4
176
     0
 64
     7
176
     0
 65
   257
176
     0
 75
     1
176
     0
175
     1
176
     0
 42
1.0
176
     0
 92
        9
176
     2
 66
     7
176
     0
 43
1.0
176
     0
 76
     1
176
     0
 77
     6
176
     0
 78
     2
176
     0
 67
     7
176
     0
 79
     5
176
     0
170
     0
176
     0
171
     0
176
     0
290
     0
176
     0
 93
        1
176
     0
 44
0.0
176
     0
173
     0
176
     0
1001
ACAD
1000
AcDbSavedByObjectVersion
1070
     0
  0
VISUALSTYLE
  5
33
102
{ACAD_XDICTIONARY
360
BA5
102
}
102
{ACAD_REACTORS
330
2A
102
}
330
2A
100
AcDbVisualStyle
  2
Realistic
 70
     8
177
     2
291
     0
 71
     2
176
     1
 72
     2
176
     1
 73
     0
176
     1
 90
        0
176
     1
 40
0.6
176
     1
 41
30.0
176
     1
 63
     7
421
 16777215
176
     1
 74
     1
176
     1
 91
        0
176
     1
 64
     7
176
     1
 65
   257
176
     1
 75
     1
176
     1
175
     1
176
     1
 42
1.0
176
     1
 92
        8
176
     1
 66
     8
424
  7895160
176
     1
 43
1.0
176
     1
 76
     1
176
     1
 77
     6
176
     1
 78
     2
176
     1
 67
     7
176
     1
 79
     5
176
     1
170
     0
176
     1
171
     0
176
     1
290
     0
176
     1
 93
       13
176
     1
 44
0.0
176
     1
173
     0
176
     1
1001
ACAD
1000
AcDbSavedByObjectVersion
1070
     0
  0
VISUALSTYLE
  5
219
102
{ACAD_XDICTIONARY
360
BC1
102
}
102
{ACAD_REACTORS
330
2A
102
}
330
2A
100
AcDbVisualStyle
  2
Shaded
 70
    27
177
     2
291
     0
 71
     2
176
     1
 72
     2
176
     1
 73
     1
176
     1
 90
        2
176
     1
 40
0.6
176
     1
 41
30.0
176
     1
 63
     7
421
 16777215
176
     1
 74
     0
176
     1
 91
        4
176
     1
 64
     7
176
     1
 65
   257
176
     1
 75
     1
176
     1
175
     1
176
     1
 42
1.0
176
     1
 92
        8
176
     1
 66
   257
176
     1
 43
1.0
176
     1
 76
     1
176
     1
 77
     6
176
     1
 78
     2
176
     1
 67
     8
425
  7895160
176
     1
 79
     3
176
     1
170
     0
176
     1
171
     0
176
     1
290
     0
176
     1
 93
        5
176
     1
 44
0.0
176
     1
173
     0
176
     1
1001
ACAD
1000
AcDbSavedByObjectVersion
1070
     0
  0
VISUALSTYLE
  5
218
102
{ACAD_XDICTIONARY
360
BBF
102
}
102
{ACAD_REACTORS
330
2A
102
}
330
2A
100
AcDbVisualStyle
  2
Shaded with edges
 70
    26
177
     2
291
     0
 71
     2
176
     1
 72
     2
176
     1
 73
     1
176
     1
 90
        2
176
     1
 40
0.6
176
     1
 41
30.0
176
     1
 63
     7
421
 16777215
176
     1
 74
     1
176
     1
 91
       10
176
     1
 64
     7
176
     1
 65
   257
176
     1
 75
     2
176
     1
175
     1
176
     1
 42
1.0
176
     1
 92
        8
176
     1
 66
   257
176
     1
 43
1.0
176
     1
 76
     1
176
     1
 77
     6
176
     1
 78
     2
176
     1
 67
     7
176
     1
 79
     3
176
     1
170
     0
176
     1
171
     0
176
     1
290
     0
176
     1
 93
        5
176
     1
 44
0.0
176
     1
173
     0
176
     1
1001
ACAD
1000
AcDbSavedByObjectVersion
1070
     0
  0
VISUALSTYLE
  5
215
102
{ACAD_XDICTIONARY
360
BB9
102
}
102
{ACAD_REACTORS
330
2A
102
}
330
2A
100
AcDbVisualStyle
  2
Shades of Gray
 70
    23
177
     2
291
     0
 71
     2
176
     1
 72
     2
176
     1
 73
     3
176
     1
 90
        0
176
     1
 40
0.6
176
     1
 41
30.0
176
     1
 63
     7
421
 16777215
176
     1
 74
     2
176
     1
 91
        2
176
     1
 64
     7
176
     1
 65
     7
176
     1
 75
     1
176
     1
175
     1
176
     1
 42
40.0
176
     1
 92
        8
176
     1
 66
     7
176
     1
 43
1.0
176
     1
 76
     1
176
     1
 77
     6
176
     1
 78
     2
176
     1
 67
     7
176
     1
 79
     3
176
     1
170
     0
176
     1
171
     0
176
     1
290
     0
176
     1
 93
        1
176
     1
 44
0.0
176
     1
173
     0
176
     1
1001
ACAD
1000
AcDbSavedByObjectVersion
1070
     0
  0
VISUALSTYLE
  5
216
102
{ACAD_XDICTIONARY
360
BBB
102
}
102
{ACAD_REACTORS
330
2A
102
}
330
2A
100
AcDbVisualStyle
  2
Sketchy
 70
    24
177
     2
291
     0
 71
     1
176
     1
 72
     2
176
     1
 73
     2
176
     1
 90
        0
176
     1
 40
0.6
176
     1
 41
30.0
176
     1
 63
     7
421
 16777215
176
     1
 74
     2
176
     1
 91
        2
176
     1
 64
     7
176
     1
 65
     7
176
     1
 75
     1
176
     1
175
     1
176
     1
 42
40.0
176
     1
 92
       11
176
     1
 66
     7
176
     1
 43
1.0
176
     1
 76
     1
176
     1
 77
     6
176
     1
 78
     2
176
     1
 67
     7
176
     1
 79
     6
176
     1
170
     0
176
     1
171
     0
176
     1
290
     0
176
     1
 93
        1
176
     1
 44
0.0
176
     1
173
     0
176
     1
1001
ACAD
1000
AcDbSavedByObjectVersion
1070
     0
  0
VISUALSTYLE
  5
37
102
{ACAD_XDICTIONARY
360
BAD
102
}
102
{ACAD_REACTORS
330
2A
102
}
330
2A
100
AcDbVisualStyle
  2
Thicken
 70
    13
177
     2
291
     1
 71
     2
176
     1
 72
     2
176
     1
 73
     0
176
     1
 90
        0
176
     1
 40
0.6
176
     1
 41
30.0
176
     1
 63
     7
421
 16777215
176
     1
 74
     1
176
     1
 91
        4
176
     1
 64
     7
176
     1
 65
   257
176
     1
 75
     1
176
     1
175
     1
176
     1
 42
1.0
176
     1
 92
       12
176
     1
 66
     7
176
     1
 43
1.0
176
     1
 76
     1
176
     1
 77
     6
176
     1
 78
     2
176
     1
 67
     7
176
     1
 79
     5
176
     1
170
     0
176
     1
171
     0
176
     1
290
     0
176
     1
 93
        1
176
     1
 44
0.0
176
     1
173
     0
176
     1
1001
ACAD
1000
AcDbSavedByObjectVersion
1070
     0
  0
VISUALSTYLE
  5
213
102
{ACAD_XDICTIONARY
360
BB5
102
}
102
{ACAD_REACTORS
330
2A
102
}
330
2A
100
AcDbVisualStyle
  2
Wireframe
 70
     5
177
     2
291
     0
 71
     0
176
     1
 72
     2
176
     1
 73
     0
176
     1
 90
        0
176
     1
 40
0.6
176
     1
 41
30.0
176
     1
 63
     7
421
 16777215
176
     1
 74
     1
176
     1
 91
        4
176
     1
 64
     7
176
     1
 65
   257
176
     1
 75
     1
176
     1
175
     1
176
     1
 42
1.0
176
     1
 92
        0
176
     1
 66
   257
176
     1
 43
1.0
176
     1
 76
     1
176
     1
 77
     6
176
     1
 78
     2
176
     1
 67
     7
176
     1
 79
     3
176
     1
170
     0
176
     1
171
     0
176
     1
290
     0
176
     1
 93
        1
176
     1
 44
0.0
176
     1
173
     0
176
     1
1001
ACAD
1000
AcDbSavedByObjectVersion
1070
     0
  0
VISUALSTYLE
  5
217
102
{ACAD_XDICTIONARY
360
BBD
102
}
102
{ACAD_REACTORS
330
2A
102
}
330
2A
100
AcDbVisualStyle
  2
X-Ray
 70
    25
177
     2
291
     0
 71
     2
176
     1
 72
     2
176
     1
 73
     1
176
     1
 90
        1
176
     1
 40
0.5
176
     1
 41
30.0
176
     1
 63
     7
421
 16777215
176
     1
 74
     1
176
     1
 91
        0
176
     1
 64
     7
176
     1
 65
   257
176
     1
 75
     1
176
     1
175
     1
176
     1
 42
1.0
176
     1
 92
        8
176
     1
 66
     7
176
     1
 43
1.0
176
     1
 76
     1
176
     1
 77
     6
176
     1
 78
     2
176
     1
 67
     7
176
     1
 79
     3
176
     1
170
     0
176
     1
171
     0
176
     1
290
     0
176
     1
 93
       13
176
     1
 44
0.0
176
     1
173
     0
176
     1
1001
ACAD
1000
AcDbSavedByObjectVersion
1070
     0
  0
DICTIONARYVAR
  5
1EE
102
{ACAD_REACTORS
330
1ED
102
}
330
1ED
100
DictionaryVariables
280
     0
  1
1:1
  0
DICTIONARYVAR
  5
27C
102
{ACAD_REACTORS
330
1ED
102
}
330
1ED
100
DictionaryVariables
280
     0
  1
STANDARD
  0
DICTIONARYVAR
  5
27B
102
{ACAD_REACTORS
330
1ED
102
}
330
1ED
100
DictionaryVariables
280
     0
  1
STANDARD
  0
DICTIONARYVAR
  5
27D
102
{ACAD_REACTORS
330
1ED
102
}
330
1ED
100
DictionaryVariables
280
     0
  1
Imperial24
  0
DICTIONARYVAR
  5
27E
102
{ACAD_REACTORS
330
1ED
102
}
330
1ED
100
DictionaryVariables
280
     0
  1
Imperial24
  0
DICTIONARYVAR
  5
927
102
{ACAD_REACTORS
330
1ED
102
}
330
1ED
100
DictionaryVariables
280
     0
  1
RGB:95,95,95
  0
DICTIONARYVAR
  5
27F
102
{ACAD_REACTORS
330
1ED
102
}
330
1ED
100
DictionaryVariables
280
     0
  1
1
  0
DICTIONARYVAR
  5
280
102
{ACAD_REACTORS
330
1ED
102
}
330
1ED
100
DictionaryVariables
280
     0
  1
15
  0
DICTIONARY
  5
B94
102
{ACAD_REACTORS
330
B92
102
}
330
B92
100
AcDbDictionary
281
     1
  0
DICTIONARY
  5
B93
102
{ACAD_REACTORS
330
B92
102
}
330
B92
100
AcDbDictionary
281
     1
  3
2128201832
350
B8D
  3
2128201840
350
B8E
  3
2128201848
350
B8F
  3
2128201856
350
B90
  3
2128201864
350
B91
  0
XRECORD
  5
1EC
102
{ACAD_REACTORS
330
1EB
102
}
330
1EB
100
AcDbXrecord
280
     1
1000
This DWG file was created in ArchiCAD(TM)®
  0
DICTIONARY
  5
278
330
223
100
AcDbDictionary
280
     1
281
     1
  3
ACAD_XREC_ROUNDTRIP
360
BCC
  0
DICTIONARY
  5
BC9
330
21F
100
AcDbDictionary
280
     1
281
     1
  3
ACAD_XREC_ROUNDTRIP
360
BCA
  0
DICTIONARY
  5
276
330
221
100
AcDbDictionary
280
     1
281
     1
  3
ACAD_XREC_ROUNDTRIP
360
BCB
  0
DICTIONARY
  5
B8A
330
21E
100
AcDbDictionary
280
     1
281
     1
  3
ACAD_ROUNDTRIP_2008_TABLESTYLE_CELLSTYLEMAP
360
B8B
  0
DICTIONARY
  5
B9D
330
2F
100
AcDbDictionary
280
     1
281
     1
  3
ACAD_XREC_ROUNDTRIP
360
B9E
  0
DICTIONARY
  5
BA1
330
31
100
AcDbDictionary
280
     1
281
     1
  3
ACAD_XREC_ROUNDTRIP
360
BA2
  0
DICTIONARY
  5
B9F
330
30
100
AcDbDictionary
280
     1
281
     1
  3
ACAD_XREC_ROUNDTRIP
360
BA0
  0
DICTIONARY
  5
BA3
330
32
100
AcDbDictionary
280
     1
281
     1
  3
ACAD_XREC_ROUNDTRIP
360
BA4
  0
DICTIONARY
  5
BAB
330
36
100
AcDbDictionary
280
     1
281
     1
  3
ACAD_XREC_ROUNDTRIP
360
BAC
  0
DICTIONARY
  5
BB3
330
3A
100
AcDbDictionary
280
     1
281
     1
  3
ACAD_XREC_ROUNDTRIP
360
BB4
  0
DICTIONARY
  5
BA7
330
34
100
AcDbDictionary
280
     1
281
     1
  3
ACAD_XREC_ROUNDTRIP
360
BA8
  0
DICTIONARY
  5
BA9
330
35
100
AcDbDictionary
280
     1
281
     1
  3
ACAD_XREC_ROUNDTRIP
360
BAA
  0
DICTIONARY
  5
BC7
330
21C
100
AcDbDictionary
280
     1
281
     1
  3
ACAD_XREC_ROUNDTRIP
360
BC8
  0
DICTIONARY
  5
BB1
330
39
100
AcDbDictionary
280
     1
281
     1
  3
ACAD_XREC_ROUNDTRIP
360
BB2
  0
DICTIONARY
  5
B95
330
2B
100
AcDbDictionary
280
     1
281
     1
  3
ACAD_XREC_ROUNDTRIP
360
B96
  0
DICTIONARY
  5
B97
330
2C
100
AcDbDictionary
280
     1
281
     1
  3
ACAD_XREC_ROUNDTRIP
360
B98
  0
DICTIONARY
  5
B99
330
2D
100
AcDbDictionary
280
     1
281
     1
  3
ACAD_XREC_ROUNDTRIP
360
B9A
  0
DICTIONARY
  5
B9B
330
2E
100
AcDbDictionary
280
     1
281
     1
  3
ACAD_XREC_ROUNDTRIP
360
B9C
  0
DICTIONARY
  5
BB7
330
214
100
AcDbDictionary
280
     1
281
     1
  3
ACAD_XREC_ROUNDTRIP
360
BB8
  0
DICTIONARY
  5
BC3
330
21A
100
AcDbDictionary
280
     1
281
     1
  3
ACAD_XREC_ROUNDTRIP
360
BC4
  0
DICTIONARY
  5
BAF
330
38
100
AcDbDictionary
280
     1
281
     1
  3
ACAD_XREC_ROUNDTRIP
360
BB0
  0
DICTIONARY
  5
BC5
330
21B
100
AcDbDictionary
280
     1
281
     1
  3
ACAD_XREC_ROUNDTRIP
360
BC6
  0
DICTIONARY
  5
BA5
330
33
100
AcDbDictionary
280
     1
281
     1
  3
ACAD_XREC_ROUNDTRIP
360
BA6
  0
DICTIONARY
  5
BC1
330
219
100
AcDbDictionary
280
     1
281
     1
  3
ACAD_XREC_ROUNDTRIP
360
BC2
  0
DICTIONARY
  5
BBF
330
218
100
AcDbDictionary
280
     1
281
     1
  3
ACAD_XREC_ROUNDTRIP
360
BC0
  0
DICTIONARY
  5
BB9
330
215
100
AcDbDictionary
280
     1
281
     1
  3
ACAD_XREC_ROUNDTRIP
360
BBA
  0
DICTIONARY
  5
BBB
330
216
100
AcDbDictionary
280
     1
281
     1
  3
ACAD_XREC_ROUNDTRIP
360
BBC
  0
DICTIONARY
  5
BAD
330
37
100
AcDbDictionary
280
     1
281
     1
  3
ACAD_XREC_ROUNDTRIP
360
BAE
  0
DICTIONARY
  5
BB5
330
213
100
AcDbDictionary
280
     1
281
     1
  3
ACAD_XREC_ROUNDTRIP
360
BB6
  0
DICTIONARY
  5
BBD
330
217
100
AcDbDictionary
280
     1
281
     1
  3
ACAD_XREC_ROUNDTRIP
360
BBE
  0
XRECORD
  5
B8D
102
{ACAD_REACTORS
330
B93
102
}
330
B93
100
AcDbXrecord
280
     1
  1
AcDb_Thumbnail_Schema
102
{ATTRRECORD
341
B8E
  2
AcDbDs::TreatedAsObjectData
280
     1
291
     1
102
ATTRRECORD}
102
{ATTRRECORD
341
B8F
  2
AcDbDs::Legacy
280
     1
291
     1
102
ATTRRECORD}
  2
AcDbDs::ID
280
    10
 91
        8
102
{ATTRRECORD
341
B90
  2
AcDs:Indexable
280
     1
291
     1
102
ATTRRECORD}
102
{ATTRRECORD
341
B91
  2
AcDbDs::HandleAttribute
280
     7
282
     1
102
ATTRRECORD}
  2
Thumbnail_Data
280
    15
 91
        0
  0
XRECORD
  5
B8E
102
{ACAD_REACTORS
330
B93
102
}
330
B93
100
AcDbXrecord
280
     1
  1
AcDbDs::TreatedAsObjectDataSchema
  2
AcDbDs::TreatedAsObjectData
280
     1
 91
        0
  0
XRECORD
  5
B8F
102
{ACAD_REACTORS
330
B93
102
}
330
B93
100
AcDbXrecord
280
     1
  1
AcDbDs::LegacySchema
  2
AcDbDs::Legacy
280
     1
 91
        0
  0
XRECORD
  5
B90
102
{ACAD_REACTORS
330
B93
102
}
330
B93
100
AcDbXrecord
280
     1
  1
AcDbDs::IndexedPropertySchema
  2
AcDs:Indexable
280
     1
 91
        0
  0
XRECORD
  5
B91
102
{ACAD_REACTORS
330
B93
102
}
330
B93
100
AcDbXrecord
280
     1
  1
AcDbDs::HandleAttributeSchema
  2
AcDbDs::HandleAttribute
280
     7
 91
        1
284
     1
  0
XRECORD
  5
BCC
102
{ACAD_REACTORS
330
278
102
}
330
278
100
AcDbXrecord
280
     1
102
DISPLAYNAME
  1
Imperial24
102
FLAGS
 90
        0
  0
XRECORD
  5
BCA
102
{ACAD_REACTORS
330
BC9
102
}
330
BC9
100
AcDbXrecord
280
     1
102
ACAD_ROUNDTRIP_2012_MLEADER_STYLE
298
     1
  0
XRECORD
  5
BCB
102
{ACAD_REACTORS
330
276
102
}
330
276
100
AcDbXrecord
280
     1
102
DISPLAYNAME
  1
Imperial24
102
FLAGS
 90
        0
  0
CELLSTYLEMAP
  5
B8B
102
{ACAD_REACTORS
330
B8A
102
}
330
B8A
100
AcDbCellStyleMap
 90
        3
300
CELLSTYLE
  1
TABLEFORMAT_BEGIN
 90
        5
170
     1
 91
        0
 92
    32768
 62
   257
 93
        1
300
CONTENTFORMAT
  1
CONTENTFORMAT_BEGIN
 90
        0
 91
        0
 92
      512
 93
        0
300

 40
0.0
140
1.0
 94
        5
 62
     0
340
11
144
0.25
309
CONTENTFORMAT_END
171
     0
 94
        0
309
TABLEFORMAT_END
  1
CELLSTYLE_BEGIN
 90
        1
 91
        1
300
_TITLE
309
CELLSTYLE_END
300
CELLSTYLE
  1
TABLEFORMAT_BEGIN
 90
        5
170
     1
 91
        0
 92
        0
 62
   257
 93
        1
300
CONTENTFORMAT
  1
CONTENTFORMAT_BEGIN
 90
        0
 91
        0
 92
      512
 93
        0
300

 40
0.0
140
1.0
 94
        5
 62
     0
340
11
144
0.18
309
CONTENTFORMAT_END
171
     0
 94
        0
309
TABLEFORMAT_END
  1
CELLSTYLE_BEGIN
 90
        2
 91
        1
300
_HEADER
309
CELLSTYLE_END
300
CELLSTYLE
  1
TABLEFORMAT_BEGIN
 90
        5
170
     1
 91
        0
 92
        0
 62
   257
 93
        1
300
CONTENTFORMAT
  1
CONTENTFORMAT_BEGIN
 90
        0
 91
        0
 92
      512
 93
        0
300

 40
0.0
140
1.0
 94
        2
 62
     0
340
11
144
0.18
309
CONTENTFORMAT_END
171
     0
 94
        0
309
TABLEFORMAT_END
  1
CELLSTYLE_BEGIN
 90
        3
 91
        2
300
_DATA
309
CELLSTYLE_END
  0
XRECORD
  5
B9E
102
{ACAD_REACTORS
330
B9D
102
}
330
B9D
100
AcDbXrecord
280
     1
102
RTVSPost2010Prop28
280
     1
102
RTVSPost2010PropOp28
 70
     1
102
RTVSPost2010Prop29
280
     1
102
RTVSPost2010PropOp29
 70
     1
102
RTVSPost2010Prop30
280
     0
102
RTVSPost2010PropOp30
 70
     1
102
RTVSPost2010Prop31
280
     0
102
RTVSPost2010PropOp31
 70
     1
102
RTVSPost2010Prop32
280
     0
102
RTVSPost2010PropOp32
 70
     1
102
RTVSPost2010Prop33
280
     0
102
RTVSPost2010PropOp33
 70
     1
102
RTVSPost2010Prop34
280
     0
102
RTVSPost2010PropOp34
 70
     1
102
RTVSPost2010Prop35
280
     0
102
RTVSPost2010PropOp35
 70
     1
102
RTVSPost2010Prop36
280
     0
102
RTVSPost2010PropOp36
 70
     1
102
RTVSPost2010Prop37
 90
       50
102
RTVSPost2010PropOp37
 70
     1
102
RTVSPost2010Prop38
140
0.0
102
RTVSPost2010PropOp38
 70
     1
102
RTVSPost2010Prop39
140
1.0
102
RTVSPost2010PropOp39
 70
     1
102
RTVSPost2010Prop40
 90
        0
102
RTVSPost2010PropOp40
 70
     1
102
RTVSPost2010Prop41ColorIndex
 90
       18
102
RTVSPost2010Prop41ColorRGB
 90
        0
102
RTVSPost2010PropOp41
 70
     1
102
RTVSPost2010Prop42
 90
       50
102
RTVSPost2010PropOp42
 70
     1
102
RTVSPost2010Prop43
 90
        3
102
RTVSPost2010PropOp43
 70
     1
102
RTVSPost2010Prop44ColorIndex
 90
        5
102
RTVSPost2010Prop44ColorRGB
 90
      255
102
RTVSPost2010PropOp44
 70
     1
102
RTVSPost2010Prop45
280
     0
102
RTVSPost2010PropOp45
 70
     1
102
RTVSPost2010Prop46
 90
       50
102
RTVSPost2010PropOp46
 70
     1
102
RTVSPost2010Prop47
 90
       50
102
RTVSPost2010PropOp47
 70
     1
102
RTVSPost2010Prop48
 90
       50
102
RTVSPost2010PropOp48
 70
     1
102
RTVSPost2010Prop49
280
     0
102
RTVSPost2010PropOp49
 70
     1
102
RTVSPost2010Prop50
 90
       50
102
RTVSPost2010PropOp50
 70
     1
102
RTVSPost2010Prop51ColorIndex
 90
      256
102
RTVSPost2010Prop51ColorRGB
 90
-16777216
102
RTVSPost2010PropOp51
 70
     0
102
RTVSPost2010Prop52
140
1.0
102
RTVSPost2010PropOp52
 70
     0
102
RTVSPost2010Prop53
 90
        2
102
RTVSPost2010PropOp53
 70
     1
102
RTVSPost2010Prop54
  1
strokes_ogs.tif
102
RTVSPost2010PropOp54
 70
     1
102
RTVSPost2010Prop55
280
     0
102
RTVSPost2010PropOp55
 70
     1
102
RTVSPost2010Prop56
140
1.0
102
RTVSPost2010PropOp56
 70
     1
102
RTVSPost2010Prop57
140
1.0
102
RTVSPost2010PropOp57
 70
     1
  0
XRECORD
  5
BA2
102
{ACAD_REACTORS
330
BA1
102
}
330
BA1
100
AcDbXrecord
280
     1
102
RTVSPost2010Prop28
280
     0
102
RTVSPost2010PropOp28
 70
     1
102
RTVSPost2010Prop29
280
     1
102
RTVSPost2010PropOp29
 70
     1
102
RTVSPost2010Prop30
280
     1
102
RTVSPost2010PropOp30
 70
     1
102
RTVSPost2010Prop31
280
     0
102
RTVSPost2010PropOp31
 70
     1
102
RTVSPost2010Prop32
280
     0
102
RTVSPost2010PropOp32
 70
     1
102
RTVSPost2010Prop33
280
     0
102
RTVSPost2010PropOp33
 70
     1
102
RTVSPost2010Prop34
280
     0
102
RTVSPost2010PropOp34
 70
     1
102
RTVSPost2010Prop35
280
     0
102
RTVSPost2010PropOp35
 70
     1
102
RTVSPost2010Prop36
280
     0
102
RTVSPost2010PropOp36
 70
     1
102
RTVSPost2010Prop37
 90
       50
102
RTVSPost2010PropOp37
 70
     1
102
RTVSPost2010Prop38
140
0.0
102
RTVSPost2010PropOp38
 70
     1
102
RTVSPost2010Prop39
140
1.0
102
RTVSPost2010PropOp39
 70
     1
102
RTVSPost2010Prop40
 90
        0
102
RTVSPost2010PropOp40
 70
     1
102
RTVSPost2010Prop41ColorIndex
 90
       18
102
RTVSPost2010Prop41ColorRGB
 90
        0
102
RTVSPost2010PropOp41
 70
     1
102
RTVSPost2010Prop42
 90
       50
102
RTVSPost2010PropOp42
 70
     1
102
RTVSPost2010Prop43
 90
        3
102
RTVSPost2010PropOp43
 70
     1
102
RTVSPost2010Prop44ColorIndex
 90
        5
102
RTVSPost2010Prop44ColorRGB
 90
      255
102
RTVSPost2010PropOp44
 70
     1
102
RTVSPost2010Prop45
280
     0
102
RTVSPost2010PropOp45
 70
     1
102
RTVSPost2010Prop46
 90
       50
102
RTVSPost2010PropOp46
 70
     1
102
RTVSPost2010Prop47
 90
       50
102
RTVSPost2010PropOp47
 70
     1
102
RTVSPost2010Prop48
 90
       50
102
RTVSPost2010PropOp48
 70
     1
102
RTVSPost2010Prop49
280
     0
102
RTVSPost2010PropOp49
 70
     1
102
RTVSPost2010Prop50
 90
       50
102
RTVSPost2010PropOp50
 70
     1
102
RTVSPost2010Prop51ColorIndex
 90
      256
102
RTVSPost2010Prop51ColorRGB
 90
-16777216
102
RTVSPost2010PropOp51
 70
     0
102
RTVSPost2010Prop52
140
1.0
102
RTVSPost2010PropOp52
 70
     0
102
RTVSPost2010Prop53
 90
        2
102
RTVSPost2010PropOp53
 70
     1
102
RTVSPost2010Prop54
  1
strokes_ogs.tif
102
RTVSPost2010PropOp54
 70
     1
102
RTVSPost2010Prop55
280
     0
102
RTVSPost2010PropOp55
 70
     1
102
RTVSPost2010Prop56
140
1.0
102
RTVSPost2010PropOp56
 70
     1
102
RTVSPost2010Prop57
140
1.0
102
RTVSPost2010PropOp57
 70
     1
  0
XRECORD
  5
BA0
102
{ACAD_REACTORS
330
B9F
102
}
330
B9F
100
AcDbXrecord
280
     1
102
RTVSPost2010Prop28
280
     0
102
RTVSPost2010PropOp28
 70
     1
102
RTVSPost2010Prop29
280
     1
102
RTVSPost2010PropOp29
 70
     1
102
RTVSPost2010Prop30
280
     1
102
RTVSPost2010PropOp30
 70
     1
102
RTVSPost2010Prop31
280
     0
102
RTVSPost2010PropOp31
 70
     1
102
RTVSPost2010Prop32
280
     0
102
RTVSPost2010PropOp32
 70
     1
102
RTVSPost2010Prop33
280
     0
102
RTVSPost2010PropOp33
 70
     1
102
RTVSPost2010Prop34
280
     0
102
RTVSPost2010PropOp34
 70
     1
102
RTVSPost2010Prop35
280
     0
102
RTVSPost2010PropOp35
 70
     1
102
RTVSPost2010Prop36
280
     0
102
RTVSPost2010PropOp36
 70
     1
102
RTVSPost2010Prop37
 90
       50
102
RTVSPost2010PropOp37
 70
     1
102
RTVSPost2010Prop38
140
0.0
102
RTVSPost2010PropOp38
 70
     1
102
RTVSPost2010Prop39
140
1.0
102
RTVSPost2010PropOp39
 70
     1
102
RTVSPost2010Prop40
 90
        0
102
RTVSPost2010PropOp40
 70
     1
102
RTVSPost2010Prop41ColorIndex
 90
       18
102
RTVSPost2010Prop41ColorRGB
 90
        0
102
RTVSPost2010PropOp41
 70
     1
102
RTVSPost2010Prop42
 90
       50
102
RTVSPost2010PropOp42
 70
     1
102
RTVSPost2010Prop43
 90
        3
102
RTVSPost2010PropOp43
 70
     1
102
RTVSPost2010Prop44ColorIndex
 90
        5
102
RTVSPost2010Prop44ColorRGB
 90
      255
102
RTVSPost2010PropOp44
 70
     1
102
RTVSPost2010Prop45
280
     0
102
RTVSPost2010PropOp45
 70
     1
102
RTVSPost2010Prop46
 90
       50
102
RTVSPost2010PropOp46
 70
     1
102
RTVSPost2010Prop47
 90
       50
102
RTVSPost2010PropOp47
 70
     1
102
RTVSPost2010Prop48
 90
       50
102
RTVSPost2010PropOp48
 70
     1
102
RTVSPost2010Prop49
280
     0
102
RTVSPost2010PropOp49
 70
     1
102
RTVSPost2010Prop50
 90
       50
102
RTVSPost2010PropOp50
 70
     1
102
RTVSPost2010Prop51ColorIndex
 90
      256
102
RTVSPost2010Prop51ColorRGB
 90
-16777216
102
RTVSPost2010PropOp51
 70
     0
102
RTVSPost2010Prop52
140
1.0
102
RTVSPost2010PropOp52
 70
     0
102
RTVSPost2010Prop53
 90
        2
102
RTVSPost2010PropOp53
 70
     1
102
RTVSPost2010Prop54
  1
strokes_ogs.tif
102
RTVSPost2010PropOp54
 70
     1
102
RTVSPost2010Prop55
280
     0
102
RTVSPost2010PropOp55
 70
     1
102
RTVSPost2010Prop56
140
1.0
102
RTVSPost2010PropOp56
 70
     1
102
RTVSPost2010Prop57
140
1.0
102
RTVSPost2010PropOp57
 70
     1
  0
XRECORD
  5
BA4
102
{ACAD_REACTORS
330
BA3
102
}
330
BA3
100
AcDbXrecord
280
     1
102
RTVSPost2010Prop28
280
     0
102
RTVSPost2010PropOp28
 70
     1
102
RTVSPost2010Prop29
280
     1
102
RTVSPost2010PropOp29
 70
     1
102
RTVSPost2010Prop30
280
     1
102
RTVSPost2010PropOp30
 70
     1
102
RTVSPost2010Prop31
280
     0
102
RTVSPost2010PropOp31
 70
     1
102
RTVSPost2010Prop32
280
     0
102
RTVSPost2010PropOp32
 70
     1
102
RTVSPost2010Prop33
280
     0
102
RTVSPost2010PropOp33
 70
     1
102
RTVSPost2010Prop34
280
     0
102
RTVSPost2010PropOp34
 70
     1
102
RTVSPost2010Prop35
280
     0
102
RTVSPost2010PropOp35
 70
     1
102
RTVSPost2010Prop36
280
     0
102
RTVSPost2010PropOp36
 70
     1
102
RTVSPost2010Prop37
 90
       50
102
RTVSPost2010PropOp37
 70
     1
102
RTVSPost2010Prop38
140
0.0
102
RTVSPost2010PropOp38
 70
     1
102
RTVSPost2010Prop39
140
1.0
102
RTVSPost2010PropOp39
 70
     1
102
RTVSPost2010Prop40
 90
        0
102
RTVSPost2010PropOp40
 70
     1
102
RTVSPost2010Prop41ColorIndex
 90
       18
102
RTVSPost2010Prop41ColorRGB
 90
        0
102
RTVSPost2010PropOp41
 70
     1
102
RTVSPost2010Prop42
 90
       50
102
RTVSPost2010PropOp42
 70
     1
102
RTVSPost2010Prop43
 90
        3
102
RTVSPost2010PropOp43
 70
     1
102
RTVSPost2010Prop44ColorIndex
 90
        5
102
RTVSPost2010Prop44ColorRGB
 90
      255
102
RTVSPost2010PropOp44
 70
     1
102
RTVSPost2010Prop45
280
     0
102
RTVSPost2010PropOp45
 70
     1
102
RTVSPost2010Prop46
 90
       50
102
RTVSPost2010PropOp46
 70
     1
102
RTVSPost2010Prop47
 90
       50
102
RTVSPost2010PropOp47
 70
     1
102
RTVSPost2010Prop48
 90
       50
102
RTVSPost2010PropOp48
 70
     1
102
RTVSPost2010Prop49
280
     0
102
RTVSPost2010PropOp49
 70
     1
102
RTVSPost2010Prop50
 90
       50
102
RTVSPost2010PropOp50
 70
     1
102
RTVSPost2010Prop51ColorIndex
 90
      256
102
RTVSPost2010Prop51ColorRGB
 90
-16777216
102
RTVSPost2010PropOp51
 70
     0
102
RTVSPost2010Prop52
140
1.0
102
RTVSPost2010PropOp52
 70
     0
102
RTVSPost2010Prop53
 90
        2
102
RTVSPost2010PropOp53
 70
     1
102
RTVSPost2010Prop54
  1
strokes_ogs.tif
102
RTVSPost2010PropOp54
 70
     1
102
RTVSPost2010Prop55
280
     0
102
RTVSPost2010PropOp55
 70
     1
102
RTVSPost2010Prop56
140
1.0
102
RTVSPost2010PropOp56
 70
     1
102
RTVSPost2010Prop57
140
1.0
102
RTVSPost2010PropOp57
 70
     1
  0
XRECORD
  5
BAC
102
{ACAD_REACTORS
330
BAB
102
}
330
BAB
100
AcDbXrecord
280
     1
102
RTVSPost2010Prop28
280
     0
102
RTVSPost2010PropOp28
 70
     1
102
RTVSPost2010Prop29
280
     1
102
RTVSPost2010PropOp29
 70
     1
102
RTVSPost2010Prop30
280
     1
102
RTVSPost2010PropOp30
 70
     1
102
RTVSPost2010Prop31
280
     0
102
RTVSPost2010PropOp31
 70
     1
102
RTVSPost2010Prop32
280
     0
102
RTVSPost2010PropOp32
 70
     1
102
RTVSPost2010Prop33
280
     0
102
RTVSPost2010PropOp33
 70
     1
102
RTVSPost2010Prop34
280
     0
102
RTVSPost2010PropOp34
 70
     1
102
RTVSPost2010Prop35
280
     0
102
RTVSPost2010PropOp35
 70
     1
102
RTVSPost2010Prop36
280
     0
102
RTVSPost2010PropOp36
 70
     1
102
RTVSPost2010Prop37
 90
       50
102
RTVSPost2010PropOp37
 70
     1
102
RTVSPost2010Prop38
140
0.0
102
RTVSPost2010PropOp38
 70
     1
102
RTVSPost2010Prop39
140
1.0
102
RTVSPost2010PropOp39
 70
     1
102
RTVSPost2010Prop40
 90
        0
102
RTVSPost2010PropOp40
 70
     1
102
RTVSPost2010Prop41ColorIndex
 90
       18
102
RTVSPost2010Prop41ColorRGB
 90
        0
102
RTVSPost2010PropOp41
 70
     1
102
RTVSPost2010Prop42
 90
       50
102
RTVSPost2010PropOp42
 70
     1
102
RTVSPost2010Prop43
 90
        3
102
RTVSPost2010PropOp43
 70
     1
102
RTVSPost2010Prop44ColorIndex
 90
        5
102
RTVSPost2010Prop44ColorRGB
 90
      255
102
RTVSPost2010PropOp44
 70
     1
102
RTVSPost2010Prop45
280
     0
102
RTVSPost2010PropOp45
 70
     1
102
RTVSPost2010Prop46
 90
       50
102
RTVSPost2010PropOp46
 70
     1
102
RTVSPost2010Prop47
 90
       50
102
RTVSPost2010PropOp47
 70
     1
102
RTVSPost2010Prop48
 90
       50
102
RTVSPost2010PropOp48
 70
     1
102
RTVSPost2010Prop49
280
     0
102
RTVSPost2010PropOp49
 70
     1
102
RTVSPost2010Prop50
 90
       50
102
RTVSPost2010PropOp50
 70
     1
102
RTVSPost2010Prop51ColorIndex
 90
      256
102
RTVSPost2010Prop51ColorRGB
 90
-16777216
102
RTVSPost2010PropOp51
 70
     0
102
RTVSPost2010Prop52
140
1.0
102
RTVSPost2010PropOp52
 70
     0
102
RTVSPost2010Prop53
 90
        2
102
RTVSPost2010PropOp53
 70
     1
102
RTVSPost2010Prop54
  1
strokes_ogs.tif
102
RTVSPost2010PropOp54
 70
     1
102
RTVSPost2010Prop55
280
     0
102
RTVSPost2010PropOp55
 70
     1
102
RTVSPost2010Prop56
140
1.0
102
RTVSPost2010PropOp56
 70
     1
102
RTVSPost2010Prop57
140
1.0
102
RTVSPost2010PropOp57
 70
     1
  0
XRECORD
  5
BB4
102
{ACAD_REACTORS
330
BB3
102
}
330
BB3
100
AcDbXrecord
280
     1
102
RTVSPost2010Prop28
280
     0
102
RTVSPost2010PropOp28
 70
     1
102
RTVSPost2010Prop29
280
     1
102
RTVSPost2010PropOp29
 70
     1
102
RTVSPost2010Prop30
280
     1
102
RTVSPost2010PropOp30
 70
     1
102
RTVSPost2010Prop31
280
     0
102
RTVSPost2010PropOp31
 70
     1
102
RTVSPost2010Prop32
280
     0
102
RTVSPost2010PropOp32
 70
     1
102
RTVSPost2010Prop33
280
     0
102
RTVSPost2010PropOp33
 70
     1
102
RTVSPost2010Prop34
280
     0
102
RTVSPost2010PropOp34
 70
     1
102
RTVSPost2010Prop35
280
     0
102
RTVSPost2010PropOp35
 70
     1
102
RTVSPost2010Prop36
280
     0
102
RTVSPost2010PropOp36
 70
     1
102
RTVSPost2010Prop37
 90
       50
102
RTVSPost2010PropOp37
 70
     1
102
RTVSPost2010Prop38
140
0.0
102
RTVSPost2010PropOp38
 70
     1
102
RTVSPost2010Prop39
140
1.0
102
RTVSPost2010PropOp39
 70
     1
102
RTVSPost2010Prop40
 90
        0
102
RTVSPost2010PropOp40
 70
     1
102
RTVSPost2010Prop41ColorIndex
 90
       18
102
RTVSPost2010Prop41ColorRGB
 90
        0
102
RTVSPost2010PropOp41
 70
     1
102
RTVSPost2010Prop42
 90
       50
102
RTVSPost2010PropOp42
 70
     1
102
RTVSPost2010Prop43
 90
        3
102
RTVSPost2010PropOp43
 70
     1
102
RTVSPost2010Prop44ColorIndex
 90
        5
102
RTVSPost2010Prop44ColorRGB
 90
      255
102
RTVSPost2010PropOp44
 70
     1
102
RTVSPost2010Prop45
280
     0
102
RTVSPost2010PropOp45
 70
     1
102
RTVSPost2010Prop46
 90
       50
102
RTVSPost2010PropOp46
 70
     1
102
RTVSPost2010Prop47
 90
       50
102
RTVSPost2010PropOp47
 70
     1
102
RTVSPost2010Prop48
 90
       50
102
RTVSPost2010PropOp48
 70
     1
102
RTVSPost2010Prop49
280
     0
102
RTVSPost2010PropOp49
 70
     1
102
RTVSPost2010Prop50
 90
       50
102
RTVSPost2010PropOp50
 70
     1
102
RTVSPost2010Prop51ColorIndex
 90
      256
102
RTVSPost2010Prop51ColorRGB
 90
-16777216
102
RTVSPost2010PropOp51
 70
     0
102
RTVSPost2010Prop52
140
1.0
102
RTVSPost2010PropOp52
 70
     0
102
RTVSPost2010Prop53
 90
        2
102
RTVSPost2010PropOp53
 70
     1
102
RTVSPost2010Prop54
  1
strokes_ogs.tif
102
RTVSPost2010PropOp54
 70
     1
102
RTVSPost2010Prop55
280
     0
102
RTVSPost2010PropOp55
 70
     1
102
RTVSPost2010Prop56
140
1.0
102
RTVSPost2010PropOp56
 70
     1
102
RTVSPost2010Prop57
140
1.0
102
RTVSPost2010PropOp57
 70
     1
  0
XRECORD
  5
BA8
102
{ACAD_REACTORS
330
BA7
102
}
330
BA7
100
AcDbXrecord
280
     1
102
RTVSPost2010Prop28
280
     0
102
RTVSPost2010PropOp28
 70
     1
102
RTVSPost2010Prop29
280
     1
102
RTVSPost2010PropOp29
 70
     1
102
RTVSPost2010Prop30
280
     1
102
RTVSPost2010PropOp30
 70
     1
102
RTVSPost2010Prop31
280
     0
102
RTVSPost2010PropOp31
 70
     1
102
RTVSPost2010Prop32
280
     0
102
RTVSPost2010PropOp32
 70
     1
102
RTVSPost2010Prop33
280
     0
102
RTVSPost2010PropOp33
 70
     1
102
RTVSPost2010Prop34
280
     0
102
RTVSPost2010PropOp34
 70
     1
102
RTVSPost2010Prop35
280
     0
102
RTVSPost2010PropOp35
 70
     1
102
RTVSPost2010Prop36
280
     0
102
RTVSPost2010PropOp36
 70
     1
102
RTVSPost2010Prop37
 90
       50
102
RTVSPost2010PropOp37
 70
     1
102
RTVSPost2010Prop38
140
0.0
102
RTVSPost2010PropOp38
 70
     1
102
RTVSPost2010Prop39
140
1.0
102
RTVSPost2010PropOp39
 70
     1
102
RTVSPost2010Prop40
 90
        0
102
RTVSPost2010PropOp40
 70
     1
102
RTVSPost2010Prop41ColorIndex
 90
       18
102
RTVSPost2010Prop41ColorRGB
 90
        0
102
RTVSPost2010PropOp41
 70
     1
102
RTVSPost2010Prop42
 90
       50
102
RTVSPost2010PropOp42
 70
     1
102
RTVSPost2010Prop43
 90
        3
102
RTVSPost2010PropOp43
 70
     1
102
RTVSPost2010Prop44ColorIndex
 90
        5
102
RTVSPost2010Prop44ColorRGB
 90
      255
102
RTVSPost2010PropOp44
 70
     1
102
RTVSPost2010Prop45
280
     0
102
RTVSPost2010PropOp45
 70
     1
102
RTVSPost2010Prop46
 90
       50
102
RTVSPost2010PropOp46
 70
     1
102
RTVSPost2010Prop47
 90
       50
102
RTVSPost2010PropOp47
 70
     1
102
RTVSPost2010Prop48
 90
       50
102
RTVSPost2010PropOp48
 70
     1
102
RTVSPost2010Prop49
280
     0
102
RTVSPost2010PropOp49
 70
     1
102
RTVSPost2010Prop50
 90
       50
102
RTVSPost2010PropOp50
 70
     1
102
RTVSPost2010Prop51ColorIndex
 90
      256
102
RTVSPost2010Prop51ColorRGB
 90
-16777216
102
RTVSPost2010PropOp51
 70
     0
102
RTVSPost2010Prop52
140
1.0
102
RTVSPost2010PropOp52
 70
     0
102
RTVSPost2010Prop53
 90
        2
102
RTVSPost2010PropOp53
 70
     1
102
RTVSPost2010Prop54
  1
strokes_ogs.tif
102
RTVSPost2010PropOp54
 70
     1
102
RTVSPost2010Prop55
280
     0
102
RTVSPost2010PropOp55
 70
     1
102
RTVSPost2010Prop56
140
1.0
102
RTVSPost2010PropOp56
 70
     1
102
RTVSPost2010Prop57
140
1.0
102
RTVSPost2010PropOp57
 70
     1
  0
XRECORD
  5
BAA
102
{ACAD_REACTORS
330
BA9
102
}
330
BA9
100
AcDbXrecord
280
     1
102
RTVSPost2010Prop28
280
     0
102
RTVSPost2010PropOp28
 70
     1
102
RTVSPost2010Prop29
280
     1
102
RTVSPost2010PropOp29
 70
     1
102
RTVSPost2010Prop30
280
     1
102
RTVSPost2010PropOp30
 70
     1
102
RTVSPost2010Prop31
280
     0
102
RTVSPost2010PropOp31
 70
     1
102
RTVSPost2010Prop32
280
     0
102
RTVSPost2010PropOp32
 70
     1
102
RTVSPost2010Prop33
280
     0
102
RTVSPost2010PropOp33
 70
     1
102
RTVSPost2010Prop34
280
     0
102
RTVSPost2010PropOp34
 70
     1
102
RTVSPost2010Prop35
280
     0
102
RTVSPost2010PropOp35
 70
     1
102
RTVSPost2010Prop36
280
     0
102
RTVSPost2010PropOp36
 70
     1
102
RTVSPost2010Prop37
 90
       50
102
RTVSPost2010PropOp37
 70
     1
102
RTVSPost2010Prop38
140
0.0
102
RTVSPost2010PropOp38
 70
     1
102
RTVSPost2010Prop39
140
1.0
102
RTVSPost2010PropOp39
 70
     1
102
RTVSPost2010Prop40
 90
        0
102
RTVSPost2010PropOp40
 70
     1
102
RTVSPost2010Prop41ColorIndex
 90
       18
102
RTVSPost2010Prop41ColorRGB
 90
        0
102
RTVSPost2010PropOp41
 70
     1
102
RTVSPost2010Prop42
 90
       50
102
RTVSPost2010PropOp42
 70
     1
102
RTVSPost2010Prop43
 90
        3
102
RTVSPost2010PropOp43
 70
     1
102
RTVSPost2010Prop44ColorIndex
 90
        5
102
RTVSPost2010Prop44ColorRGB
 90
      255
102
RTVSPost2010PropOp44
 70
     1
102
RTVSPost2010Prop45
280
     0
102
RTVSPost2010PropOp45
 70
     1
102
RTVSPost2010Prop46
 90
       50
102
RTVSPost2010PropOp46
 70
     1
102
RTVSPost2010Prop47
 90
       50
102
RTVSPost2010PropOp47
 70
     1
102
RTVSPost2010Prop48
 90
       50
102
RTVSPost2010PropOp48
 70
     1
102
RTVSPost2010Prop49
280
     0
102
RTVSPost2010PropOp49
 70
     1
102
RTVSPost2010Prop50
 90
       50
102
RTVSPost2010PropOp50
 70
     1
102
RTVSPost2010Prop51ColorIndex
 90
      256
102
RTVSPost2010Prop51ColorRGB
 90
-16777216
102
RTVSPost2010PropOp51
 70
     0
102
RTVSPost2010Prop52
140
1.0
102
RTVSPost2010PropOp52
 70
     0
102
RTVSPost2010Prop53
 90
        2
102
RTVSPost2010PropOp53
 70
     1
102
RTVSPost2010Prop54
  1
strokes_ogs.tif
102
RTVSPost2010PropOp54
 70
     1
102
RTVSPost2010Prop55
280
     0
102
RTVSPost2010PropOp55
 70
     1
102
RTVSPost2010Prop56
140
1.0
102
RTVSPost2010PropOp56
 70
     1
102
RTVSPost2010Prop57
140
1.0
102
RTVSPost2010PropOp57
 70
     1
  0
XRECORD
  5
BC8
102
{ACAD_REACTORS
330
BC7
102
}
330
BC7
100
AcDbXrecord
280
     1
102
RTVSPost2010Prop28
280
     0
102
RTVSPost2010PropOp28
 70
     0
102
RTVSPost2010Prop29
280
     1
102
RTVSPost2010PropOp29
 70
     0
102
RTVSPost2010Prop30
280
     1
102
RTVSPost2010PropOp30
 70
     0
102
RTVSPost2010Prop31
280
     0
102
RTVSPost2010PropOp31
 70
     0
102
RTVSPost2010Prop32
280
     0
102
RTVSPost2010PropOp32
 70
     0
102
RTVSPost2010Prop33
280
     0
102
RTVSPost2010PropOp33
 70
     0
102
RTVSPost2010Prop34
280
     0
102
RTVSPost2010PropOp34
 70
     0
102
RTVSPost2010Prop35
280
     0
102
RTVSPost2010PropOp35
 70
     0
102
RTVSPost2010Prop36
280
     0
102
RTVSPost2010PropOp36
 70
     0
102
RTVSPost2010Prop37
 90
       50
102
RTVSPost2010PropOp37
 70
     0
102
RTVSPost2010Prop38
140
0.0
102
RTVSPost2010PropOp38
 70
     0
102
RTVSPost2010Prop39
140
1.0
102
RTVSPost2010PropOp39
 70
     0
102
RTVSPost2010Prop40
 90
        0
102
RTVSPost2010PropOp40
 70
     0
102
RTVSPost2010Prop41ColorIndex
 90
       18
102
RTVSPost2010Prop41ColorRGB
 90
        0
102
RTVSPost2010PropOp41
 70
     0
102
RTVSPost2010Prop42
 90
       50
102
RTVSPost2010PropOp42
 70
     0
102
RTVSPost2010Prop43
 90
        3
102
RTVSPost2010PropOp43
 70
     0
102
RTVSPost2010Prop44ColorIndex
 90
        5
102
RTVSPost2010Prop44ColorRGB
 90
      255
102
RTVSPost2010PropOp44
 70
     0
102
RTVSPost2010Prop45
280
     0
102
RTVSPost2010PropOp45
 70
     0
102
RTVSPost2010Prop46
 90
       50
102
RTVSPost2010PropOp46
 70
     0
102
RTVSPost2010Prop47
 90
       50
102
RTVSPost2010PropOp47
 70
     0
102
RTVSPost2010Prop48
 90
       50
102
RTVSPost2010PropOp48
 70
     0
102
RTVSPost2010Prop49
280
     0
102
RTVSPost2010PropOp49
 70
     0
102
RTVSPost2010Prop50
 90
       50
102
RTVSPost2010PropOp50
 70
     0
102
RTVSPost2010Prop51ColorIndex
 90
      256
102
RTVSPost2010Prop51ColorRGB
 90
-16777216
102
RTVSPost2010PropOp51
 70
     0
102
RTVSPost2010Prop52
140
1.0
102
RTVSPost2010PropOp52
 70
     0
102
RTVSPost2010Prop53
 90
        2
102
RTVSPost2010PropOp53
 70
     0
102
RTVSPost2010Prop54
  1
strokes_ogs.tif
102
RTVSPost2010PropOp54
 70
     0
102
RTVSPost2010Prop55
280
     0
102
RTVSPost2010PropOp55
 70
     0
102
RTVSPost2010Prop56
140
1.0
102
RTVSPost2010PropOp56
 70
     0
102
RTVSPost2010Prop57
140
1.0
102
RTVSPost2010PropOp57
 70
     0
  0
XRECORD
  5
BB2
102
{ACAD_REACTORS
330
BB1
102
}
330
BB1
100
AcDbXrecord
280
     1
102
RTVSPost2010Prop28
280
     0
102
RTVSPost2010PropOp28
 70
     1
102
RTVSPost2010Prop29
280
     1
102
RTVSPost2010PropOp29
 70
     1
102
RTVSPost2010Prop30
280
     1
102
RTVSPost2010PropOp30
 70
     1
102
RTVSPost2010Prop31
280
     0
102
RTVSPost2010PropOp31
 70
     1
102
RTVSPost2010Prop32
280
     0
102
RTVSPost2010PropOp32
 70
     1
102
RTVSPost2010Prop33
280
     0
102
RTVSPost2010PropOp33
 70
     1
102
RTVSPost2010Prop34
280
     0
102
RTVSPost2010PropOp34
 70
     1
102
RTVSPost2010Prop35
280
     0
102
RTVSPost2010PropOp35
 70
     1
102
RTVSPost2010Prop36
280
     0
102
RTVSPost2010PropOp36
 70
     1
102
RTVSPost2010Prop37
 90
       50
102
RTVSPost2010PropOp37
 70
     1
102
RTVSPost2010Prop38
140
0.0
102
RTVSPost2010PropOp38
 70
     1
102
RTVSPost2010Prop39
140
1.0
102
RTVSPost2010PropOp39
 70
     1
102
RTVSPost2010Prop40
 90
        0
102
RTVSPost2010PropOp40
 70
     1
102
RTVSPost2010Prop41ColorIndex
 90
       18
102
RTVSPost2010Prop41ColorRGB
 90
        0
102
RTVSPost2010PropOp41
 70
     1
102
RTVSPost2010Prop42
 90
       50
102
RTVSPost2010PropOp42
 70
     1
102
RTVSPost2010Prop43
 90
        3
102
RTVSPost2010PropOp43
 70
     1
102
RTVSPost2010Prop44ColorIndex
 90
        5
102
RTVSPost2010Prop44ColorRGB
 90
      255
102
RTVSPost2010PropOp44
 70
     1
102
RTVSPost2010Prop45
280
     0
102
RTVSPost2010PropOp45
 70
     1
102
RTVSPost2010Prop46
 90
       50
102
RTVSPost2010PropOp46
 70
     1
102
RTVSPost2010Prop47
 90
       50
102
RTVSPost2010PropOp47
 70
     1
102
RTVSPost2010Prop48
 90
       50
102
RTVSPost2010PropOp48
 70
     1
102
RTVSPost2010Prop49
280
     0
102
RTVSPost2010PropOp49
 70
     1
102
RTVSPost2010Prop50
 90
       50
102
RTVSPost2010PropOp50
 70
     1
102
RTVSPost2010Prop51ColorIndex
 90
      256
102
RTVSPost2010Prop51ColorRGB
 90
-16777216
102
RTVSPost2010PropOp51
 70
     0
102
RTVSPost2010Prop52
140
1.0
102
RTVSPost2010PropOp52
 70
     0
102
RTVSPost2010Prop53
 90
        2
102
RTVSPost2010PropOp53
 70
     1
102
RTVSPost2010Prop54
  1
strokes_ogs.tif
102
RTVSPost2010PropOp54
 70
     1
102
RTVSPost2010Prop55
280
     0
102
RTVSPost2010PropOp55
 70
     1
102
RTVSPost2010Prop56
140
1.0
102
RTVSPost2010PropOp56
 70
     1
102
RTVSPost2010Prop57
140
1.0
102
RTVSPost2010PropOp57
 70
     1
  0
XRECORD
  5
B96
102
{ACAD_REACTORS
330
B95
102
}
330
B95
100
AcDbXrecord
280
     1
102
RTVSPost2010Prop28
280
     0
102
RTVSPost2010PropOp28
 70
     1
102
RTVSPost2010Prop29
280
     1
102
RTVSPost2010PropOp29
 70
     1
102
RTVSPost2010Prop30
280
     1
102
RTVSPost2010PropOp30
 70
     1
102
RTVSPost2010Prop31
280
     0
102
RTVSPost2010PropOp31
 70
     1
102
RTVSPost2010Prop32
280
     0
102
RTVSPost2010PropOp32
 70
     1
102
RTVSPost2010Prop33
280
     0
102
RTVSPost2010PropOp33
 70
     1
102
RTVSPost2010Prop34
280
     0
102
RTVSPost2010PropOp34
 70
     1
102
RTVSPost2010Prop35
280
     0
102
RTVSPost2010PropOp35
 70
     1
102
RTVSPost2010Prop36
280
     0
102
RTVSPost2010PropOp36
 70
     1
102
RTVSPost2010Prop37
 90
       50
102
RTVSPost2010PropOp37
 70
     1
102
RTVSPost2010Prop38
140
0.0
102
RTVSPost2010PropOp38
 70
     1
102
RTVSPost2010Prop39
140
1.0
102
RTVSPost2010PropOp39
 70
     1
102
RTVSPost2010Prop40
 90
        0
102
RTVSPost2010PropOp40
 70
     1
102
RTVSPost2010Prop41ColorIndex
 90
       18
102
RTVSPost2010Prop41ColorRGB
 90
        0
102
RTVSPost2010PropOp41
 70
     1
102
RTVSPost2010Prop42
 90
       50
102
RTVSPost2010PropOp42
 70
     1
102
RTVSPost2010Prop43
 90
        3
102
RTVSPost2010PropOp43
 70
     1
102
RTVSPost2010Prop44ColorIndex
 90
        5
102
RTVSPost2010Prop44ColorRGB
 90
      255
102
RTVSPost2010PropOp44
 70
     1
102
RTVSPost2010Prop45
280
     0
102
RTVSPost2010PropOp45
 70
     1
102
RTVSPost2010Prop46
 90
       50
102
RTVSPost2010PropOp46
 70
     1
102
RTVSPost2010Prop47
 90
       50
102
RTVSPost2010PropOp47
 70
     1
102
RTVSPost2010Prop48
 90
       50
102
RTVSPost2010PropOp48
 70
     1
102
RTVSPost2010Prop49
280
     0
102
RTVSPost2010PropOp49
 70
     1
102
RTVSPost2010Prop50
 90
       50
102
RTVSPost2010PropOp50
 70
     1
102
RTVSPost2010Prop51ColorIndex
 90
      256
102
RTVSPost2010Prop51ColorRGB
 90
-16777216
102
RTVSPost2010PropOp51
 70
     0
102
RTVSPost2010Prop52
140
1.0
102
RTVSPost2010PropOp52
 70
     0
102
RTVSPost2010Prop53
 90
        2
102
RTVSPost2010PropOp53
 70
     1
102
RTVSPost2010Prop54
  1
strokes_ogs.tif
102
RTVSPost2010PropOp54
 70
     1
102
RTVSPost2010Prop55
280
     0
102
RTVSPost2010PropOp55
 70
     1
102
RTVSPost2010Prop56
140
1.0
102
RTVSPost2010PropOp56
 70
     1
102
RTVSPost2010Prop57
140
1.0
102
RTVSPost2010PropOp57
 70
     1
  0
XRECORD
  5
B98
102
{ACAD_REACTORS
330
B97
102
}
330
B97
100
AcDbXrecord
280
     1
102
RTVSPost2010Prop28
280
     0
102
RTVSPost2010PropOp28
 70
     1
102
RTVSPost2010Prop29
280
     1
102
RTVSPost2010PropOp29
 70
     1
102
RTVSPost2010Prop30
280
     1
102
RTVSPost2010PropOp30
 70
     1
102
RTVSPost2010Prop31
280
     0
102
RTVSPost2010PropOp31
 70
     1
102
RTVSPost2010Prop32
280
     0
102
RTVSPost2010PropOp32
 70
     1
102
RTVSPost2010Prop33
280
     0
102
RTVSPost2010PropOp33
 70
     1
102
RTVSPost2010Prop34
280
     0
102
RTVSPost2010PropOp34
 70
     1
102
RTVSPost2010Prop35
280
     0
102
RTVSPost2010PropOp35
 70
     1
102
RTVSPost2010Prop36
280
     0
102
RTVSPost2010PropOp36
 70
     1
102
RTVSPost2010Prop37
 90
       50
102
RTVSPost2010PropOp37
 70
     1
102
RTVSPost2010Prop38
140
0.0
102
RTVSPost2010PropOp38
 70
     1
102
RTVSPost2010Prop39
140
1.0
102
RTVSPost2010PropOp39
 70
     1
102
RTVSPost2010Prop40
 90
        0
102
RTVSPost2010PropOp40
 70
     1
102
RTVSPost2010Prop41ColorIndex
 90
       18
102
RTVSPost2010Prop41ColorRGB
 90
        0
102
RTVSPost2010PropOp41
 70
     1
102
RTVSPost2010Prop42
 90
       50
102
RTVSPost2010PropOp42
 70
     1
102
RTVSPost2010Prop43
 90
        3
102
RTVSPost2010PropOp43
 70
     1
102
RTVSPost2010Prop44ColorIndex
 90
        5
102
RTVSPost2010Prop44ColorRGB
 90
      255
102
RTVSPost2010PropOp44
 70
     1
102
RTVSPost2010Prop45
280
     0
102
RTVSPost2010PropOp45
 70
     1
102
RTVSPost2010Prop46
 90
       50
102
RTVSPost2010PropOp46
 70
     1
102
RTVSPost2010Prop47
 90
       50
102
RTVSPost2010PropOp47
 70
     1
102
RTVSPost2010Prop48
 90
       50
102
RTVSPost2010PropOp48
 70
     1
102
RTVSPost2010Prop49
280
     0
102
RTVSPost2010PropOp49
 70
     1
102
RTVSPost2010Prop50
 90
       50
102
RTVSPost2010PropOp50
 70
     1
102
RTVSPost2010Prop51ColorIndex
 90
      256
102
RTVSPost2010Prop51ColorRGB
 90
-16777216
102
RTVSPost2010PropOp51
 70
     0
102
RTVSPost2010Prop52
140
1.0
102
RTVSPost2010PropOp52
 70
     0
102
RTVSPost2010Prop53
 90
        2
102
RTVSPost2010PropOp53
 70
     1
102
RTVSPost2010Prop54
  1
strokes_ogs.tif
102
RTVSPost2010PropOp54
 70
     1
102
RTVSPost2010Prop55
280
     0
102
RTVSPost2010PropOp55
 70
     1
102
RTVSPost2010Prop56
140
1.0
102
RTVSPost2010PropOp56
 70
     1
102
RTVSPost2010Prop57
140
1.0
102
RTVSPost2010PropOp57
 70
     1
  0
XRECORD
  5
B9A
102
{ACAD_REACTORS
330
B99
102
}
330
B99
100
AcDbXrecord
280
     1
102
RTVSPost2010Prop28
280
     0
102
RTVSPost2010PropOp28
 70
     1
102
RTVSPost2010Prop29
280
     1
102
RTVSPost2010PropOp29
 70
     1
102
RTVSPost2010Prop30
280
     1
102
RTVSPost2010PropOp30
 70
     1
102
RTVSPost2010Prop31
280
     0
102
RTVSPost2010PropOp31
 70
     1
102
RTVSPost2010Prop32
280
     0
102
RTVSPost2010PropOp32
 70
     1
102
RTVSPost2010Prop33
280
     0
102
RTVSPost2010PropOp33
 70
     1
102
RTVSPost2010Prop34
280
     0
102
RTVSPost2010PropOp34
 70
     1
102
RTVSPost2010Prop35
280
     0
102
RTVSPost2010PropOp35
 70
     1
102
RTVSPost2010Prop36
280
     0
102
RTVSPost2010PropOp36
 70
     1
102
RTVSPost2010Prop37
 90
       50
102
RTVSPost2010PropOp37
 70
     1
102
RTVSPost2010Prop38
140
0.0
102
RTVSPost2010PropOp38
 70
     1
102
RTVSPost2010Prop39
140
1.0
102
RTVSPost2010PropOp39
 70
     1
102
RTVSPost2010Prop40
 90
        0
102
RTVSPost2010PropOp40
 70
     1
102
RTVSPost2010Prop41ColorIndex
 90
       18
102
RTVSPost2010Prop41ColorRGB
 90
        0
102
RTVSPost2010PropOp41
 70
     1
102
RTVSPost2010Prop42
 90
       50
102
RTVSPost2010PropOp42
 70
     1
102
RTVSPost2010Prop43
 90
        3
102
RTVSPost2010PropOp43
 70
     1
102
RTVSPost2010Prop44ColorIndex
 90
        5
102
RTVSPost2010Prop44ColorRGB
 90
      255
102
RTVSPost2010PropOp44
 70
     1
102
RTVSPost2010Prop45
280
     0
102
RTVSPost2010PropOp45
 70
     1
102
RTVSPost2010Prop46
 90
       50
102
RTVSPost2010PropOp46
 70
     1
102
RTVSPost2010Prop47
 90
       50
102
RTVSPost2010PropOp47
 70
     1
102
RTVSPost2010Prop48
 90
       50
102
RTVSPost2010PropOp48
 70
     1
102
RTVSPost2010Prop49
280
     0
102
RTVSPost2010PropOp49
 70
     1
102
RTVSPost2010Prop50
 90
       50
102
RTVSPost2010PropOp50
 70
     1
102
RTVSPost2010Prop51ColorIndex
 90
      256
102
RTVSPost2010Prop51ColorRGB
 90
-16777216
102
RTVSPost2010PropOp51
 70
     0
102
RTVSPost2010Prop52
140
1.0
102
RTVSPost2010PropOp52
 70
     0
102
RTVSPost2010Prop53
 90
        2
102
RTVSPost2010PropOp53
 70
     1
102
RTVSPost2010Prop54
  1
strokes_ogs.tif
102
RTVSPost2010PropOp54
 70
     1
102
RTVSPost2010Prop55
280
     0
102
RTVSPost2010PropOp55
 70
     1
102
RTVSPost2010Prop56
140
1.0
102
RTVSPost2010PropOp56
 70
     1
102
RTVSPost2010Prop57
140
1.0
102
RTVSPost2010PropOp57
 70
     1
  0
XRECORD
  5
B9C
102
{ACAD_REACTORS
330
B9B
102
}
330
B9B
100
AcDbXrecord
280
     1
102
RTVSPost2010Prop28
280
     0
102
RTVSPost2010PropOp28
 70
     1
102
RTVSPost2010Prop29
280
     1
102
RTVSPost2010PropOp29
 70
     1
102
RTVSPost2010Prop30
280
     1
102
RTVSPost2010PropOp30
 70
     1
102
RTVSPost2010Prop31
280
     0
102
RTVSPost2010PropOp31
 70
     1
102
RTVSPost2010Prop32
280
     0
102
RTVSPost2010PropOp32
 70
     1
102
RTVSPost2010Prop33
280
     0
102
RTVSPost2010PropOp33
 70
     1
102
RTVSPost2010Prop34
280
     0
102
RTVSPost2010PropOp34
 70
     1
102
RTVSPost2010Prop35
280
     0
102
RTVSPost2010PropOp35
 70
     1
102
RTVSPost2010Prop36
280
     0
102
RTVSPost2010PropOp36
 70
     1
102
RTVSPost2010Prop37
 90
       50
102
RTVSPost2010PropOp37
 70
     1
102
RTVSPost2010Prop38
140
0.0
102
RTVSPost2010PropOp38
 70
     1
102
RTVSPost2010Prop39
140
1.0
102
RTVSPost2010PropOp39
 70
     1
102
RTVSPost2010Prop40
 90
        0
102
RTVSPost2010PropOp40
 70
     1
102
RTVSPost2010Prop41ColorIndex
 90
       18
102
RTVSPost2010Prop41ColorRGB
 90
        0
102
RTVSPost2010PropOp41
 70
     1
102
RTVSPost2010Prop42
 90
       50
102
RTVSPost2010PropOp42
 70
     1
102
RTVSPost2010Prop43
 90
        3
102
RTVSPost2010PropOp43
 70
     1
102
RTVSPost2010Prop44ColorIndex
 90
        5
102
RTVSPost2010Prop44ColorRGB
 90
      255
102
RTVSPost2010PropOp44
 70
     1
102
RTVSPost2010Prop45
280
     0
102
RTVSPost2010PropOp45
 70
     1
102
RTVSPost2010Prop46
 90
       50
102
RTVSPost2010PropOp46
 70
     1
102
RTVSPost2010Prop47
 90
       50
102
RTVSPost2010PropOp47
 70
     1
102
RTVSPost2010Prop48
 90
       50
102
RTVSPost2010PropOp48
 70
     1
102
RTVSPost2010Prop49
280
     0
102
RTVSPost2010PropOp49
 70
     1
102
RTVSPost2010Prop50
 90
       50
102
RTVSPost2010PropOp50
 70
     1
102
RTVSPost2010Prop51ColorIndex
 90
      256
102
RTVSPost2010Prop51ColorRGB
 90
-16777216
102
RTVSPost2010PropOp51
 70
     0
102
RTVSPost2010Prop52
140
1.0
102
RTVSPost2010PropOp52
 70
     0
102
RTVSPost2010Prop53
 90
        2
102
RTVSPost2010PropOp53
 70
     1
102
RTVSPost2010Prop54
  1
strokes_ogs.tif
102
RTVSPost2010PropOp54
 70
     1
102
RTVSPost2010Prop55
280
     0
102
RTVSPost2010PropOp55
 70
     1
102
RTVSPost2010Prop56
140
1.0
102
RTVSPost2010PropOp56
 70
     1
102
RTVSPost2010Prop57
140
1.0
102
RTVSPost2010PropOp57
 70
     1
  0
XRECORD
  5
BB8
102
{ACAD_REACTORS
330
BB7
102
}
330
BB7
100
AcDbXrecord
280
     1
102
RTVSPost2010Prop28
280
     0
102
RTVSPost2010PropOp28
 70
     1
102
RTVSPost2010Prop29
280
     1
102
RTVSPost2010PropOp29
 70
     1
102
RTVSPost2010Prop30
280
     1
102
RTVSPost2010PropOp30
 70
     1
102
RTVSPost2010Prop31
280
     0
102
RTVSPost2010PropOp31
 70
     1
102
RTVSPost2010Prop32
280
     0
102
RTVSPost2010PropOp32
 70
     1
102
RTVSPost2010Prop33
280
     0
102
RTVSPost2010PropOp33
 70
     1
102
RTVSPost2010Prop34
280
     0
102
RTVSPost2010PropOp34
 70
     1
102
RTVSPost2010Prop35
280
     0
102
RTVSPost2010PropOp35
 70
     1
102
RTVSPost2010Prop36
280
     0
102
RTVSPost2010PropOp36
 70
     1
102
RTVSPost2010Prop37
 90
       50
102
RTVSPost2010PropOp37
 70
     1
102
RTVSPost2010Prop38
140
0.0
102
RTVSPost2010PropOp38
 70
     1
102
RTVSPost2010Prop39
140
1.0
102
RTVSPost2010PropOp39
 70
     1
102
RTVSPost2010Prop40
 90
        0
102
RTVSPost2010PropOp40
 70
     1
102
RTVSPost2010Prop41ColorIndex
 90
       18
102
RTVSPost2010Prop41ColorRGB
 90
        0
102
RTVSPost2010PropOp41
 70
     1
102
RTVSPost2010Prop42
 90
       50
102
RTVSPost2010PropOp42
 70
     1
102
RTVSPost2010Prop43
 90
        3
102
RTVSPost2010PropOp43
 70
     1
102
RTVSPost2010Prop44ColorIndex
 90
        5
102
RTVSPost2010Prop44ColorRGB
 90
      255
102
RTVSPost2010PropOp44
 70
     1
102
RTVSPost2010Prop45
280
     0
102
RTVSPost2010PropOp45
 70
     1
102
RTVSPost2010Prop46
 90
       50
102
RTVSPost2010PropOp46
 70
     1
102
RTVSPost2010Prop47
 90
       50
102
RTVSPost2010PropOp47
 70
     1
102
RTVSPost2010Prop48
 90
       50
102
RTVSPost2010PropOp48
 70
     1
102
RTVSPost2010Prop49
280
     0
102
RTVSPost2010PropOp49
 70
     1
102
RTVSPost2010Prop50
 90
       50
102
RTVSPost2010PropOp50
 70
     1
102
RTVSPost2010Prop51ColorIndex
 90
      256
102
RTVSPost2010Prop51ColorRGB
 90
-16777216
102
RTVSPost2010PropOp51
 70
     0
102
RTVSPost2010Prop52
140
1.0
102
RTVSPost2010PropOp52
 70
     0
102
RTVSPost2010Prop53
 90
        2
102
RTVSPost2010PropOp53
 70
     1
102
RTVSPost2010Prop54
  1
strokes_ogs.tif
102
RTVSPost2010PropOp54
 70
     1
102
RTVSPost2010Prop55
280
     0
102
RTVSPost2010PropOp55
 70
     1
102
RTVSPost2010Prop56
140
1.0
102
RTVSPost2010PropOp56
 70
     1
102
RTVSPost2010Prop57
140
1.0
102
RTVSPost2010PropOp57
 70
     1
  0
XRECORD
  5
BC4
102
{ACAD_REACTORS
330
BC3
102
}
330
BC3
100
AcDbXrecord
280
     1
102
RTVSPost2010Prop28
280
     0
102
RTVSPost2010PropOp28
 70
     0
102
RTVSPost2010Prop29
280
     1
102
RTVSPost2010PropOp29
 70
     0
102
RTVSPost2010Prop30
280
     1
102
RTVSPost2010PropOp30
 70
     0
102
RTVSPost2010Prop31
280
     0
102
RTVSPost2010PropOp31
 70
     0
102
RTVSPost2010Prop32
280
     0
102
RTVSPost2010PropOp32
 70
     0
102
RTVSPost2010Prop33
280
     0
102
RTVSPost2010PropOp33
 70
     0
102
RTVSPost2010Prop34
280
     0
102
RTVSPost2010PropOp34
 70
     0
102
RTVSPost2010Prop35
280
     0
102
RTVSPost2010PropOp35
 70
     0
102
RTVSPost2010Prop36
280
     0
102
RTVSPost2010PropOp36
 70
     0
102
RTVSPost2010Prop37
 90
       50
102
RTVSPost2010PropOp37
 70
     0
102
RTVSPost2010Prop38
140
0.0
102
RTVSPost2010PropOp38
 70
     0
102
RTVSPost2010Prop39
140
1.0
102
RTVSPost2010PropOp39
 70
     0
102
RTVSPost2010Prop40
 90
        0
102
RTVSPost2010PropOp40
 70
     0
102
RTVSPost2010Prop41ColorIndex
 90
       18
102
RTVSPost2010Prop41ColorRGB
 90
        0
102
RTVSPost2010PropOp41
 70
     0
102
RTVSPost2010Prop42
 90
       50
102
RTVSPost2010PropOp42
 70
     0
102
RTVSPost2010Prop43
 90
        3
102
RTVSPost2010PropOp43
 70
     0
102
RTVSPost2010Prop44ColorIndex
 90
        5
102
RTVSPost2010Prop44ColorRGB
 90
      255
102
RTVSPost2010PropOp44
 70
     0
102
RTVSPost2010Prop45
280
     0
102
RTVSPost2010PropOp45
 70
     0
102
RTVSPost2010Prop46
 90
       50
102
RTVSPost2010PropOp46
 70
     0
102
RTVSPost2010Prop47
 90
       50
102
RTVSPost2010PropOp47
 70
     0
102
RTVSPost2010Prop48
 90
       50
102
RTVSPost2010PropOp48
 70
     0
102
RTVSPost2010Prop49
280
     0
102
RTVSPost2010PropOp49
 70
     0
102
RTVSPost2010Prop50
 90
       50
102
RTVSPost2010PropOp50
 70
     0
102
RTVSPost2010Prop51ColorIndex
 90
      256
102
RTVSPost2010Prop51ColorRGB
 90
-16777216
102
RTVSPost2010PropOp51
 70
     0
102
RTVSPost2010Prop52
140
1.0
102
RTVSPost2010PropOp52
 70
     0
102
RTVSPost2010Prop53
 90
        2
102
RTVSPost2010PropOp53
 70
     0
102
RTVSPost2010Prop54
  1
strokes_ogs.tif
102
RTVSPost2010PropOp54
 70
     0
102
RTVSPost2010Prop55
280
     0
102
RTVSPost2010PropOp55
 70
     0
102
RTVSPost2010Prop56
140
1.0
102
RTVSPost2010PropOp56
 70
     0
102
RTVSPost2010Prop57
140
1.0
102
RTVSPost2010PropOp57
 70
     0
  0
XRECORD
  5
BB0
102
{ACAD_REACTORS
330
BAF
102
}
330
BAF
100
AcDbXrecord
280
     1
102
RTVSPost2010Prop28
280
     0
102
RTVSPost2010PropOp28
 70
     1
102
RTVSPost2010Prop29
280
     1
102
RTVSPost2010PropOp29
 70
     1
102
RTVSPost2010Prop30
280
     1
102
RTVSPost2010PropOp30
 70
     1
102
RTVSPost2010Prop31
280
     0
102
RTVSPost2010PropOp31
 70
     1
102
RTVSPost2010Prop32
280
     0
102
RTVSPost2010PropOp32
 70
     1
102
RTVSPost2010Prop33
280
     0
102
RTVSPost2010PropOp33
 70
     1
102
RTVSPost2010Prop34
280
     0
102
RTVSPost2010PropOp34
 70
     1
102
RTVSPost2010Prop35
280
     0
102
RTVSPost2010PropOp35
 70
     1
102
RTVSPost2010Prop36
280
     0
102
RTVSPost2010PropOp36
 70
     1
102
RTVSPost2010Prop37
 90
       50
102
RTVSPost2010PropOp37
 70
     1
102
RTVSPost2010Prop38
140
0.0
102
RTVSPost2010PropOp38
 70
     1
102
RTVSPost2010Prop39
140
1.0
102
RTVSPost2010PropOp39
 70
     1
102
RTVSPost2010Prop40
 90
        0
102
RTVSPost2010PropOp40
 70
     1
102
RTVSPost2010Prop41ColorIndex
 90
       18
102
RTVSPost2010Prop41ColorRGB
 90
        0
102
RTVSPost2010PropOp41
 70
     1
102
RTVSPost2010Prop42
 90
       50
102
RTVSPost2010PropOp42
 70
     1
102
RTVSPost2010Prop43
 90
        3
102
RTVSPost2010PropOp43
 70
     1
102
RTVSPost2010Prop44ColorIndex
 90
        5
102
RTVSPost2010Prop44ColorRGB
 90
      255
102
RTVSPost2010PropOp44
 70
     1
102
RTVSPost2010Prop45
280
     0
102
RTVSPost2010PropOp45
 70
     1
102
RTVSPost2010Prop46
 90
       50
102
RTVSPost2010PropOp46
 70
     1
102
RTVSPost2010Prop47
 90
       50
102
RTVSPost2010PropOp47
 70
     1
102
RTVSPost2010Prop48
 90
       50
102
RTVSPost2010PropOp48
 70
     1
102
RTVSPost2010Prop49
280
     0
102
RTVSPost2010PropOp49
 70
     1
102
RTVSPost2010Prop50
 90
       50
102
RTVSPost2010PropOp50
 70
     1
102
RTVSPost2010Prop51ColorIndex
 90
      256
102
RTVSPost2010Prop51ColorRGB
 90
-16777216
102
RTVSPost2010PropOp51
 70
     0
102
RTVSPost2010Prop52
140
1.0
102
RTVSPost2010PropOp52
 70
     0
102
RTVSPost2010Prop53
 90
        2
102
RTVSPost2010PropOp53
 70
     1
102
RTVSPost2010Prop54
  1
strokes_ogs.tif
102
RTVSPost2010PropOp54
 70
     1
102
RTVSPost2010Prop55
280
     0
102
RTVSPost2010PropOp55
 70
     1
102
RTVSPost2010Prop56
140
1.0
102
RTVSPost2010PropOp56
 70
     1
102
RTVSPost2010Prop57
140
1.0
102
RTVSPost2010PropOp57
 70
     1
  0
XRECORD
  5
BC6
102
{ACAD_REACTORS
330
BC5
102
}
330
BC5
100
AcDbXrecord
280
     1
102
RTVSPost2010Prop28
280
     0
102
RTVSPost2010PropOp28
 70
     0
102
RTVSPost2010Prop29
280
     1
102
RTVSPost2010PropOp29
 70
     0
102
RTVSPost2010Prop30
280
     1
102
RTVSPost2010PropOp30
 70
     0
102
RTVSPost2010Prop31
280
     0
102
RTVSPost2010PropOp31
 70
     0
102
RTVSPost2010Prop32
280
     0
102
RTVSPost2010PropOp32
 70
     0
102
RTVSPost2010Prop33
280
     0
102
RTVSPost2010PropOp33
 70
     0
102
RTVSPost2010Prop34
280
     0
102
RTVSPost2010PropOp34
 70
     0
102
RTVSPost2010Prop35
280
     0
102
RTVSPost2010PropOp35
 70
     0
102
RTVSPost2010Prop36
280
     0
102
RTVSPost2010PropOp36
 70
     0
102
RTVSPost2010Prop37
 90
       50
102
RTVSPost2010PropOp37
 70
     0
102
RTVSPost2010Prop38
140
0.0
102
RTVSPost2010PropOp38
 70
     0
102
RTVSPost2010Prop39
140
1.0
102
RTVSPost2010PropOp39
 70
     0
102
RTVSPost2010Prop40
 90
        0
102
RTVSPost2010PropOp40
 70
     0
102
RTVSPost2010Prop41ColorIndex
 90
       18
102
RTVSPost2010Prop41ColorRGB
 90
        0
102
RTVSPost2010PropOp41
 70
     0
102
RTVSPost2010Prop42
 90
       50
102
RTVSPost2010PropOp42
 70
     0
102
RTVSPost2010Prop43
 90
        3
102
RTVSPost2010PropOp43
 70
     0
102
RTVSPost2010Prop44ColorIndex
 90
        5
102
RTVSPost2010Prop44ColorRGB
 90
      255
102
RTVSPost2010PropOp44
 70
     0
102
RTVSPost2010Prop45
280
     0
102
RTVSPost2010PropOp45
 70
     0
102
RTVSPost2010Prop46
 90
       50
102
RTVSPost2010PropOp46
 70
     0
102
RTVSPost2010Prop47
 90
       50
102
RTVSPost2010PropOp47
 70
     0
102
RTVSPost2010Prop48
 90
       50
102
RTVSPost2010PropOp48
 70
     0
102
RTVSPost2010Prop49
280
     0
102
RTVSPost2010PropOp49
 70
     0
102
RTVSPost2010Prop50
 90
       50
102
RTVSPost2010PropOp50
 70
     0
102
RTVSPost2010Prop51ColorIndex
 90
      256
102
RTVSPost2010Prop51ColorRGB
 90
-16777216
102
RTVSPost2010PropOp51
 70
     0
102
RTVSPost2010Prop52
140
1.0
102
RTVSPost2010PropOp52
 70
     0
102
RTVSPost2010Prop53
 90
        2
102
RTVSPost2010PropOp53
 70
     0
102
RTVSPost2010Prop54
  1
strokes_ogs.tif
102
RTVSPost2010PropOp54
 70
     0
102
RTVSPost2010Prop55
280
     0
102
RTVSPost2010PropOp55
 70
     0
102
RTVSPost2010Prop56
140
1.0
102
RTVSPost2010PropOp56
 70
     0
102
RTVSPost2010Prop57
140
1.0
102
RTVSPost2010PropOp57
 70
     0
  0
XRECORD
  5
BA6
102
{ACAD_REACTORS
330
BA5
102
}
330
BA5
100
AcDbXrecord
280
     1
102
RTVSPost2010Prop28
280
     0
102
RTVSPost2010PropOp28
 70
     1
102
RTVSPost2010Prop29
280
     1
102
RTVSPost2010PropOp29
 70
     1
102
RTVSPost2010Prop30
280
     1
102
RTVSPost2010PropOp30
 70
     1
102
RTVSPost2010Prop31
280
     0
102
RTVSPost2010PropOp31
 70
     1
102
RTVSPost2010Prop32
280
     0
102
RTVSPost2010PropOp32
 70
     1
102
RTVSPost2010Prop33
280
     0
102
RTVSPost2010PropOp33
 70
     1
102
RTVSPost2010Prop34
280
     0
102
RTVSPost2010PropOp34
 70
     1
102
RTVSPost2010Prop35
280
     0
102
RTVSPost2010PropOp35
 70
     1
102
RTVSPost2010Prop36
280
     0
102
RTVSPost2010PropOp36
 70
     1
102
RTVSPost2010Prop37
 90
       50
102
RTVSPost2010PropOp37
 70
     1
102
RTVSPost2010Prop38
140
0.0
102
RTVSPost2010PropOp38
 70
     1
102
RTVSPost2010Prop39
140
1.0
102
RTVSPost2010PropOp39
 70
     1
102
RTVSPost2010Prop40
 90
        0
102
RTVSPost2010PropOp40
 70
     1
102
RTVSPost2010Prop41ColorIndex
 90
       18
102
RTVSPost2010Prop41ColorRGB
 90
        0
102
RTVSPost2010PropOp41
 70
     1
102
RTVSPost2010Prop42
 90
       50
102
RTVSPost2010PropOp42
 70
     1
102
RTVSPost2010Prop43
 90
        3
102
RTVSPost2010PropOp43
 70
     1
102
RTVSPost2010Prop44ColorIndex
 90
        5
102
RTVSPost2010Prop44ColorRGB
 90
      255
102
RTVSPost2010PropOp44
 70
     1
102
RTVSPost2010Prop45
280
     0
102
RTVSPost2010PropOp45
 70
     1
102
RTVSPost2010Prop46
 90
       50
102
RTVSPost2010PropOp46
 70
     1
102
RTVSPost2010Prop47
 90
       50
102
RTVSPost2010PropOp47
 70
     1
102
RTVSPost2010Prop48
 90
       50
102
RTVSPost2010PropOp48
 70
     1
102
RTVSPost2010Prop49
280
     0
102
RTVSPost2010PropOp49
 70
     1
102
RTVSPost2010Prop50
 90
       50
102
RTVSPost2010PropOp50
 70
     1
102
RTVSPost2010Prop51ColorIndex
 90
      256
102
RTVSPost2010Prop51ColorRGB
 90
-16777216
102
RTVSPost2010PropOp51
 70
     0
102
RTVSPost2010Prop52
140
1.0
102
RTVSPost2010PropOp52
 70
     0
102
RTVSPost2010Prop53
 90
        2
102
RTVSPost2010PropOp53
 70
     1
102
RTVSPost2010Prop54
  1
strokes_ogs.tif
102
RTVSPost2010PropOp54
 70
     1
102
RTVSPost2010Prop55
280
     0
102
RTVSPost2010PropOp55
 70
     1
102
RTVSPost2010Prop56
140
1.0
102
RTVSPost2010PropOp56
 70
     1
102
RTVSPost2010Prop57
140
1.0
102
RTVSPost2010PropOp57
 70
     1
  0
XRECORD
  5
BC2
102
{ACAD_REACTORS
330
BC1
102
}
330
BC1
100
AcDbXrecord
280
     1
102
RTVSPost2010Prop28
280
     0
102
RTVSPost2010PropOp28
 70
     1
102
RTVSPost2010Prop29
280
     1
102
RTVSPost2010PropOp29
 70
     1
102
RTVSPost2010Prop30
280
     1
102
RTVSPost2010PropOp30
 70
     1
102
RTVSPost2010Prop31
280
     0
102
RTVSPost2010PropOp31
 70
     1
102
RTVSPost2010Prop32
280
     0
102
RTVSPost2010PropOp32
 70
     1
102
RTVSPost2010Prop33
280
     0
102
RTVSPost2010PropOp33
 70
     1
102
RTVSPost2010Prop34
280
     0
102
RTVSPost2010PropOp34
 70
     1
102
RTVSPost2010Prop35
280
     0
102
RTVSPost2010PropOp35
 70
     1
102
RTVSPost2010Prop36
280
     0
102
RTVSPost2010PropOp36
 70
     1
102
RTVSPost2010Prop37
 90
       50
102
RTVSPost2010PropOp37
 70
     1
102
RTVSPost2010Prop38
140
0.0
102
RTVSPost2010PropOp38
 70
     1
102
RTVSPost2010Prop39
140
1.0
102
RTVSPost2010PropOp39
 70
     1
102
RTVSPost2010Prop40
 90
        0
102
RTVSPost2010PropOp40
 70
     1
102
RTVSPost2010Prop41ColorIndex
 90
       18
102
RTVSPost2010Prop41ColorRGB
 90
        0
102
RTVSPost2010PropOp41
 70
     1
102
RTVSPost2010Prop42
 90
       50
102
RTVSPost2010PropOp42
 70
     1
102
RTVSPost2010Prop43
 90
        3
102
RTVSPost2010PropOp43
 70
     1
102
RTVSPost2010Prop44ColorIndex
 90
        5
102
RTVSPost2010Prop44ColorRGB
 90
      255
102
RTVSPost2010PropOp44
 70
     1
102
RTVSPost2010Prop45
280
     0
102
RTVSPost2010PropOp45
 70
     1
102
RTVSPost2010Prop46
 90
       50
102
RTVSPost2010PropOp46
 70
     1
102
RTVSPost2010Prop47
 90
       50
102
RTVSPost2010PropOp47
 70
     1
102
RTVSPost2010Prop48
 90
       50
102
RTVSPost2010PropOp48
 70
     1
102
RTVSPost2010Prop49
280
     0
102
RTVSPost2010PropOp49
 70
     1
102
RTVSPost2010Prop50
 90
       50
102
RTVSPost2010PropOp50
 70
     1
102
RTVSPost2010Prop51ColorIndex
 90
      256
102
RTVSPost2010Prop51ColorRGB
 90
-16777216
102
RTVSPost2010PropOp51
 70
     0
102
RTVSPost2010Prop52
140
1.0
102
RTVSPost2010PropOp52
 70
     0
102
RTVSPost2010Prop53
 90
        2
102
RTVSPost2010PropOp53
 70
     1
102
RTVSPost2010Prop54
  1
strokes_ogs.tif
102
RTVSPost2010PropOp54
 70
     1
102
RTVSPost2010Prop55
280
     0
102
RTVSPost2010PropOp55
 70
     1
102
RTVSPost2010Prop56
140
1.0
102
RTVSPost2010PropOp56
 70
     1
102
RTVSPost2010Prop57
140
1.0
102
RTVSPost2010PropOp57
 70
     1
  0
XRECORD
  5
BC0
102
{ACAD_REACTORS
330
BBF
102
}
330
BBF
100
AcDbXrecord
280
     1
102
RTVSPost2010Prop28
280
     0
102
RTVSPost2010PropOp28
 70
     1
102
RTVSPost2010Prop29
280
     1
102
RTVSPost2010PropOp29
 70
     1
102
RTVSPost2010Prop30
280
     1
102
RTVSPost2010PropOp30
 70
     1
102
RTVSPost2010Prop31
280
     0
102
RTVSPost2010PropOp31
 70
     1
102
RTVSPost2010Prop32
280
     0
102
RTVSPost2010PropOp32
 70
     1
102
RTVSPost2010Prop33
280
     0
102
RTVSPost2010PropOp33
 70
     1
102
RTVSPost2010Prop34
280
     0
102
RTVSPost2010PropOp34
 70
     1
102
RTVSPost2010Prop35
280
     0
102
RTVSPost2010PropOp35
 70
     1
102
RTVSPost2010Prop36
280
     0
102
RTVSPost2010PropOp36
 70
     1
102
RTVSPost2010Prop37
 90
       50
102
RTVSPost2010PropOp37
 70
     1
102
RTVSPost2010Prop38
140
0.0
102
RTVSPost2010PropOp38
 70
     1
102
RTVSPost2010Prop39
140
1.0
102
RTVSPost2010PropOp39
 70
     1
102
RTVSPost2010Prop40
 90
        0
102
RTVSPost2010PropOp40
 70
     1
102
RTVSPost2010Prop41ColorIndex
 90
       18
102
RTVSPost2010Prop41ColorRGB
 90
        0
102
RTVSPost2010PropOp41
 70
     1
102
RTVSPost2010Prop42
 90
       50
102
RTVSPost2010PropOp42
 70
     1
102
RTVSPost2010Prop43
 90
        3
102
RTVSPost2010PropOp43
 70
     1
102
RTVSPost2010Prop44ColorIndex
 90
        5
102
RTVSPost2010Prop44ColorRGB
 90
      255
102
RTVSPost2010PropOp44
 70
     1
102
RTVSPost2010Prop45
280
     0
102
RTVSPost2010PropOp45
 70
     1
102
RTVSPost2010Prop46
 90
       50
102
RTVSPost2010PropOp46
 70
     1
102
RTVSPost2010Prop47
 90
       50
102
RTVSPost2010PropOp47
 70
     1
102
RTVSPost2010Prop48
 90
       50
102
RTVSPost2010PropOp48
 70
     1
102
RTVSPost2010Prop49
280
     0
102
RTVSPost2010PropOp49
 70
     1
102
RTVSPost2010Prop50
 90
       50
102
RTVSPost2010PropOp50
 70
     1
102
RTVSPost2010Prop51ColorIndex
 90
      256
102
RTVSPost2010Prop51ColorRGB
 90
-16777216
102
RTVSPost2010PropOp51
 70
     0
102
RTVSPost2010Prop52
140
1.0
102
RTVSPost2010PropOp52
 70
     0
102
RTVSPost2010Prop53
 90
        2
102
RTVSPost2010PropOp53
 70
     1
102
RTVSPost2010Prop54
  1
strokes_ogs.tif
102
RTVSPost2010PropOp54
 70
     1
102
RTVSPost2010Prop55
280
     0
102
RTVSPost2010PropOp55
 70
     1
102
RTVSPost2010Prop56
140
1.0
102
RTVSPost2010PropOp56
 70
     1
102
RTVSPost2010Prop57
140
1.0
102
RTVSPost2010PropOp57
 70
     1
  0
XRECORD
  5
BBA
102
{ACAD_REACTORS
330
BB9
102
}
330
BB9
100
AcDbXrecord
280
     1
102
RTVSPost2010Prop28
280
     0
102
RTVSPost2010PropOp28
 70
     1
102
RTVSPost2010Prop29
280
     1
102
RTVSPost2010PropOp29
 70
     1
102
RTVSPost2010Prop30
280
     1
102
RTVSPost2010PropOp30
 70
     1
102
RTVSPost2010Prop31
280
     0
102
RTVSPost2010PropOp31
 70
     1
102
RTVSPost2010Prop32
280
     0
102
RTVSPost2010PropOp32
 70
     1
102
RTVSPost2010Prop33
280
     0
102
RTVSPost2010PropOp33
 70
     1
102
RTVSPost2010Prop34
280
     0
102
RTVSPost2010PropOp34
 70
     1
102
RTVSPost2010Prop35
280
     0
102
RTVSPost2010PropOp35
 70
     1
102
RTVSPost2010Prop36
280
     0
102
RTVSPost2010PropOp36
 70
     1
102
RTVSPost2010Prop37
 90
       50
102
RTVSPost2010PropOp37
 70
     1
102
RTVSPost2010Prop38
140
0.0
102
RTVSPost2010PropOp38
 70
     1
102
RTVSPost2010Prop39
140
1.0
102
RTVSPost2010PropOp39
 70
     1
102
RTVSPost2010Prop40
 90
        0
102
RTVSPost2010PropOp40
 70
     1
102
RTVSPost2010Prop41ColorIndex
 90
       18
102
RTVSPost2010Prop41ColorRGB
 90
        0
102
RTVSPost2010PropOp41
 70
     1
102
RTVSPost2010Prop42
 90
       50
102
RTVSPost2010PropOp42
 70
     1
102
RTVSPost2010Prop43
 90
        3
102
RTVSPost2010PropOp43
 70
     1
102
RTVSPost2010Prop44ColorIndex
 90
        5
102
RTVSPost2010Prop44ColorRGB
 90
      255
102
RTVSPost2010PropOp44
 70
     1
102
RTVSPost2010Prop45
280
     0
102
RTVSPost2010PropOp45
 70
     1
102
RTVSPost2010Prop46
 90
       50
102
RTVSPost2010PropOp46
 70
     1
102
RTVSPost2010Prop47
 90
       50
102
RTVSPost2010PropOp47
 70
     1
102
RTVSPost2010Prop48
 90
       50
102
RTVSPost2010PropOp48
 70
     1
102
RTVSPost2010Prop49
280
     0
102
RTVSPost2010PropOp49
 70
     1
102
RTVSPost2010Prop50
 90
       50
102
RTVSPost2010PropOp50
 70
     1
102
RTVSPost2010Prop51ColorIndex
 90
      256
102
RTVSPost2010Prop51ColorRGB
 90
-16777216
102
RTVSPost2010PropOp51
 70
     0
102
RTVSPost2010Prop52
140
1.0
102
RTVSPost2010PropOp52
 70
     0
102
RTVSPost2010Prop53
 90
        2
102
RTVSPost2010PropOp53
 70
     1
102
RTVSPost2010Prop54
  1
strokes_ogs.tif
102
RTVSPost2010PropOp54
 70
     1
102
RTVSPost2010Prop55
280
     0
102
RTVSPost2010PropOp55
 70
     1
102
RTVSPost2010Prop56
140
1.0
102
RTVSPost2010PropOp56
 70
     1
102
RTVSPost2010Prop57
140
1.0
102
RTVSPost2010PropOp57
 70
     1
  0
XRECORD
  5
BBC
102
{ACAD_REACTORS
330
BBB
102
}
330
BBB
100
AcDbXrecord
280
     1
102
RTVSPost2010Prop28
280
     0
102
RTVSPost2010PropOp28
 70
     1
102
RTVSPost2010Prop29
280
     1
102
RTVSPost2010PropOp29
 70
     1
102
RTVSPost2010Prop30
280
     1
102
RTVSPost2010PropOp30
 70
     1
102
RTVSPost2010Prop31
280
     0
102
RTVSPost2010PropOp31
 70
     1
102
RTVSPost2010Prop32
280
     0
102
RTVSPost2010PropOp32
 70
     1
102
RTVSPost2010Prop33
280
     0
102
RTVSPost2010PropOp33
 70
     1
102
RTVSPost2010Prop34
280
     0
102
RTVSPost2010PropOp34
 70
     1
102
RTVSPost2010Prop35
280
     0
102
RTVSPost2010PropOp35
 70
     1
102
RTVSPost2010Prop36
280
     0
102
RTVSPost2010PropOp36
 70
     1
102
RTVSPost2010Prop37
 90
       50
102
RTVSPost2010PropOp37
 70
     1
102
RTVSPost2010Prop38
140
0.0
102
RTVSPost2010PropOp38
 70
     1
102
RTVSPost2010Prop39
140
1.0
102
RTVSPost2010PropOp39
 70
     1
102
RTVSPost2010Prop40
 90
        0
102
RTVSPost2010PropOp40
 70
     1
102
RTVSPost2010Prop41ColorIndex
 90
       18
102
RTVSPost2010Prop41ColorRGB
 90
        0
102
RTVSPost2010PropOp41
 70
     1
102
RTVSPost2010Prop42
 90
       50
102
RTVSPost2010PropOp42
 70
     1
102
RTVSPost2010Prop43
 90
        3
102
RTVSPost2010PropOp43
 70
     1
102
RTVSPost2010Prop44ColorIndex
 90
        5
102
RTVSPost2010Prop44ColorRGB
 90
      255
102
RTVSPost2010PropOp44
 70
     1
102
RTVSPost2010Prop45
280
     0
102
RTVSPost2010PropOp45
 70
     1
102
RTVSPost2010Prop46
 90
       50
102
RTVSPost2010PropOp46
 70
     1
102
RTVSPost2010Prop47
 90
       50
102
RTVSPost2010PropOp47
 70
     1
102
RTVSPost2010Prop48
 90
       50
102
RTVSPost2010PropOp48
 70
     1
102
RTVSPost2010Prop49
280
     0
102
RTVSPost2010PropOp49
 70
     1
102
RTVSPost2010Prop50
 90
       50
102
RTVSPost2010PropOp50
 70
     1
102
RTVSPost2010Prop51ColorIndex
 90
      256
102
RTVSPost2010Prop51ColorRGB
 90
-16777216
102
RTVSPost2010PropOp51
 70
     0
102
RTVSPost2010Prop52
140
1.0
102
RTVSPost2010PropOp52
 70
     0
102
RTVSPost2010Prop53
 90
        2
102
RTVSPost2010PropOp53
 70
     1
102
RTVSPost2010Prop54
  1
strokes_ogs.tif
102
RTVSPost2010PropOp54
 70
     1
102
RTVSPost2010Prop55
280
     0
102
RTVSPost2010PropOp55
 70
     1
102
RTVSPost2010Prop56
140
1.0
102
RTVSPost2010PropOp56
 70
     1
102
RTVSPost2010Prop57
140
1.0
102
RTVSPost2010PropOp57
 70
     1
  0
XRECORD
  5
BAE
102
{ACAD_REACTORS
330
BAD
102
}
330
BAD
100
AcDbXrecord
280
     1
102
RTVSPost2010Prop28
280
     0
102
RTVSPost2010PropOp28
 70
     1
102
RTVSPost2010Prop29
280
     1
102
RTVSPost2010PropOp29
 70
     1
102
RTVSPost2010Prop30
280
     1
102
RTVSPost2010PropOp30
 70
     1
102
RTVSPost2010Prop31
280
     0
102
RTVSPost2010PropOp31
 70
     1
102
RTVSPost2010Prop32
280
     0
102
RTVSPost2010PropOp32
 70
     1
102
RTVSPost2010Prop33
280
     0
102
RTVSPost2010PropOp33
 70
     1
102
RTVSPost2010Prop34
280
     0
102
RTVSPost2010PropOp34
 70
     1
102
RTVSPost2010Prop35
280
     0
102
RTVSPost2010PropOp35
 70
     1
102
RTVSPost2010Prop36
280
     0
102
RTVSPost2010PropOp36
 70
     1
102
RTVSPost2010Prop37
 90
       50
102
RTVSPost2010PropOp37
 70
     1
102
RTVSPost2010Prop38
140
0.0
102
RTVSPost2010PropOp38
 70
     1
102
RTVSPost2010Prop39
140
1.0
102
RTVSPost2010PropOp39
 70
     1
102
RTVSPost2010Prop40
 90
        0
102
RTVSPost2010PropOp40
 70
     1
102
RTVSPost2010Prop41ColorIndex
 90
       18
102
RTVSPost2010Prop41ColorRGB
 90
        0
102
RTVSPost2010PropOp41
 70
     1
102
RTVSPost2010Prop42
 90
       50
102
RTVSPost2010PropOp42
 70
     1
102
RTVSPost2010Prop43
 90
        3
102
RTVSPost2010PropOp43
 70
     1
102
RTVSPost2010Prop44ColorIndex
 90
        5
102
RTVSPost2010Prop44ColorRGB
 90
      255
102
RTVSPost2010PropOp44
 70
     1
102
RTVSPost2010Prop45
280
     0
102
RTVSPost2010PropOp45
 70
     1
102
RTVSPost2010Prop46
 90
       50
102
RTVSPost2010PropOp46
 70
     1
102
RTVSPost2010Prop47
 90
       50
102
RTVSPost2010PropOp47
 70
     1
102
RTVSPost2010Prop48
 90
       50
102
RTVSPost2010PropOp48
 70
     1
102
RTVSPost2010Prop49
280
     0
102
RTVSPost2010PropOp49
 70
     1
102
RTVSPost2010Prop50
 90
       50
102
RTVSPost2010PropOp50
 70
     1
102
RTVSPost2010Prop51ColorIndex
 90
      256
102
RTVSPost2010Prop51ColorRGB
 90
-16777216
102
RTVSPost2010PropOp51
 70
     0
102
RTVSPost2010Prop52
140
1.0
102
RTVSPost2010PropOp52
 70
     0
102
RTVSPost2010Prop53
 90
        2
102
RTVSPost2010PropOp53
 70
     1
102
RTVSPost2010Prop54
  1
strokes_ogs.tif
102
RTVSPost2010PropOp54
 70
     1
102
RTVSPost2010Prop55
280
     0
102
RTVSPost2010PropOp55
 70
     1
102
RTVSPost2010Prop56
140
1.0
102
RTVSPost2010PropOp56
 70
     1
102
RTVSPost2010Prop57
140
1.0
102
RTVSPost2010PropOp57
 70
     1
  0
XRECORD
  5
BB6
102
{ACAD_REACTORS
330
BB5
102
}
330
BB5
100
AcDbXrecord
280
     1
102
RTVSPost2010Prop28
280
     0
102
RTVSPost2010PropOp28
 70
     1
102
RTVSPost2010Prop29
280
     1
102
RTVSPost2010PropOp29
 70
     1
102
RTVSPost2010Prop30
280
     1
102
RTVSPost2010PropOp30
 70
     1
102
RTVSPost2010Prop31
280
     0
102
RTVSPost2010PropOp31
 70
     1
102
RTVSPost2010Prop32
280
     0
102
RTVSPost2010PropOp32
 70
     1
102
RTVSPost2010Prop33
280
     0
102
RTVSPost2010PropOp33
 70
     1
102
RTVSPost2010Prop34
280
     0
102
RTVSPost2010PropOp34
 70
     1
102
RTVSPost2010Prop35
280
     0
102
RTVSPost2010PropOp35
 70
     1
102
RTVSPost2010Prop36
280
     0
102
RTVSPost2010PropOp36
 70
     1
102
RTVSPost2010Prop37
 90
       50
102
RTVSPost2010PropOp37
 70
     1
102
RTVSPost2010Prop38
140
0.0
102
RTVSPost2010PropOp38
 70
     1
102
RTVSPost2010Prop39
140
1.0
102
RTVSPost2010PropOp39
 70
     1
102
RTVSPost2010Prop40
 90
        0
102
RTVSPost2010PropOp40
 70
     1
102
RTVSPost2010Prop41ColorIndex
 90
       18
102
RTVSPost2010Prop41ColorRGB
 90
        0
102
RTVSPost2010PropOp41
 70
     1
102
RTVSPost2010Prop42
 90
       50
102
RTVSPost2010PropOp42
 70
     1
102
RTVSPost2010Prop43
 90
        3
102
RTVSPost2010PropOp43
 70
     1
102
RTVSPost2010Prop44ColorIndex
 90
        5
102
RTVSPost2010Prop44ColorRGB
 90
      255
102
RTVSPost2010PropOp44
 70
     1
102
RTVSPost2010Prop45
280
     0
102
RTVSPost2010PropOp45
 70
     1
102
RTVSPost2010Prop46
 90
       50
102
RTVSPost2010PropOp46
 70
     1
102
RTVSPost2010Prop47
 90
       50
102
RTVSPost2010PropOp47
 70
     1
102
RTVSPost2010Prop48
 90
       50
102
RTVSPost2010PropOp48
 70
     1
102
RTVSPost2010Prop49
280
     0
102
RTVSPost2010PropOp49
 70
     1
102
RTVSPost2010Prop50
 90
       50
102
RTVSPost2010PropOp50
 70
     1
102
RTVSPost2010Prop51ColorIndex
 90
      256
102
RTVSPost2010Prop51ColorRGB
 90
-16777216
102
RTVSPost2010PropOp51
 70
     0
102
RTVSPost2010Prop52
140
1.0
102
RTVSPost2010PropOp52
 70
     0
102
RTVSPost2010Prop53
 90
        2
102
RTVSPost2010PropOp53
 70
     1
102
RTVSPost2010Prop54
  1
strokes_ogs.tif
102
RTVSPost2010PropOp54
 70
     1
102
RTVSPost2010Prop55
280
     0
102
RTVSPost2010PropOp55
 70
     1
102
RTVSPost2010Prop56
140
1.0
102
RTVSPost2010PropOp56
 70
     1
102
RTVSPost2010Prop57
140
1.0
102
RTVSPost2010PropOp57
 70
     1
  0
XRECORD
  5
BBE
102
{ACAD_REACTORS
330
BBD
102
}
330
BBD
100
AcDbXrecord
280
     1
102
RTVSPost2010Prop28
280
     0
102
RTVSPost2010PropOp28
 70
     1
102
RTVSPost2010Prop29
280
     1
102
RTVSPost2010PropOp29
 70
     1
102
RTVSPost2010Prop30
280
     1
102
RTVSPost2010PropOp30
 70
     1
102
RTVSPost2010Prop31
280
     0
102
RTVSPost2010PropOp31
 70
     1
102
RTVSPost2010Prop32
280
     0
102
RTVSPost2010PropOp32
 70
     1
102
RTVSPost2010Prop33
280
     0
102
RTVSPost2010PropOp33
 70
     1
102
RTVSPost2010Prop34
280
     0
102
RTVSPost2010PropOp34
 70
     1
102
RTVSPost2010Prop35
280
     0
102
RTVSPost2010PropOp35
 70
     1
102
RTVSPost2010Prop36
280
     0
102
RTVSPost2010PropOp36
 70
     1
102
RTVSPost2010Prop37
 90
       50
102
RTVSPost2010PropOp37
 70
     1
102
RTVSPost2010Prop38
140
0.0
102
RTVSPost2010PropOp38
 70
     1
102
RTVSPost2010Prop39
140
1.0
102
RTVSPost2010PropOp39
 70
     1
102
RTVSPost2010Prop40
 90
        0
102
RTVSPost2010PropOp40
 70
     1
102
RTVSPost2010Prop41ColorIndex
 90
       18
102
RTVSPost2010Prop41ColorRGB
 90
        0
102
RTVSPost2010PropOp41
 70
     1
102
RTVSPost2010Prop42
 90
       50
102
RTVSPost2010PropOp42
 70
     1
102
RTVSPost2010Prop43
 90
        3
102
RTVSPost2010PropOp43
 70
     1
102
RTVSPost2010Prop44ColorIndex
 90
        5
102
RTVSPost2010Prop44ColorRGB
 90
      255
102
RTVSPost2010PropOp44
 70
     1
102
RTVSPost2010Prop45
280
     0
102
RTVSPost2010PropOp45
 70
     1
102
RTVSPost2010Prop46
 90
       50
102
RTVSPost2010PropOp46
 70
     1
102
RTVSPost2010Prop47
 90
       50
102
RTVSPost2010PropOp47
 70
     1
102
RTVSPost2010Prop48
 90
       50
102
RTVSPost2010PropOp48
 70
     1
102
RTVSPost2010Prop49
280
     0
102
RTVSPost2010PropOp49
 70
     1
102
RTVSPost2010Prop50
 90
       50
102
RTVSPost2010PropOp50
 70
     1
102
RTVSPost2010Prop51ColorIndex
 90
      256
102
RTVSPost2010Prop51ColorRGB
 90
-16777216
102
RTVSPost2010PropOp51
 70
     0
102
RTVSPost2010Prop52
140
1.0
102
RTVSPost2010PropOp52
 70
     0
102
RTVSPost2010Prop53
 90
        2
102
RTVSPost2010PropOp53
 70
     1
102
RTVSPost2010Prop54
  1
strokes_ogs.tif
102
RTVSPost2010PropOp54
 70
     1
102
RTVSPost2010Prop55
280
     0
102
RTVSPost2010PropOp55
 70
     1
102
RTVSPost2010Prop56
140
1.0
102
RTVSPost2010PropOp56
 70
     1
102
RTVSPost2010Prop57
140
1.0
102
RTVSPost2010PropOp57
 70
     1
  0
ENDSEC
  0
EOF
